0
SECTION
2
HEADER
9
$ACADVER
1
AC1012
9
$DWGCODEPAGE
3
dos932
9
$EXTMIN
10
0.000
20
0.000
30
0.0
9
$EXTMAX
10
5940.000
20
4200.000
30
0.0
9
$LIMMIN
10
0.000
20
0.000
9
$LIMMAX
10
5940.000
20
4200.000
9
$DIMSCALE
40
20.000000
9
$LTSCALE
40
20.000
9
$PDMODE
70
0
9
$PDSIZE
40
40.0
9
$HANDSEED
5
61ffd
9
$UNITMODE
70
0
9
$VISRETAIN
70
0
9
$PLINEGEN
70
0
9
$PSLTSCALE
70
1
9
$TREEDEPTH
70
3020
9
$CMLSTYLE
2
STANDARD
9
$CMLJUST
70
0
9
$CMLSCALE
40
1.0
0
ENDSEC
0
SECTION
2
TABLES
0
TABLE
2
VPORT
5
190
100
AcDbSymbolTable
70
2
0
VPORT
5
191
100
AcDbSymbolTableRecord
100
AcDbViewportTableRecord
2
*ACTIVE
70
0
10
0.0
20
0.0
11
1.0
21
1.0
12
2970.000
22
2100.000
13
0.0
23
0.0
14
1.0
24
1.0
15
0.0
25
0.0
16
0.0
26
0.0
36
1.0
17
0.0
27
0.0
37
0.0
40
4304.348
41
2.0
42
50.0
43
0.0
44
0.0
50
0.0
51
0.0
71
0
72
1000
73
1
74
1
75
0
76
0
77
0
78
0
0
ENDTAB
0
TABLE
2
LTYPE
5
1f4
100
AcDbSymbolTable
70
9
0
LTYPE
5
1f5
100
AcDbSymbolTableRecord
100
AcDbLinetypeTableRecord
2
BYBLOCK
70
 64
3

72
 65
73
  0
40
0.0
0
LTYPE
5
1f6
100
AcDbSymbolTableRecord
100
AcDbLinetypeTableRecord
2
BYLAYER
70
 64
3

72
 65
73
  0
40
0.0
0
LTYPE
5
1f7
100
AcDbSymbolTableRecord
100
AcDbLinetypeTableRecord
2
CONTINUOUS
70
64
3
SolidLine
72
65
73
0
40
0.0
0
LTYPE
5
1f8
100
AcDbSymbolTableRecord
100
AcDbLinetypeTableRecord
2
DOT
70
64
3
--  --  --  --  --  --  --  --     
72
65
73
2
40
3.000
49
1.000
74
0
49
-2.000
74
0
0
LTYPE
5
1f9
100
AcDbSymbolTableRecord
100
AcDbLinetypeTableRecord
2
DASHED
70
64
3
----    ----    ----    ----    
72
65
73
2
40
5.000
49
2.000
74
0
49
-3.000
74
0
0
LTYPE
5
1fa
100
AcDbSymbolTableRecord
100
AcDbLinetypeTableRecord
2
DASHED2
70
64
3
------  ------  ------  ------ 
72
65
73
2
40
10.000
49
4.000
74
0
49
-6.000
74
0
0
LTYPE
5
1fb
100
AcDbSymbolTableRecord
100
AcDbLinetypeTableRecord
2
CENTER
70
64
3
----- - ----- - ----- - ----- - 
72
65
73
4
40
10.000
49
6.000
74
0
49
-3.000
74
0
49
1.000
74
0
49
-3.000
74
0
0
LTYPE
5
1fc
100
AcDbSymbolTableRecord
100
AcDbLinetypeTableRecord
2
CENTER2
70
64
3
----------  --  ----------  -- 
72
65
73
4
40
17.000
49
12.000
74
0
49
-5.000
74
0
49
2.000
74
0
49
-5.000
74
0
0
LTYPE
5
1fd
100
AcDbSymbolTableRecord
100
AcDbLinetypeTableRecord
2
PHANTOM
70
64
3
--- - - --- - - --- - - --- - -
72
65
73
6
40
13.000
49
5.000
74
0
49
-3.000
74
0
49
1.000
74
0
49
-3.000
74
0
49
1.000
74
0
49
-3.000
74
0
0
LTYPE
5
1fe
100
AcDbSymbolTableRecord
100
AcDbLinetypeTableRecord
2
PHANTOM2
70
64
3
--------  -  -  --------  -  -
72
65
73
6
40
20.000
49
6.000
74
0
49
-5.000
74
0
49
2.000
74
0
49
-5.000
74
0
49
2.000
74
0
49
-5.000
74
0
0
LTYPE
5
1ff
100
AcDbSymbolTableRecord
100
AcDbLinetypeTableRecord
2
HIDDEN
70
64
3
-   -   -   -   -   -   -   -   
72
65
73
2
40
3.000
49
0.500
74
0
49
-2.500
74
0
0
ENDTAB
0
TABLE
2
STYLE
5
200
100
AcDbSymbolTable
70
1
0
STYLE
5
201
100
AcDbSymbolTableRecord
100
AcDbTextStyleTableRecord
2
STANDARD
70
0
40
0.0
41
1.0
50
0.0
71
0
42
0.0
3
txt.shx
4
extfont.shx
0
STYLE
5
202
100
AcDbSymbolTableRecord
100
AcDbTextStyleTableRecord
2
TATEGAKI
70
4
40
0.0
41
1.0
50
0.0
71
0
42
0.0
3
txt.shx
4
extfont.shx
0
STYLE
5
203
100
AcDbSymbolTableRecord
100
AcDbTextStyleTableRecord
2
DIM
70
0
40
0.0
41
0.75
50
0.0
71
0
42
0.0
3
txt.shx
4
extfont.shx
0
STYLE
5
204
100
AcDbSymbolTableRecord
100
AcDbTextStyleTableRecord
2
_Gothic_
70
0
40
1.0
41
1.0
50
0.0
71
0
42
10.0
3

4

1001
ACAD
1000
MS Gothic
1071
32817
0
STYLE
5
205
100
AcDbSymbolTableRecord
100
AcDbTextStyleTableRecord
2
_TateGothic_
70
4
40
0.0
41
1.0
50
0.0
71
0
42
0.0
3
@MS Gothic
4

0
ENDTAB
0
TABLE
2
VIEW
5
206
100
AcDbSymbolTable
70
0
0
ENDTAB
0
TABLE
2
UCS
5
207
100
AcDbSymbolTable
70
0
0
ENDTAB
0
TABLE
2
APPID
5
208
100
AcDbSymbolTable
70
1
0
APPID
5
209
100
AcDbSymbolTableRecord
100
AcDbRegAppTableRecord
2
ACAD
70
0
0
ENDTAB
0
TABLE
2
DIMSTYLE
5
403
100
AcDbSymbolTable
70
1
0
DIMSTYLE
105
404
330
402
100
AcDbSymbolTableRecord
100
AcDbDimStyleTableRecord
2
JAC_DIM
70
0
41
40.000
42
0.000
44
0.0
73
0
74
0
77
1
78
8
79
2
140
0.000
170
0
171
2
172
0
173
0
174
0
175
0
176
0
177
0
178
0
270
2
271
0
272
0
273
2
274
2
340
201
275
0
280
0
281
0
282
0
283
0
284
0
285
0
286
0
287
3
288
0
0
ENDTAB
0
TABLE
2
BLOCK_RECORD
5
405
100
AcDbSymbolTable
70
0
0
BLOCK_RECORD
5
406
100
AcDbSymbolTableRecord
100
AcDbBlockTableRecord
2
*MODEL_SPACE
0
BLOCK_RECORD
5
407
100
AcDbSymbolTableRecord
100
AcDbBlockTableRecord
2
*PAPER_SPACE
0
BLOCK_RECORD
5
408
100
AcDbSymbolTableRecord
100
AcDbBlockTableRecord
2
_JACCONVERT_
0
ENDTAB
0
TABLE
2
LAYER
5
409
100
AcDbSymbolTable
70
10
0
LAYER
5
40a
100
AcDbSymbolTableRecord
100
AcDbLayerTableRecord
2
0
70
0
62
7
6
CONTINUOUS
0
LAYER
5
40b
100
AcDbSymbolTableRecord
100
AcDbLayerTableRecord
2
0-0
70
0
62
7
6
CONTINUOUS
0
LAYER
5
40c
100
AcDbSymbolTableRecord
100
AcDbLayerTableRecord
2
F-F_J_ADD
70
0
62
-7
6
CONTINUOUS
0
ENDTAB
0
ENDSEC
0
SECTION
2
BLOCKS
0
BLOCK
5
40d
100
AcDbEntity
67
1
8
0
100
AcDbBlockBegin
2
*MODEL_SPACE
70
0
10
0.0
20
0.0
30
0.0
3
*MODEL_SPACE
1

0
ENDBLK
5
40e
100
AcDbEntity
8
0
100
AcDbBlockEnd
0
BLOCK
5
40f
100
AcDbEntity
67
1
8
0
100
AcDbBlockBegin
2
*PAPER_SPACE
70
0
10
0.0
20
0.0
30
0.0
3
*PAPER_SPACE
1

0
ENDBLK
5
410
100
AcDbEntity
67
1
8
0
100
AcDbBlockEnd
0
BLOCK
5
411
100
AcDbEntity
8
0
100
AcDbBlockBegin
2
_JACCONVERT_
70
2
10
0.0
20
0.0
30
0.0
3
_JACCONVERT_
1
_JACCONVERT_
0
ATTDEF
5
412
100
AcDbEntity
8
0
62
0
100
AcDbText
10
0.0
20
0.0
30
0.0
40
1.0
1
User:HARUOWAKUDA
100
AcDbAttributeDefinition
3

2
USER
70
8
0
ATTDEF
5
413
100
AcDbEntity
8
0
62
0
100
AcDbText
10
0.0
20
2.0
30
0.0
40
1.0
1
Date:06/09/14 11:36
100
AcDbAttributeDefinition
3

2
REVDATE
70
8
0
ATTDEF
5
414
100
AcDbEntity
8
0
62
0
100
AcDbText
10
0.0
20
4.0
30
0.0
40
1.0
1
File:d_007rm_cad_20060914.dxf
100
AcDbAttributeDefinition
3

2
FNAME
70
8
0
ATTDEF
5
415
100
AcDbEntity
8
0
62
0
100
AcDbText
10
0.0
20
6.0
30
0.0
40
1.0
1
JacConvert Version2.75 Copyright (c) 2001-2006 K.Nakahara
100
AcDbAttributeDefinition
3

2
VER
70
8
0
ENDBLK
5
416
100
AcDbEntity
67
1
8
0
100
AcDbBlockEnd
0
ENDSEC
0
SECTION
2
ENTITIES
0
ARC
5
417
100
AcDbEntity
8
0-0
6
CONTINUOUS
62
7
100
AcDbCircle
10
5105.742757535998
20
2723.748317891750
30
0.0
40
59.304000000000
100
AcDbArc
50
326.985027233038
51
406.902805334844
0
ELLIPSE
  5
418
100
AcDbEntity
8
0-0
6
CONTINUOUS
62
7
100
AcDbEllipse
10
782.700005579693
20
3182.954204863916
30
0.0
11
24.534999686935
21
0.000000000000
31
0.0
210
0.0
220
0.0
230
1.0
40
0.500000000000
41
2.766153412666
42
3.648571976383
0
LINE
5
419
100
AcDbEntity
8
0-0
6
CONTINUOUS
62
7
100
AcDbLine
10
1065.400572783950
20
3230.712637498353
30
0.0
11
1086.897072783949
21
3232.965637498353
31
0.0
0
LINE
5
41a
100
AcDbEntity
8
0-0
6
CONTINUOUS
62
7
100
AcDbLine
10
830.032572783950
20
2965.466137498353
30
0.0
11
1037.392572783950
21
2965.466137498353
31
0.0
0
LINE
5
41b
100
AcDbEntity
8
0-0
6
CONTINUOUS
62
7
100
AcDbLine
10
849.712572783949
20
2975.465137498353
30
0.0
11
877.713072783950
21
2975.465137498353
31
0.0
0
POLYLINE
5
41c
100
AcDbEntity
8
0-0
6
CONTINUOUS
62
  7
100
AcDb2dPolyline
66
1
10
0.0
20
0.0
30
0.0
70
0
0
VERTEX
5
41d
100
AcDbEntity
8
0-0
6
CONTINUOUS
62
  7
100
AcDbVertex
100
AcDb2dVertex
10
856.212072783950
20
2990.465137498353
30
0.0
0
VERTEX
5
41e
100
AcDbEntity
8
0-0
6
CONTINUOUS
62
  7
100
AcDbVertex
100
AcDb2dVertex
10
871.212072783950
20
2990.465137498353
30
0.0
0
VERTEX
5
41f
100
AcDbEntity
8
0-0
6
CONTINUOUS
62
  7
100
AcDbVertex
100
AcDb2dVertex
10
871.212072783950
20
2975.465137498353
30
0.0
0
VERTEX
5
420
100
AcDbEntity
8
0-0
6
CONTINUOUS
62
  7
100
AcDbVertex
100
AcDb2dVertex
10
856.212072783950
20
2975.465137498353
30
0.0
0
VERTEX
5
421
100
AcDbEntity
8
0-0
6
CONTINUOUS
62
  7
100
AcDbVertex
100
AcDb2dVertex
10
856.212072783950
20
2990.465137498353
30
0.0
0
SEQEND
5
422
100
AcDbEntity
8
0-0
0
LINE
5
423
100
AcDbEntity
8
0-0
6
CONTINUOUS
62
7
100
AcDbLine
10
848.712072783949
20
2974.466137498353
30
0.0
11
848.712072783949
21
2965.466137498353
31
0.0
0
LINE
5
424
100
AcDbEntity
8
0-0
6
CONTINUOUS
62
7
100
AcDbLine
10
878.712072783950
20
2974.466137498353
30
0.0
11
878.712072783950
21
2965.466137498353
31
0.0
0
LINE
5
425
100
AcDbEntity
8
0-0
6
CONTINUOUS
62
7
100
AcDbLine
10
1018.713072783949
20
2974.466137498353
30
0.0
11
1018.713072783949
21
2965.466137498353
31
0.0
0
LINE
5
426
100
AcDbEntity
8
0-0
6
CONTINUOUS
62
7
100
AcDbLine
10
988.713072783950
20
2974.466137498353
30
0.0
11
988.713072783950
21
2965.466137498353
31
0.0
0
LINE
5
427
100
AcDbEntity
8
0-0
6
CONTINUOUS
62
7
100
AcDbLine
10
989.712072783950
20
2975.465137498353
30
0.0
11
1017.712572783950
21
2975.465137498353
31
0.0
0
POLYLINE
5
428
100
AcDbEntity
8
0-0
6
CONTINUOUS
62
  7
100
AcDb2dPolyline
66
1
10
0.0
20
0.0
30
0.0
70
0
0
VERTEX
5
429
100
AcDbEntity
8
0-0
6
CONTINUOUS
62
  7
100
AcDbVertex
100
AcDb2dVertex
10
996.213072783950
20
2990.465137498353
30
0.0
0
VERTEX
5
42a
100
AcDbEntity
8
0-0
6
CONTINUOUS
62
  7
100
AcDbVertex
100
AcDb2dVertex
10
1011.213072783950
20
2990.465137498353
30
0.0
0
VERTEX
5
42b
100
AcDbEntity
8
0-0
6
CONTINUOUS
62
  7
100
AcDbVertex
100
AcDb2dVertex
10
1011.213072783950
20
2975.465137498353
30
0.0
0
VERTEX
5
42c
100
AcDbEntity
8
0-0
6
CONTINUOUS
62
  7
100
AcDbVertex
100
AcDb2dVertex
10
996.213072783950
20
2975.465137498353
30
0.0
0
VERTEX
5
42d
100
AcDbEntity
8
0-0
6
CONTINUOUS
62
  7
100
AcDbVertex
100
AcDb2dVertex
10
996.213072783950
20
2990.465137498353
30
0.0
0
SEQEND
5
42e
100
AcDbEntity
8
0-0
0
ARC
5
42f
100
AcDbEntity
8
0-0
6
CONTINUOUS
62
7
100
AcDbCircle
10
1115.320572783950
20
2784.536137498353
30
0.0
40
351.612000000000
100
AcDbArc
50
210.759384177649
51
219.816566596942
0
ARC
5
430
100
AcDbEntity
8
0-0
6
CONTINUOUS
62
7
100
AcDbCircle
10
943.813572783949
20
2639.718637498353
30
0.0
40
127.153500000000
100
AcDbArc
50
219.180111809852
51
265.443852334643
0
ARC
5
431
100
AcDbEntity
8
0-0
6
CONTINUOUS
62
7
100
AcDbCircle
10
1154.775072783949
20
3223.365637498353
30
0.0
40
396.178500000000
100
AcDbArc
50
178.611571078969
51
196.926384947334
0
ARC
5
432
100
AcDbEntity
8
0-0
6
CONTINUOUS
62
7
100
AcDbCircle
10
350.505072783949
20
2992.119637498353
30
0.0
40
440.766000000000
100
AcDbArc
50
348.638565121879
51
375.245487547858
0
ARC
5
433
100
AcDbEntity
8
0-0
6
CONTINUOUS
62
7
100
AcDbCircle
10
932.992572783950
20
3054.986137498353
30
0.0
40
124.689000000000
100
AcDbArc
50
89.669396601618
51
124.280927219031
0
ARC
5
434
100
AcDbEntity
8
0-0
6
CONTINUOUS
62
7
100
AcDbCircle
10
932.779572783949
20
3055.406137498353
30
0.0
40
124.270500000000
100
AcDbArc
50
55.658411749445
51
89.569856813111
0
ARC
5
435
100
AcDbEntity
8
0-0
6
CONTINUOUS
62
7
100
AcDbCircle
10
934.263072783950
20
3112.748137498353
30
0.0
40
44.592000000000
100
AcDbArc
50
59.465746092236
51
90.708046706419
0
ARC
5
436
100
AcDbEntity
8
0-0
6
CONTINUOUS
62
7
100
AcDbCircle
10
950.437572783949
20
3145.328137498354
30
0.0
40
8.716500000000
100
AcDbArc
50
304.737577087902
51
401.966262083000
0
ARC
5
437
100
AcDbEntity
8
0-0
6
CONTINUOUS
62
7
100
AcDbCircle
10
936.262572783949
20
3185.535637498353
30
0.0
40
51.091500000000
100
AcDbArc
50
267.139276960677
51
292.003430701689
0
ARC
5
438
100
AcDbEntity
8
0-0
6
CONTINUOUS
62
7
100
AcDbCircle
10
933.162072783950
20
3112.748137498353
30
0.0
40
44.592000000000
100
AcDbArc
50
89.291953293581
51
120.534253907764
0
ARC
5
439
100
AcDbEntity
8
0-0
6
CONTINUOUS
62
7
100
AcDbCircle
10
916.987572783949
20
3145.328137498354
30
0.0
40
8.716500000000
100
AcDbArc
50
138.033733565844
51
235.262418560942
0
ARC
5
43a
100
AcDbEntity
8
0-0
6
CONTINUOUS
62
7
100
AcDbCircle
10
931.162572783949
20
3185.535637498353
30
0.0
40
51.091500000000
100
AcDbArc
50
247.996569731385
51
272.860723472397
0
ARC
5
43b
100
AcDbEntity
8
0-0
6
CONTINUOUS
62
7
100
AcDbCircle
10
933.769572783950
20
3114.807637498353
30
0.0
40
30.168000000000
100
AcDbArc
50
90.109074744670
51
123.616402270731
0
ARC
5
43c
100
AcDbEntity
8
0-0
6
CONTINUOUS
62
7
100
AcDbCircle
10
933.655572783950
20
3114.807637498353
30
0.0
40
30.168000000000
100
AcDbArc
50
56.383596773666
51
89.890924299728
0
ARC
5
43d
100
AcDbEntity
8
0-0
6
CONTINUOUS
62
7
100
AcDbCircle
10
712.650072783949
20
3223.365637498353
30
0.0
40
396.178500000000
100
AcDbArc
50
343.073614602474
51
361.388428470840
0
ARC
5
43e
100
AcDbEntity
8
0-0
6
CONTINUOUS
62
7
100
AcDbCircle
10
1516.920072783950
20
2992.119637498353
30
0.0
40
440.766000000000
100
AcDbArc
50
164.754512452142
51
191.361434878121
0
ARC
5
43f
100
AcDbEntity
8
0-0
6
CONTINUOUS
62
7
100
AcDbCircle
10
752.104572783950
20
2784.536137498353
30
0.0
40
351.612000000000
100
AcDbArc
50
320.183433403058
51
329.240615822351
0
ARC
5
440
100
AcDbEntity
8
0-0
6
CONTINUOUS
62
7
100
AcDbCircle
10
923.611572783950
20
2639.718637498353
30
0.0
40
127.153500000000
100
AcDbArc
50
274.556147665357
51
320.819888190148
0
ARC
5
441
100
AcDbEntity
8
0-0
6
CONTINUOUS
62
7
100
AcDbCircle
10
705.400572783949
20
3215.432137498353
30
0.0
40
338.499000000000
100
AcDbArc
50
349.292899939499
51
361.610847587738
0
ARC
5
442
100
AcDbEntity
8
0-0
6
CONTINUOUS
62
7
100
AcDbCircle
10
977.368572783949
20
3164.028637498353
30
0.0
40
61.714500000000
100
AcDbArc
50
297.783038418238
51
349.275110306195
0
ARC
5
443
100
AcDbEntity
8
0-0
6
CONTINUOUS
62
7
100
AcDbCircle
10
927.165072783949
20
3295.524637498353
30
0.0
40
202.159500000000
100
AcDbArc
50
271.856125599761
51
292.994273775177
0
ARC
5
444
100
AcDbEntity
8
0-0
6
CONTINUOUS
62
7
100
AcDbCircle
10
1162.024572783950
20
3215.432137498353
30
0.0
40
338.499000000000
100
AcDbArc
50
178.389153198615
51
190.707100846854
0
ARC
5
445
100
AcDbEntity
8
0-0
6
CONTINUOUS
62
7
100
AcDbCircle
10
890.056572783949
20
3164.028637498353
30
0.0
40
61.714500000000
100
AcDbArc
50
190.724889693805
51
242.216961581762
0
ARC
5
446
100
AcDbEntity
8
0-0
6
CONTINUOUS
62
7
100
AcDbCircle
10
940.260072783949
20
3295.524637498353
30
0.0
40
202.159500000000
100
AcDbArc
50
247.005726224823
51
268.143874400240
0
ARC
5
447
100
AcDbEntity
8
0-0
6
CONTINUOUS
62
7
100
AcDbCircle
10
977.965572783949
20
2800.184137498353
30
0.0
40
221.815500000000
100
AcDbArc
50
131.829851459820
51
178.643246802131
0
ARC
5
448
100
AcDbEntity
8
0-0
6
CONTINUOUS
62
7
100
AcDbCircle
10
1104.936072783950
20
2795.948137498353
30
0.0
40
348.853500000000
100
AcDbArc
50
178.441302421134
51
220.524819462962
0
ARC
5
449
100
AcDbEntity
8
0-0
6
CONTINUOUS
62
7
100
AcDbCircle
10
933.253572783949
20
2655.764137498353
30
0.0
40
127.363500000000
100
AcDbArc
50
222.774639098796
51
270.206731440132
0
ARC
5
44a
100
AcDbEntity
8
0-0
6
CONTINUOUS
62
7
100
AcDbCircle
10
889.459572783949
20
2800.184137498353
30
0.0
40
221.815500000000
100
AcDbArc
50
1.356753493084
51
48.170148835395
0
ARC
5
44b
100
AcDbEntity
8
0-0
6
CONTINUOUS
62
7
100
AcDbCircle
10
762.487572783950
20
2795.948137498353
30
0.0
40
348.853500000000
100
AcDbArc
50
319.475180321419
51
361.558697363246
0
ARC
5
44c
100
AcDbEntity
8
0-0
6
CONTINUOUS
62
7
100
AcDbCircle
10
934.171572783949
20
2655.764137498353
30
0.0
40
127.363500000000
100
AcDbArc
50
269.793268782951
51
317.225361124287
0
ARC
5
44d
100
AcDbEntity
8
0-0
6
CONTINUOUS
62
7
100
AcDbCircle
10
849.712572783949
20
2974.466137498353
30
0.0
40
1.000500000000
100
AcDbArc
50
90.000000000000
51
180.000000000000
0
ARC
5
44e
100
AcDbEntity
8
0-0
6
CONTINUOUS
62
7
100
AcDbCircle
10
877.713072783950
20
2974.466137498353
30
0.0
40
1.000500000000
100
AcDbArc
50
0.000000000000
51
90.000000000000
0
ARC
5
44f
100
AcDbEntity
8
0-0
6
CONTINUOUS
62
7
100
AcDbCircle
10
1017.712572783950
20
2974.466137498353
30
0.0
40
1.000500000000
100
AcDbArc
50
0.000000000000
51
90.000000000000
0
ARC
5
450
100
AcDbEntity
8
0-0
6
CONTINUOUS
62
7
100
AcDbCircle
10
989.712072783950
20
2974.466137498353
30
0.0
40
1.000500000000
100
AcDbArc
50
90.000000000000
51
180.000000000000
0
ARC
5
451
100
AcDbEntity
8
0-0
6
CONTINUOUS
62
7
100
AcDbCircle
10
1355.720883386196
20
3232.106137498353
30
0.0
40
587.170500000000
100
AcDbArc
50
179.916163134960
51
192.412350215574
0
ARC
5
452
100
AcDbEntity
8
0-0
6
CONTINUOUS
62
7
100
AcDbCircle
10
874.300383386195
20
3126.459637498353
30
0.0
40
94.294500000000
100
AcDbArc
50
192.595478656413
51
239.545323871466
0
ARC
5
453
100
AcDbEntity
8
0-0
6
CONTINUOUS
62
7
100
AcDbCircle
10
917.120883386196
20
3218.456137498353
30
0.0
40
195.546000000000
100
AcDbArc
50
242.393386111730
51
271.351871727371
0
ARC
5
454
100
AcDbEntity
8
0-0
6
CONTINUOUS
62
7
100
AcDbCircle
10
949.764120721166
20
3218.456137498353
30
0.0
40
195.546000000000
100
AcDbArc
50
268.648128405707
51
297.606614021347
0
ARC
5
455
100
AcDbEntity
8
0-0
6
CONTINUOUS
62
7
100
AcDbCircle
10
992.586120721166
20
3126.459637498353
30
0.0
40
94.294500000000
100
AcDbArc
50
300.454676128534
51
347.404521343587
0
ARC
5
456
100
AcDbEntity
8
0-0
6
CONTINUOUS
62
7
100
AcDbCircle
10
511.165620721166
20
3232.106137498353
30
0.0
40
587.170500000000
100
AcDbArc
50
347.587649784426
51
360.083836865040
0
LINE
5
457
100
AcDbEntity
8
0-0
6
CONTINUOUS
62
7
100
AcDbLine
10
758.849061765273
20
3232.961313419085
30
0.0
11
768.492767305260
21
3231.014026723511
31
0.0
0
LINE
5
458
100
AcDbEntity
8
0-0
6
CONTINUOUS
62
7
100
AcDbLine
10
768.611863377139
20
3232.965637498353
30
0.0
11
1108.020508663210
21
3232.965637498353
31
0.0
0
LINE
5
459
100
AcDbEntity
8
0-0
6
CONTINUOUS
62
7
100
AcDbLine
10
1108.587135652903
20
3232.960189690211
30
0.0
11
1098.104536343585
21
3230.976995226287
31
0.0
0
LINE
5
45a
100
AcDbEntity
8
0-0
6
CONTINUOUS
62
7
100
AcDbLine
10
921.694558694786
20
3022.928834345807
30
0.0
11
945.088535208699
21
3022.979801614901
31
0.0
0
ARC
5
45b
100
AcDbEntity
8
0-0
6
CONTINUOUS
62
7
100
AcDbCircle
10
1144.879429448853
20
3205.071637498353
30
0.0
40
353.472000000000
100
AcDbArc
50
176.327305702825
51
191.254858309934
0
ARC
5
45c
100
AcDbEntity
8
0-0
6
CONTINUOUS
62
7
100
AcDbCircle
10
869.797429448853
20
3147.915637498353
30
0.0
40
72.565500000000
100
AcDbArc
50
189.385286328722
51
240.432180685064
0
ARC
5
45d
100
AcDbEntity
8
0-0
6
CONTINUOUS
62
7
100
AcDbCircle
10
919.882429448853
20
3239.382637498353
30
0.0
40
176.841000000000
100
AcDbArc
50
240.941459949748
51
270.728884329335
0
ARC
5
45e
100
AcDbEntity
8
0-0
6
CONTINUOUS
62
7
100
AcDbCircle
10
1442.750929448853
20
3247.896637498353
30
0.0
40
650.931000000000
100
AcDbArc
50
181.776799101168
51
189.495288038454
0
ARC
5
45f
100
AcDbEntity
8
0-0
6
CONTINUOUS
62
7
100
AcDbCircle
10
872.809429448853
20
3151.682137498353
30
0.0
40
72.931500000000
100
AcDbArc
50
188.807663622894
51
239.876139520523
0
ARC
5
460
100
AcDbEntity
8
0-0
6
CONTINUOUS
62
7
100
AcDbCircle
10
917.359429448853
20
3237.344137498353
30
0.0
40
169.441500000000
100
AcDbArc
50
241.383767063435
51
271.576697216816
0
LINE
5
461
100
AcDbEntity
8
0-0
6
CONTINUOUS
62
7
100
AcDbLine
10
791.514546077090
20
3227.712637498353
30
0.0
11
811.053546077089
21
3224.948137498353
31
0.0
0
LINE
5
462
100
AcDbEntity
8
0-0
6
CONTINUOUS
62
7
100
AcDbLine
10
789.573546077090
20
3230.712637498353
30
0.0
11
768.330546077090
21
3232.965637498353
31
0.0
0
LINE
5
463
100
AcDbEntity
8
0-0
6
CONTINUOUS
62
7
100
AcDbLine
10
1074.226822366422
20
3227.712637498353
30
0.0
11
1054.278322366422
21
3224.948137498353
31
0.0
0
LINE
5
464
100
AcDbEntity
8
0-0
6
CONTINUOUS
62
7
100
AcDbLine
10
945.207968293332
20
3224.948137498353
30
0.0
11
1054.278322366422
21
3224.948137498353
31
0.0
0
LINE
5
465
100
AcDbEntity
8
0-0
6
CONTINUOUS
62
7
100
AcDbLine
10
945.858475925662
20
3227.712637498353
30
0.0
11
1074.226822366422
21
3227.712637498353
31
0.0
0
ARC
5
466
100
AcDbEntity
8
0-0
6
CONTINUOUS
62
7
100
AcDbCircle
10
721.479322366422
20
3205.071637498353
30
0.0
40
353.472000000000
100
AcDbArc
50
348.745141690066
51
363.672694297175
0
ARC
5
467
100
AcDbEntity
8
0-0
6
CONTINUOUS
62
7
100
AcDbCircle
10
996.561322366422
20
3147.915637498353
30
0.0
40
72.565500000000
100
AcDbArc
50
299.567819314936
51
350.614713671279
0
ARC
5
468
100
AcDbEntity
8
0-0
6
CONTINUOUS
62
7
100
AcDbCircle
10
946.476322366423
20
3239.382637498353
30
0.0
40
176.841000000000
100
AcDbArc
50
269.271115670665
51
299.058540050252
0
ARC
5
469
100
AcDbEntity
8
0-0
6
CONTINUOUS
62
7
100
AcDbCircle
10
423.607822366422
20
3247.896637498353
30
0.0
40
650.931000000000
100
AcDbArc
50
350.504711961546
51
358.223200898832
0
ARC
5
46a
100
AcDbEntity
8
0-0
6
CONTINUOUS
62
7
100
AcDbCircle
10
993.549322366423
20
3151.682137498353
30
0.0
40
72.931500000000
100
AcDbArc
50
300.123859727056
51
351.192335624685
0
ARC
5
46b
100
AcDbEntity
8
0-0
6
CONTINUOUS
62
7
100
AcDbCircle
10
948.997822366423
20
3237.344137498353
30
0.0
40
169.441500000000
100
AcDbArc
50
268.423302934947
51
298.616233088328
0
LINE
5
46c
100
AcDbEntity
8
0-0
6
CONTINUOUS
62
7
100
AcDbLine
10
945.533222109497
20
3230.712637498353
30
0.0
11
1066.394167920360
21
3230.712637498353
31
0.0
0
LINE
5
46d
100
AcDbEntity
8
0-0
6
CONTINUOUS
62
7
100
AcDbLine
10
796.571136276594
20
3072.854137498353
30
0.0
11
801.221136276595
21
3122.657137498353
31
0.0
0
LINE
5
46e
100
AcDbEntity
8
0-0
6
CONTINUOUS
62
7
100
AcDbLine
10
819.275670461562
20
3109.577137498353
30
0.0
11
824.584170461562
21
3149.211637498353
31
0.0
0
LINE
5
46f
100
AcDbEntity
8
0-0
6
CONTINUOUS
62
7
100
AcDbLine
10
1069.848877428724
20
3072.854137498353
30
0.0
11
1065.198877428725
21
3122.657137498353
31
0.0
0
LINE
5
470
100
AcDbEntity
8
0-0
6
CONTINUOUS
62
7
100
AcDbLine
10
1047.220908052606
20
3109.577137498353
30
0.0
11
1041.913908052607
21
3149.211637498353
31
0.0
0
LINE
5
471
100
AcDbEntity
8
0-0
6
CONTINUOUS
62
7
100
AcDbLine
10
811.053546077089
20
3224.948137498353
30
0.0
11
947.538735357116
21
3224.948137498353
31
0.0
0
LINE
5
472
100
AcDbEntity
8
0-0
6
CONTINUOUS
62
7
100
AcDbLine
10
791.514546077090
20
3227.712637498353
30
0.0
11
957.618987492042
21
3227.712637498353
31
0.0
0
LINE
5
473
100
AcDbEntity
8
0-0
6
CONTINUOUS
62
7
100
AcDbLine
10
789.573546077090
20
3230.712637498353
30
0.0
11
958.535374049762
21
3230.712637498353
31
0.0
0
LINE
5
474
100
AcDbEntity
8
0-0
6
CONTINUOUS
62
7
100
AcDbLine
10
922.395160512634
20
3067.687231404381
30
0.0
11
944.467145384553
21
3067.687231404381
31
0.0
0
LINE
5
475
100
AcDbEntity
8
0-0
6
CONTINUOUS
62
7
100
AcDbLine
10
922.549510057192
20
3062.284997344821
30
0.0
11
943.386698572640
21
3062.284997344821
31
0.0
0
ARC
5
476
100
AcDbEntity
8
0-0
6
CONTINUOUS
62
7
100
AcDbCircle
10
760.701789562093
20
3132.022899711097
30
0.0
40
3.000000000000
100
AcDbArc
50
90.000000000000
51
180.000000000000
0
LINE
5
477
100
AcDbEntity
8
0-0
6
CONTINUOUS
62
7
100
AcDbLine
10
757.701789562093
20
3129.022899711097
30
0.0
11
757.701789562093
21
3132.022899711097
31
0.0
0
ARC
5
478
100
AcDbEntity
8
0-0
6
CONTINUOUS
62
7
100
AcDbCircle
10
760.701789562093
20
3129.022899711097
30
0.0
40
3.000000000000
100
AcDbArc
50
180.000000000000
51
270.000000000000
0
LINE
5
479
100
AcDbEntity
8
0-0
6
CONTINUOUS
62
7
100
AcDbLine
10
760.701789562093
20
3135.022899711097
30
0.0
11
768.423996152570
21
3135.022899711097
31
0.0
0
LINE
5
47a
100
AcDbEntity
8
0-0
6
CONTINUOUS
62
7
100
AcDbLine
10
760.701789562093
20
3126.022899711097
30
0.0
11
770.212634962875
21
3126.022899711097
31
0.0
0
LINE
5
47b
100
AcDbEntity
8
0-0
6
CONTINUOUS
62
7
100
AcDbLine
10
755.059130273004
20
3233.192293242978
30
0.0
11
757.912367378612
21
3233.192293242978
31
0.0
0
ARC
5
47c
100
AcDbEntity
8
0-0
6
CONTINUOUS
62
7
100
AcDbCircle
10
766.810836475563
20
3233.474996412933
30
0.0
40
12.000000000000
100
AcDbArc
50
180.000000000000
51
223.281572658061
0
LINE
5
47d
100
AcDbEntity
8
0-0
6
CONTINUOUS
62
7
100
AcDbLine
10
1065.400572783950
20
1718.433589461913
30
0.0
11
1086.897072783949
21
1720.686589461913
31
0.0
0
LINE
5
47e
100
AcDbEntity
8
0-0
6
CONTINUOUS
62
7
100
AcDbLine
10
830.032572783950
20
1453.187089461913
30
0.0
11
1037.392572783950
21
1453.187089461913
31
0.0
0
LINE
5
47f
100
AcDbEntity
8
0-0
6
CONTINUOUS
62
7
100
AcDbLine
10
849.712572783949
20
1463.186089461913
30
0.0
11
877.713072783950
21
1463.186089461913
31
0.0
0
POLYLINE
5
480
100
AcDbEntity
8
0-0
6
CONTINUOUS
62
  7
100
AcDb2dPolyline
66
1
10
0.0
20
0.0
30
0.0
70
0
0
VERTEX
5
481
100
AcDbEntity
8
0-0
6
CONTINUOUS
62
  7
100
AcDbVertex
100
AcDb2dVertex
10
856.212072783950
20
1478.186089461913
30
0.0
0
VERTEX
5
482
100
AcDbEntity
8
0-0
6
CONTINUOUS
62
  7
100
AcDbVertex
100
AcDb2dVertex
10
871.212072783950
20
1478.186089461913
30
0.0
0
VERTEX
5
483
100
AcDbEntity
8
0-0
6
CONTINUOUS
62
  7
100
AcDbVertex
100
AcDb2dVertex
10
871.212072783950
20
1463.186089461913
30
0.0
0
VERTEX
5
484
100
AcDbEntity
8
0-0
6
CONTINUOUS
62
  7
100
AcDbVertex
100
AcDb2dVertex
10
856.212072783950
20
1463.186089461913
30
0.0
0
VERTEX
5
485
100
AcDbEntity
8
0-0
6
CONTINUOUS
62
  7
100
AcDbVertex
100
AcDb2dVertex
10
856.212072783950
20
1478.186089461913
30
0.0
0
SEQEND
5
486
100
AcDbEntity
8
0-0
0
LINE
5
487
100
AcDbEntity
8
0-0
6
CONTINUOUS
62
7
100
AcDbLine
10
848.712072783949
20
1462.187089461913
30
0.0
11
848.712072783949
21
1453.187089461913
31
0.0
0
LINE
5
488
100
AcDbEntity
8
0-0
6
CONTINUOUS
62
7
100
AcDbLine
10
878.712072783950
20
1462.187089461913
30
0.0
11
878.712072783950
21
1453.187089461913
31
0.0
0
LINE
5
489
100
AcDbEntity
8
0-0
6
CONTINUOUS
62
7
100
AcDbLine
10
1018.713072783949
20
1462.187089461913
30
0.0
11
1018.713072783949
21
1453.187089461913
31
0.0
0
LINE
5
48a
100
AcDbEntity
8
0-0
6
CONTINUOUS
62
7
100
AcDbLine
10
988.713072783950
20
1462.187089461913
30
0.0
11
988.713072783950
21
1453.187089461913
31
0.0
0
LINE
5
48b
100
AcDbEntity
8
0-0
6
CONTINUOUS
62
7
100
AcDbLine
10
989.712072783950
20
1463.186089461913
30
0.0
11
1017.712572783950
21
1463.186089461913
31
0.0
0
POLYLINE
5
48c
100
AcDbEntity
8
0-0
6
CONTINUOUS
62
  7
100
AcDb2dPolyline
66
1
10
0.0
20
0.0
30
0.0
70
0
0
VERTEX
5
48d
100
AcDbEntity
8
0-0
6
CONTINUOUS
62
  7
100
AcDbVertex
100
AcDb2dVertex
10
996.213072783950
20
1478.186089461913
30
0.0
0
VERTEX
5
48e
100
AcDbEntity
8
0-0
6
CONTINUOUS
62
  7
100
AcDbVertex
100
AcDb2dVertex
10
1011.213072783950
20
1478.186089461913
30
0.0
0
VERTEX
5
48f
100
AcDbEntity
8
0-0
6
CONTINUOUS
62
  7
100
AcDbVertex
100
AcDb2dVertex
10
1011.213072783950
20
1463.186089461913
30
0.0
0
VERTEX
5
490
100
AcDbEntity
8
0-0
6
CONTINUOUS
62
  7
100
AcDbVertex
100
AcDb2dVertex
10
996.213072783950
20
1463.186089461913
30
0.0
0
VERTEX
5
491
100
AcDbEntity
8
0-0
6
CONTINUOUS
62
  7
100
AcDbVertex
100
AcDb2dVertex
10
996.213072783950
20
1478.186089461913
30
0.0
0
SEQEND
5
492
100
AcDbEntity
8
0-0
0
ARC
5
493
100
AcDbEntity
8
0-0
6
CONTINUOUS
62
7
100
AcDbCircle
10
1115.320572783950
20
1272.257089461913
30
0.0
40
351.612000000000
100
AcDbArc
50
210.759384177649
51
219.816566596942
0
ARC
5
494
100
AcDbEntity
8
0-0
6
CONTINUOUS
62
7
100
AcDbCircle
10
943.813572783949
20
1127.439589461913
30
0.0
40
127.153500000000
100
AcDbArc
50
219.180111809852
51
265.443852334643
0
ARC
5
495
100
AcDbEntity
8
0-0
6
CONTINUOUS
62
7
100
AcDbCircle
10
1154.775072783949
20
1711.086589461913
30
0.0
40
396.178500000000
100
AcDbArc
50
178.611571078969
51
196.926384947334
0
ARC
5
496
100
AcDbEntity
8
0-0
6
CONTINUOUS
62
7
100
AcDbCircle
10
350.505072783949
20
1479.840589461913
30
0.0
40
440.766000000000
100
AcDbArc
50
348.638565121879
51
375.245487547858
0
ARC
5
497
100
AcDbEntity
8
0-0
6
CONTINUOUS
62
7
100
AcDbCircle
10
932.992572783950
20
1542.707089461913
30
0.0
40
124.689000000000
100
AcDbArc
50
89.669396601618
51
124.280927219031
0
ARC
5
498
100
AcDbEntity
8
0-0
6
CONTINUOUS
62
7
100
AcDbCircle
10
932.779572783949
20
1543.127089461913
30
0.0
40
124.270500000000
100
AcDbArc
50
55.658411749445
51
89.569856813111
0
ARC
5
499
100
AcDbEntity
8
0-0
6
CONTINUOUS
62
7
100
AcDbCircle
10
934.263072783950
20
1600.469089461913
30
0.0
40
44.592000000000
100
AcDbArc
50
59.465746092236
51
90.708046706419
0
ARC
5
49a
100
AcDbEntity
8
0-0
6
CONTINUOUS
62
7
100
AcDbCircle
10
950.437572783949
20
1633.049089461913
30
0.0
40
8.716500000000
100
AcDbArc
50
304.737577087902
51
401.966262083000
0
ARC
5
49b
100
AcDbEntity
8
0-0
6
CONTINUOUS
62
7
100
AcDbCircle
10
936.262572783949
20
1673.256589461913
30
0.0
40
51.091500000000
100
AcDbArc
50
267.139276960677
51
292.003430701689
0
ARC
5
49c
100
AcDbEntity
8
0-0
6
CONTINUOUS
62
7
100
AcDbCircle
10
933.162072783950
20
1600.469089461913
30
0.0
40
44.592000000000
100
AcDbArc
50
89.291953293581
51
120.534253907764
0
ARC
5
49d
100
AcDbEntity
8
0-0
6
CONTINUOUS
62
7
100
AcDbCircle
10
916.987572783949
20
1633.049089461913
30
0.0
40
8.716500000000
100
AcDbArc
50
138.033733565844
51
235.262418560942
0
ARC
5
49e
100
AcDbEntity
8
0-0
6
CONTINUOUS
62
7
100
AcDbCircle
10
931.162572783949
20
1673.256589461913
30
0.0
40
51.091500000000
100
AcDbArc
50
247.996569731385
51
272.860723472397
0
ARC
5
49f
100
AcDbEntity
8
0-0
6
CONTINUOUS
62
7
100
AcDbCircle
10
933.769572783950
20
1602.528589461913
30
0.0
40
30.168000000000
100
AcDbArc
50
90.109074744670
51
123.616402270731
0
ARC
5
4a0
100
AcDbEntity
8
0-0
6
CONTINUOUS
62
7
100
AcDbCircle
10
933.655572783950
20
1602.528589461913
30
0.0
40
30.168000000000
100
AcDbArc
50
56.383596773666
51
89.890924299728
0
ARC
5
4a1
100
AcDbEntity
8
0-0
6
CONTINUOUS
62
7
100
AcDbCircle
10
712.650072783949
20
1711.086589461913
30
0.0
40
396.178500000000
100
AcDbArc
50
343.073614602474
51
361.388428470840
0
ARC
5
4a2
100
AcDbEntity
8
0-0
6
CONTINUOUS
62
7
100
AcDbCircle
10
1516.920072783950
20
1479.840589461913
30
0.0
40
440.766000000000
100
AcDbArc
50
164.754512452142
51
191.361434878121
0
ARC
5
4a3
100
AcDbEntity
8
0-0
6
CONTINUOUS
62
7
100
AcDbCircle
10
752.104572783950
20
1272.257089461913
30
0.0
40
351.612000000000
100
AcDbArc
50
320.183433403058
51
329.240615822351
0
ARC
5
4a4
100
AcDbEntity
8
0-0
6
CONTINUOUS
62
7
100
AcDbCircle
10
923.611572783950
20
1127.439589461913
30
0.0
40
127.153500000000
100
AcDbArc
50
274.556147665357
51
320.819888190148
0
ARC
5
4a5
100
AcDbEntity
8
0-0
6
CONTINUOUS
62
7
100
AcDbCircle
10
705.400572783949
20
1703.153089461913
30
0.0
40
338.499000000000
100
AcDbArc
50
349.292899939499
51
361.610847587738
0
ARC
5
4a6
100
AcDbEntity
8
0-0
6
CONTINUOUS
62
7
100
AcDbCircle
10
977.368572783949
20
1651.749589461913
30
0.0
40
61.714500000000
100
AcDbArc
50
297.783038418238
51
349.275110306195
0
ARC
5
4a7
100
AcDbEntity
8
0-0
6
CONTINUOUS
62
7
100
AcDbCircle
10
927.165072783949
20
1783.245589461913
30
0.0
40
202.159500000000
100
AcDbArc
50
271.856125599761
51
292.994273775177
0
ARC
5
4a8
100
AcDbEntity
8
0-0
6
CONTINUOUS
62
7
100
AcDbCircle
10
1162.024572783950
20
1703.153089461913
30
0.0
40
338.499000000000
100
AcDbArc
50
178.389153198615
51
190.707100846854
0
ARC
5
4a9
100
AcDbEntity
8
0-0
6
CONTINUOUS
62
7
100
AcDbCircle
10
890.056572783949
20
1651.749589461913
30
0.0
40
61.714500000000
100
AcDbArc
50
190.724889693805
51
242.216961581762
0
ARC
5
4aa
100
AcDbEntity
8
0-0
6
CONTINUOUS
62
7
100
AcDbCircle
10
940.260072783949
20
1783.245589461913
30
0.0
40
202.159500000000
100
AcDbArc
50
247.005726224823
51
268.143874400240
0
ARC
5
4ab
100
AcDbEntity
8
0-0
6
CONTINUOUS
62
7
100
AcDbCircle
10
977.965572783949
20
1287.905089461913
30
0.0
40
221.815500000000
100
AcDbArc
50
131.829851459820
51
178.643246802131
0
ARC
5
4ac
100
AcDbEntity
8
0-0
6
CONTINUOUS
62
7
100
AcDbCircle
10
1104.936072783950
20
1283.669089461913
30
0.0
40
348.853500000000
100
AcDbArc
50
178.441302421134
51
220.524819462962
0
ARC
5
4ad
100
AcDbEntity
8
0-0
6
CONTINUOUS
62
7
100
AcDbCircle
10
933.253572783949
20
1143.485089461913
30
0.0
40
127.363500000000
100
AcDbArc
50
222.774639098796
51
270.206731440132
0
ARC
5
4ae
100
AcDbEntity
8
0-0
6
CONTINUOUS
62
7
100
AcDbCircle
10
889.459572783949
20
1287.905089461913
30
0.0
40
221.815500000000
100
AcDbArc
50
1.356753493084
51
48.170148835395
0
ARC
5
4af
100
AcDbEntity
8
0-0
6
CONTINUOUS
62
7
100
AcDbCircle
10
762.487572783950
20
1283.669089461913
30
0.0
40
348.853500000000
100
AcDbArc
50
319.475180321419
51
361.558697363246
0
ARC
5
4b0
100
AcDbEntity
8
0-0
6
CONTINUOUS
62
7
100
AcDbCircle
10
934.171572783949
20
1143.485089461913
30
0.0
40
127.363500000000
100
AcDbArc
50
269.793268782951
51
317.225361124287
0
ARC
5
4b1
100
AcDbEntity
8
0-0
6
CONTINUOUS
62
7
100
AcDbCircle
10
849.712572783949
20
1462.187089461913
30
0.0
40
1.000500000000
100
AcDbArc
50
90.000000000000
51
180.000000000000
0
ARC
5
4b2
100
AcDbEntity
8
0-0
6
CONTINUOUS
62
7
100
AcDbCircle
10
877.713072783950
20
1462.187089461913
30
0.0
40
1.000500000000
100
AcDbArc
50
0.000000000000
51
90.000000000000
0
ARC
5
4b3
100
AcDbEntity
8
0-0
6
CONTINUOUS
62
7
100
AcDbCircle
10
1017.712572783950
20
1462.187089461913
30
0.0
40
1.000500000000
100
AcDbArc
50
0.000000000000
51
90.000000000000
0
ARC
5
4b4
100
AcDbEntity
8
0-0
6
CONTINUOUS
62
7
100
AcDbCircle
10
989.712072783950
20
1462.187089461913
30
0.0
40
1.000500000000
100
AcDbArc
50
90.000000000000
51
180.000000000000
0
ARC
5
4b5
100
AcDbEntity
8
0-0
6
CONTINUOUS
62
7
100
AcDbCircle
10
1355.720883386196
20
1719.827089461913
30
0.0
40
587.170500000000
100
AcDbArc
50
179.916163134960
51
192.412350215574
0
ARC
5
4b6
100
AcDbEntity
8
0-0
6
CONTINUOUS
62
7
100
AcDbCircle
10
874.300383386195
20
1614.180589461913
30
0.0
40
94.294500000000
100
AcDbArc
50
192.595478656413
51
239.545323871466
0
ARC
5
4b7
100
AcDbEntity
8
0-0
6
CONTINUOUS
62
7
100
AcDbCircle
10
917.120883386196
20
1706.177089461913
30
0.0
40
195.546000000000
100
AcDbArc
50
242.393386111730
51
271.351871727371
0
ARC
5
4b8
100
AcDbEntity
8
0-0
6
CONTINUOUS
62
7
100
AcDbCircle
10
949.764120721166
20
1706.177089461913
30
0.0
40
195.546000000000
100
AcDbArc
50
268.648128405707
51
297.606614021347
0
ARC
5
4b9
100
AcDbEntity
8
0-0
6
CONTINUOUS
62
7
100
AcDbCircle
10
992.586120721166
20
1614.180589461913
30
0.0
40
94.294500000000
100
AcDbArc
50
300.454676128534
51
347.404521343587
0
ARC
5
4ba
100
AcDbEntity
8
0-0
6
CONTINUOUS
62
7
100
AcDbCircle
10
511.165620721166
20
1719.827089461913
30
0.0
40
587.170500000000
100
AcDbArc
50
347.587649784426
51
360.083836865040
0
LINE
5
4bb
100
AcDbEntity
8
0-0
6
CONTINUOUS
62
7
100
AcDbLine
10
758.849061765273
20
1720.682265382645
30
0.0
11
768.492767305260
21
1718.734978687071
31
0.0
0
LINE
5
4bc
100
AcDbEntity
8
0-0
6
CONTINUOUS
62
7
100
AcDbLine
10
768.611863377139
20
1720.686589461913
30
0.0
11
1108.020508663210
21
1720.686589461913
31
0.0
0
LINE
5
4bd
100
AcDbEntity
8
0-0
6
CONTINUOUS
62
7
100
AcDbLine
10
1108.587135652903
20
1720.681141653772
30
0.0
11
1098.104536343585
21
1718.697947189847
31
0.0
0
LINE
5
4be
100
AcDbEntity
8
0-0
6
CONTINUOUS
62
7
100
AcDbLine
10
921.694558694786
20
1510.649786309368
30
0.0
11
945.088535208699
21
1510.700753578461
31
0.0
0
ARC
5
4bf
100
AcDbEntity
8
0-0
6
CONTINUOUS
62
7
100
AcDbCircle
10
1144.879429448853
20
1692.792589461913
30
0.0
40
353.472000000000
100
AcDbArc
50
176.327305702825
51
191.254858309934
0
ARC
5
4c0
100
AcDbEntity
8
0-0
6
CONTINUOUS
62
7
100
AcDbCircle
10
869.797429448853
20
1635.636589461913
30
0.0
40
72.565500000000
100
AcDbArc
50
189.385286328722
51
240.432180685064
0
ARC
5
4c1
100
AcDbEntity
8
0-0
6
CONTINUOUS
62
7
100
AcDbCircle
10
919.882429448853
20
1727.103589461913
30
0.0
40
176.841000000000
100
AcDbArc
50
240.941459949748
51
270.728884329335
0
ARC
5
4c2
100
AcDbEntity
8
0-0
6
CONTINUOUS
62
7
100
AcDbCircle
10
1442.750929448853
20
1735.617589461913
30
0.0
40
650.931000000000
100
AcDbArc
50
181.776799101168
51
189.495288038454
0
ARC
5
4c3
100
AcDbEntity
8
0-0
6
CONTINUOUS
62
7
100
AcDbCircle
10
872.809429448853
20
1639.403089461913
30
0.0
40
72.931500000000
100
AcDbArc
50
188.807663622894
51
239.876139520523
0
ARC
5
4c4
100
AcDbEntity
8
0-0
6
CONTINUOUS
62
7
100
AcDbCircle
10
917.359429448853
20
1725.065089461913
30
0.0
40
169.441500000000
100
AcDbArc
50
241.383767063435
51
271.576697216816
0
LINE
5
4c5
100
AcDbEntity
8
0-0
6
CONTINUOUS
62
7
100
AcDbLine
10
791.514546077090
20
1715.433589461913
30
0.0
11
811.053546077089
21
1712.669089461913
31
0.0
0
LINE
5
4c6
100
AcDbEntity
8
0-0
6
CONTINUOUS
62
7
100
AcDbLine
10
789.573546077090
20
1718.433589461913
30
0.0
11
768.330546077090
21
1720.686589461913
31
0.0
0
LINE
5
4c7
100
AcDbEntity
8
0-0
6
CONTINUOUS
62
7
100
AcDbLine
10
1074.226822366422
20
1715.433589461913
30
0.0
11
1054.278322366422
21
1712.669089461913
31
0.0
0
LINE
5
4c8
100
AcDbEntity
8
0-0
6
CONTINUOUS
62
7
100
AcDbLine
10
945.207968293332
20
1712.669089461913
30
0.0
11
1054.278322366422
21
1712.669089461913
31
0.0
0
LINE
5
4c9
100
AcDbEntity
8
0-0
6
CONTINUOUS
62
7
100
AcDbLine
10
945.858475925662
20
1715.433589461913
30
0.0
11
1074.226822366422
21
1715.433589461913
31
0.0
0
ARC
5
4ca
100
AcDbEntity
8
0-0
6
CONTINUOUS
62
7
100
AcDbCircle
10
721.479322366422
20
1692.792589461913
30
0.0
40
353.472000000000
100
AcDbArc
50
348.745141690066
51
363.672694297175
0
ARC
5
4cb
100
AcDbEntity
8
0-0
6
CONTINUOUS
62
7
100
AcDbCircle
10
996.561322366422
20
1635.636589461913
30
0.0
40
72.565500000000
100
AcDbArc
50
299.567819314936
51
350.614713671279
0
ARC
5
4cc
100
AcDbEntity
8
0-0
6
CONTINUOUS
62
7
100
AcDbCircle
10
946.476322366423
20
1727.103589461913
30
0.0
40
176.841000000000
100
AcDbArc
50
269.271115670665
51
299.058540050252
0
ARC
5
4cd
100
AcDbEntity
8
0-0
6
CONTINUOUS
62
7
100
AcDbCircle
10
423.607822366422
20
1735.617589461913
30
0.0
40
650.931000000000
100
AcDbArc
50
350.504711961546
51
358.223200898832
0
ARC
5
4ce
100
AcDbEntity
8
0-0
6
CONTINUOUS
62
7
100
AcDbCircle
10
993.549322366423
20
1639.403089461913
30
0.0
40
72.931500000000
100
AcDbArc
50
300.123859727056
51
351.192335624685
0
ARC
5
4cf
100
AcDbEntity
8
0-0
6
CONTINUOUS
62
7
100
AcDbCircle
10
948.997822366423
20
1725.065089461913
30
0.0
40
169.441500000000
100
AcDbArc
50
268.423302934947
51
298.616233088328
0
LINE
5
4d0
100
AcDbEntity
8
0-0
6
CONTINUOUS
62
7
100
AcDbLine
10
945.533222109497
20
1718.433589461913
30
0.0
11
1066.394167920360
21
1718.433589461913
31
0.0
0
LINE
5
4d1
100
AcDbEntity
8
0-0
6
CONTINUOUS
62
7
100
AcDbLine
10
796.571136276594
20
1560.575089461913
30
0.0
11
801.221136276595
21
1610.378089461913
31
0.0
0
LINE
5
4d2
100
AcDbEntity
8
0-0
6
CONTINUOUS
62
7
100
AcDbLine
10
819.275670461562
20
1597.298089461913
30
0.0
11
824.584170461562
21
1636.932589461913
31
0.0
0
LINE
5
4d3
100
AcDbEntity
8
0-0
6
CONTINUOUS
62
7
100
AcDbLine
10
1069.848877428724
20
1560.575089461913
30
0.0
11
1065.198877428725
21
1610.378089461913
31
0.0
0
LINE
5
4d4
100
AcDbEntity
8
0-0
6
CONTINUOUS
62
7
100
AcDbLine
10
1047.220908052606
20
1597.298089461913
30
0.0
11
1041.913908052607
21
1636.932589461913
31
0.0
0
LINE
5
4d5
100
AcDbEntity
8
0-0
6
CONTINUOUS
62
7
100
AcDbLine
10
811.053546077089
20
1712.669089461913
30
0.0
11
947.538735357116
21
1712.669089461913
31
0.0
0
LINE
5
4d6
100
AcDbEntity
8
0-0
6
CONTINUOUS
62
7
100
AcDbLine
10
791.514546077090
20
1715.433589461913
30
0.0
11
957.618987492042
21
1715.433589461913
31
0.0
0
LINE
5
4d7
100
AcDbEntity
8
0-0
6
CONTINUOUS
62
7
100
AcDbLine
10
789.573546077090
20
1718.433589461913
30
0.0
11
958.535374049762
21
1718.433589461913
31
0.0
0
LINE
5
4d8
100
AcDbEntity
8
0-0
6
CONTINUOUS
62
7
100
AcDbLine
10
922.395160512634
20
1555.408183367941
30
0.0
11
944.467145384553
21
1555.408183367941
31
0.0
0
LINE
5
4d9
100
AcDbEntity
8
0-0
6
CONTINUOUS
62
7
100
AcDbLine
10
922.549510057192
20
1550.005949308381
30
0.0
11
943.386698572640
21
1550.005949308381
31
0.0
0
ARC
5
4da
100
AcDbEntity
8
0-0
6
CONTINUOUS
62
7
100
AcDbCircle
10
760.701789562093
20
1619.743851674657
30
0.0
40
3.000000000000
100
AcDbArc
50
90.000000000000
51
180.000000000000
0
LINE
5
4db
100
AcDbEntity
8
0-0
6
CONTINUOUS
62
7
100
AcDbLine
10
757.701789562093
20
1616.743851674657
30
0.0
11
757.701789562093
21
1619.743851674657
31
0.0
0
ARC
5
4dc
100
AcDbEntity
8
0-0
6
CONTINUOUS
62
7
100
AcDbCircle
10
760.701789562093
20
1616.743851674657
30
0.0
40
3.000000000000
100
AcDbArc
50
180.000000000000
51
270.000000000000
0
LINE
5
4dd
100
AcDbEntity
8
0-0
6
CONTINUOUS
62
7
100
AcDbLine
10
760.701789562093
20
1622.743851674657
30
0.0
11
768.423996152570
21
1622.743851674657
31
0.0
0
LINE
5
4de
100
AcDbEntity
8
0-0
6
CONTINUOUS
62
7
100
AcDbLine
10
760.701789562093
20
1613.743851674657
30
0.0
11
770.212634962875
21
1613.743851674657
31
0.0
0
LINE
5
4df
100
AcDbEntity
8
0-0
6
CONTINUOUS
62
7
100
AcDbLine
10
755.059130273004
20
1720.913245206538
30
0.0
11
757.912367378612
21
1720.913245206538
31
0.0
0
ARC
5
4e0
100
AcDbEntity
8
0-0
6
CONTINUOUS
62
7
100
AcDbCircle
10
766.810836475563
20
1721.195948376494
30
0.0
40
12.000000000000
100
AcDbArc
50
180.000000000000
51
223.281572658061
0
ARC
5
4e1
100
AcDbEntity
8
0-0
6
CONTINUOUS
62
7
100
AcDbCircle
10
2073.687801283179
20
2642.838249763595
30
0.0
40
9.625929816131
100
AcDbArc
50
51.441277284353
51
128.558722715647
0
LINE
5
4e2
100
AcDbEntity
8
0-0
6
CONTINUOUS
62
7
100
AcDbLine
10
2057.221646314979
20
2675.301487603159
30
0.0
11
2032.221646314979
21
2675.301487603159
31
0.0
0
LINE
5
4e3
100
AcDbEntity
8
0-0
6
CONTINUOUS
62
7
100
AcDbLine
10
2032.221646314979
20
2646.009021820029
30
0.0
11
2057.221646314979
21
2646.009021820029
31
0.0
0
LINE
5
4e4
100
AcDbEntity
8
0-0
6
CONTINUOUS
62
7
100
AcDbLine
10
2057.221646314979
20
2638.009021820029
30
0.0
11
2032.221646314979
21
2638.009021820029
31
0.0
0
ARC
5
4e5
100
AcDbEntity
8
0-0
6
CONTINUOUS
62
7
100
AcDbCircle
10
2044.672386568053
20
2642.048699747115
30
0.0
40
13.134414676531
100
AcDbArc
50
342.276763383114
51
377.297564485525
0
ARC
5
4e6
100
AcDbEntity
8
0-0
6
CONTINUOUS
62
7
100
AcDbCircle
10
2044.672386568053
20
2642.048699747115
30
0.0
40
13.134414676531
100
AcDbArc
50
162.521885466274
51
198.017609214690
0
CIRCLE
5
4e7
100
AcDbEntity
8
0-0
6
CONTINUOUS
62
7
100
AcDbCircle
10
2044.688844775346
20
2642.035982041479
30
0.0
40
3.389457447208
0
ARC
5
4e8
100
AcDbEntity
8
0-0
6
CONTINUOUS
62
7
100
AcDbCircle
10
2032.020250887810
20
2642.032718500745
30
0.0
40
3.389457447208
100
AcDbArc
50
269.971509582607
51
449.978070214998
0
ARC
5
4e9
100
AcDbEntity
8
0-0
6
CONTINUOUS
62
7
100
AcDbCircle
10
2057.329611730588
20
2642.046482753400
30
0.0
40
3.389457447208
100
AcDbArc
50
90.339830380176
51
269.767752220994
0
ARC
5
4ea
100
AcDbEntity
8
0-0
6
CONTINUOUS
62
7
100
AcDbCircle
10
2049.001414330120
20
2706.975191302550
30
0.0
40
3.240000000000
100
AcDbArc
50
0.000000000000
51
90.000000000000
0
ARC
5
4eb
100
AcDbEntity
8
0-0
6
CONTINUOUS
62
7
100
AcDbCircle
10
2040.361414330120
20
2706.975191302550
30
0.0
40
3.240000000000
100
AcDbArc
50
90.000000000000
51
180.000000000000
0
LINE
5
4ec
100
AcDbEntity
8
0-0
6
CONTINUOUS
62
7
100
AcDbLine
10
2049.001414330120
20
2710.215191302552
30
0.0
11
2040.361414330120
21
2710.215191302552
31
0.0
0
ARC
5
4ed
100
AcDbEntity
8
0-0
6
CONTINUOUS
62
7
100
AcDbCircle
10
2022.790461243590
20
2700.945826103639
30
0.0
40
3.000000000000
100
AcDbArc
50
180.000000000000
51
270.000000000000
0
LINE
5
4ee
100
AcDbEntity
8
0-0
6
CONTINUOUS
62
7
100
AcDbLine
10
2019.790461243590
20
2703.945826103639
30
0.0
11
2019.790461243590
21
2700.945826103639
31
0.0
0
ARC
5
4ef
100
AcDbEntity
8
0-0
6
CONTINUOUS
62
7
100
AcDbCircle
10
2022.790461243590
20
2703.945826103639
30
0.0
40
3.000000000000
100
AcDbArc
50
90.000000000000
51
180.000000000000
0
LINE
5
4f0
100
AcDbEntity
8
0-0
6
CONTINUOUS
62
7
100
AcDbLine
10
2065.687801283179
20
2651.480364794313
30
0.0
11
2065.687801283179
21
2669.250506167792
31
0.0
0
LINE
5
4f1
100
AcDbEntity
8
0-0
6
CONTINUOUS
62
7
100
AcDbLine
10
2067.687801283179
20
2650.365435481054
30
0.0
11
2067.687801283179
21
2670.365435481054
31
0.0
0
ARC
5
4f2
100
AcDbEntity
8
0-0
6
CONTINUOUS
62
7
100
AcDbCircle
10
2073.687801283179
20
2657.892621198510
30
0.0
40
9.625929816131
100
AcDbArc
50
231.441277284353
51
308.558722715647
0
POLYLINE
5
4f3
100
AcDbEntity
8
0-0
6
CONTINUOUS
62
  7
100
AcDb2dPolyline
66
1
10
0.0
20
0.0
30
0.0
70
0
0
VERTEX
5
4f4
100
AcDbEntity
8
0-0
6
CONTINUOUS
62
  7
100
AcDbVertex
100
AcDb2dVertex
10
2057.135977069381
20
2646.043563886628
30
0.0
0
VERTEX
5
4f5
100
AcDbEntity
8
0-0
6
CONTINUOUS
62
  7
100
AcDbVertex
100
AcDb2dVertex
10
2057.288752507187
20
2646.192906633841
30
0.0
0
VERTEX
5
4f6
100
AcDbEntity
8
0-0
6
CONTINUOUS
62
  7
100
AcDbVertex
100
AcDb2dVertex
10
2057.552250606188
20
2646.450112056683
30
0.0
0
VERTEX
5
4f7
100
AcDbEntity
8
0-0
6
CONTINUOUS
62
  7
100
AcDbVertex
100
AcDb2dVertex
10
2057.816004737833
20
2646.706533945208
30
0.0
0
VERTEX
5
4f8
100
AcDbEntity
8
0-0
6
CONTINUOUS
62
  7
100
AcDbVertex
100
AcDb2dVertex
10
2058.080176948098
20
2646.961676391622
30
0.0
0
VERTEX
5
4f9
100
AcDbEntity
8
0-0
6
CONTINUOUS
62
  7
100
AcDbVertex
100
AcDb2dVertex
10
2058.344929282959
20
2647.215043488128
30
0.0
0
VERTEX
5
4fa
100
AcDbEntity
8
0-0
6
CONTINUOUS
62
  7
100
AcDbVertex
100
AcDb2dVertex
10
2058.610423788394
20
2647.466139326931
30
0.0
0
VERTEX
5
4fb
100
AcDbEntity
8
0-0
6
CONTINUOUS
62
  7
100
AcDbVertex
100
AcDb2dVertex
10
2058.876822510380
20
2647.714468000236
30
0.0
0
VERTEX
5
4fc
100
AcDbEntity
8
0-0
6
CONTINUOUS
62
  7
100
AcDbVertex
100
AcDb2dVertex
10
2059.144287494892
20
2647.959533600248
30
0.0
0
VERTEX
5
4fd
100
AcDbEntity
8
0-0
6
CONTINUOUS
62
  7
100
AcDbVertex
100
AcDb2dVertex
10
2059.412980787908
20
2648.200840219171
30
0.0
0
VERTEX
5
4fe
100
AcDbEntity
8
0-0
6
CONTINUOUS
62
  7
100
AcDbVertex
100
AcDb2dVertex
10
2059.683064435405
20
2648.437891949210
30
0.0
0
VERTEX
5
4ff
100
AcDbEntity
8
0-0
6
CONTINUOUS
62
  7
100
AcDbVertex
100
AcDb2dVertex
10
2059.954700483359
20
2648.670192882570
30
0.0
0
VERTEX
5
500
100
AcDbEntity
8
0-0
6
CONTINUOUS
62
  7
100
AcDbVertex
100
AcDb2dVertex
10
2060.228050977747
20
2648.897247111454
30
0.0
0
VERTEX
5
501
100
AcDbEntity
8
0-0
6
CONTINUOUS
62
  7
100
AcDbVertex
100
AcDb2dVertex
10
2060.503277964546
20
2649.118558728068
30
0.0
0
VERTEX
5
502
100
AcDbEntity
8
0-0
6
CONTINUOUS
62
  7
100
AcDbVertex
100
AcDb2dVertex
10
2060.780543489732
20
2649.333631824617
30
0.0
0
VERTEX
5
503
100
AcDbEntity
8
0-0
6
CONTINUOUS
62
  7
100
AcDbVertex
100
AcDb2dVertex
10
2061.060009599283
20
2649.541970493305
30
0.0
0
VERTEX
5
504
100
AcDbEntity
8
0-0
6
CONTINUOUS
62
  7
100
AcDbVertex
100
AcDb2dVertex
10
2061.341838339175
20
2649.743078826337
30
0.0
0
VERTEX
5
505
100
AcDbEntity
8
0-0
6
CONTINUOUS
62
  7
100
AcDbVertex
100
AcDb2dVertex
10
2061.626191755384
20
2649.936460915918
30
0.0
0
VERTEX
5
506
100
AcDbEntity
8
0-0
6
CONTINUOUS
62
  7
100
AcDbVertex
100
AcDb2dVertex
10
2061.913231893888
20
2650.121620854251
30
0.0
0
VERTEX
5
507
100
AcDbEntity
8
0-0
6
CONTINUOUS
62
  7
100
AcDbVertex
100
AcDb2dVertex
10
2062.203120800664
20
2650.298062733542
30
0.0
0
VERTEX
5
508
100
AcDbEntity
8
0-0
6
CONTINUOUS
62
  7
100
AcDbVertex
100
AcDb2dVertex
10
2062.496020521687
20
2650.465290645996
30
0.0
0
VERTEX
5
509
100
AcDbEntity
8
0-0
6
CONTINUOUS
62
  7
100
AcDbVertex
100
AcDb2dVertex
10
2062.792093102935
20
2650.622808683816
30
0.0
0
VERTEX
5
50a
100
AcDbEntity
8
0-0
6
CONTINUOUS
62
  7
100
AcDbVertex
100
AcDb2dVertex
10
2063.091500590385
20
2650.770120939209
30
0.0
0
VERTEX
5
50b
100
AcDbEntity
8
0-0
6
CONTINUOUS
62
  7
100
AcDbVertex
100
AcDb2dVertex
10
2063.394405030012
20
2650.906731504378
30
0.0
0
VERTEX
5
50c
100
AcDbEntity
8
0-0
6
CONTINUOUS
62
  7
100
AcDbVertex
100
AcDb2dVertex
10
2063.700968467796
20
2651.032144471527
30
0.0
0
VERTEX
5
50d
100
AcDbEntity
8
0-0
6
CONTINUOUS
62
  7
100
AcDbVertex
100
AcDb2dVertex
10
2064.011352949711
20
2651.145863932863
30
0.0
0
VERTEX
5
50e
100
AcDbEntity
8
0-0
6
CONTINUOUS
62
  7
100
AcDbVertex
100
AcDb2dVertex
10
2064.325720521734
20
2651.247393980588
30
0.0
0
VERTEX
5
50f
100
AcDbEntity
8
0-0
6
CONTINUOUS
62
  7
100
AcDbVertex
100
AcDb2dVertex
10
2064.644233229843
20
2651.336238706908
30
0.0
0
VERTEX
5
510
100
AcDbEntity
8
0-0
6
CONTINUOUS
62
  7
100
AcDbVertex
100
AcDb2dVertex
10
2064.967053120014
20
2651.411902204028
30
0.0
0
VERTEX
5
511
100
AcDbEntity
8
0-0
6
CONTINUOUS
62
  7
100
AcDbVertex
100
AcDb2dVertex
10
2065.294342238224
20
2651.473888564153
30
0.0
0
VERTEX
5
512
100
AcDbEntity
8
0-0
6
CONTINUOUS
62
  7
100
AcDbVertex
100
AcDb2dVertex
10
2065.486281581614
20
2651.503378375395
30
0.0
0
VERTEX
5
513
100
AcDbEntity
8
0-0
6
CONTINUOUS
62
  7
100
AcDbVertex
100
AcDb2dVertex
10
2065.525661897972
20
2651.508805007924
30
0.0
0
VERTEX
5
514
100
AcDbEntity
8
0-0
6
CONTINUOUS
62
  7
100
AcDbVertex
100
AcDb2dVertex
10
2065.593710746884
20
2651.517696866461
30
0.0
0
VERTEX
5
515
100
AcDbEntity
8
0-0
6
CONTINUOUS
62
  7
100
AcDbVertex
100
AcDb2dVertex
10
2065.661945877954
20
2651.526018647441
30
0.0
0
VERTEX
5
516
100
AcDbEntity
8
0-0
6
CONTINUOUS
62
  7
100
AcDbVertex
100
AcDb2dVertex
10
2065.730360536935
20
2651.533791020825
30
0.0
0
VERTEX
5
517
100
AcDbEntity
8
0-0
6
CONTINUOUS
62
  7
100
AcDbVertex
100
AcDb2dVertex
10
2065.798947969579
20
2651.541034656575
30
0.0
0
VERTEX
5
518
100
AcDbEntity
8
0-0
6
CONTINUOUS
62
  7
100
AcDbVertex
100
AcDb2dVertex
10
2065.867701421638
20
2651.547770224654
30
0.0
0
VERTEX
5
519
100
AcDbEntity
8
0-0
6
CONTINUOUS
62
  7
100
AcDbVertex
100
AcDb2dVertex
10
2065.936614138864
20
2651.554018395023
30
0.0
0
VERTEX
5
51a
100
AcDbEntity
8
0-0
6
CONTINUOUS
62
  7
100
AcDbVertex
100
AcDb2dVertex
10
2066.005679367009
20
2651.559799837645
30
0.0
0
VERTEX
5
51b
100
AcDbEntity
8
0-0
6
CONTINUOUS
62
  7
100
AcDbVertex
100
AcDb2dVertex
10
2066.074890351825
20
2651.565135222483
30
0.0
0
VERTEX
5
51c
100
AcDbEntity
8
0-0
6
CONTINUOUS
62
  7
100
AcDbVertex
100
AcDb2dVertex
10
2066.144240339065
20
2651.570045219498
30
0.0
0
VERTEX
5
51d
100
AcDbEntity
8
0-0
6
CONTINUOUS
62
  7
100
AcDbVertex
100
AcDb2dVertex
10
2066.213722574480
20
2651.574550498653
30
0.0
0
VERTEX
5
51e
100
AcDbEntity
8
0-0
6
CONTINUOUS
62
  7
100
AcDbVertex
100
AcDb2dVertex
10
2066.283330303822
20
2651.578671729909
30
0.0
0
VERTEX
5
51f
100
AcDbEntity
8
0-0
6
CONTINUOUS
62
  7
100
AcDbVertex
100
AcDb2dVertex
10
2066.353056772842
20
2651.582429583229
30
0.0
0
VERTEX
5
520
100
AcDbEntity
8
0-0
6
CONTINUOUS
62
  7
100
AcDbVertex
100
AcDb2dVertex
10
2066.422895227295
20
2651.585844728576
30
0.0
0
VERTEX
5
521
100
AcDbEntity
8
0-0
6
CONTINUOUS
62
  7
100
AcDbVertex
100
AcDb2dVertex
10
2066.492838912930
20
2651.588937835912
30
0.0
0
VERTEX
5
522
100
AcDbEntity
8
0-0
6
CONTINUOUS
62
  7
100
AcDbVertex
100
AcDb2dVertex
10
2066.562881075502
20
2651.591729575198
30
0.0
0
VERTEX
5
523
100
AcDbEntity
8
0-0
6
CONTINUOUS
62
  7
100
AcDbVertex
100
AcDb2dVertex
10
2066.633014960759
20
2651.594240616397
30
0.0
0
VERTEX
5
524
100
AcDbEntity
8
0-0
6
CONTINUOUS
62
  7
100
AcDbVertex
100
AcDb2dVertex
10
2066.703233814457
20
2651.596491629472
30
0.0
0
VERTEX
5
525
100
AcDbEntity
8
0-0
6
CONTINUOUS
62
  7
100
AcDbVertex
100
AcDb2dVertex
10
2066.773530882347
20
2651.598503284384
30
0.0
0
VERTEX
5
526
100
AcDbEntity
8
0-0
6
CONTINUOUS
62
  7
100
AcDbVertex
100
AcDb2dVertex
10
2066.843899410179
20
2651.600296251095
30
0.0
0
VERTEX
5
527
100
AcDbEntity
8
0-0
6
CONTINUOUS
62
  7
100
AcDbVertex
100
AcDb2dVertex
10
2066.914332643707
20
2651.601891199569
30
0.0
0
VERTEX
5
528
100
AcDbEntity
8
0-0
6
CONTINUOUS
62
  7
100
AcDbVertex
100
AcDb2dVertex
10
2066.984823828683
20
2651.603308799766
30
0.0
0
VERTEX
5
529
100
AcDbEntity
8
0-0
6
CONTINUOUS
62
  7
100
AcDbVertex
100
AcDb2dVertex
10
2067.055366210858
20
2651.604569721650
30
0.0
0
VERTEX
5
52a
100
AcDbEntity
8
0-0
6
CONTINUOUS
62
  7
100
AcDbVertex
100
AcDb2dVertex
10
2067.125953035985
20
2651.605694635183
30
0.0
0
VERTEX
5
52b
100
AcDbEntity
8
0-0
6
CONTINUOUS
62
  7
100
AcDbVertex
100
AcDb2dVertex
10
2067.196577549816
20
2651.606704210326
30
0.0
0
VERTEX
5
52c
100
AcDbEntity
8
0-0
6
CONTINUOUS
62
  7
100
AcDbVertex
100
AcDb2dVertex
10
2067.267232998102
20
2651.607619117042
30
0.0
0
VERTEX
5
52d
100
AcDbEntity
8
0-0
6
CONTINUOUS
62
  7
100
AcDbVertex
100
AcDb2dVertex
10
2067.337912626596
20
2651.608460025294
30
0.0
0
VERTEX
5
52e
100
AcDbEntity
8
0-0
6
CONTINUOUS
62
  7
100
AcDbVertex
100
AcDb2dVertex
10
2067.408609681050
20
2651.609247605042
30
0.0
0
VERTEX
5
52f
100
AcDbEntity
8
0-0
6
CONTINUOUS
62
  7
100
AcDbVertex
100
AcDb2dVertex
10
2067.479317407216
20
2651.610002526251
30
0.0
0
VERTEX
5
530
100
AcDbEntity
8
0-0
6
CONTINUOUS
62
  7
100
AcDbVertex
100
AcDb2dVertex
10
2067.520330116645
20
2651.610433561449
30
0.0
0
SEQEND
5
531
100
AcDbEntity
8
0-0
0
ARC
5
532
100
AcDbEntity
8
0-0
6
CONTINUOUS
62
7
100
AcDbCircle
10
2044.672386568053
20
2679.341165530245
30
0.0
40
13.134414676531
100
AcDbArc
50
342.276763383114
51
377.297564485525
0
ARC
5
533
100
AcDbEntity
8
0-0
6
CONTINUOUS
62
7
100
AcDbCircle
10
2044.672386568053
20
2679.341165530245
30
0.0
40
13.134414676531
100
AcDbArc
50
162.521885466274
51
198.017609214690
0
CIRCLE
5
534
100
AcDbEntity
8
0-0
6
CONTINUOUS
62
7
100
AcDbCircle
10
2044.688844775346
20
2679.328447824609
30
0.0
40
3.389457447208
0
ARC
5
535
100
AcDbEntity
8
0-0
6
CONTINUOUS
62
7
100
AcDbCircle
10
2032.020250887811
20
2679.325184283875
30
0.0
40
3.389457447208
100
AcDbArc
50
269.971509582607
51
449.978070214998
0
ARC
5
536
100
AcDbEntity
8
0-0
6
CONTINUOUS
62
7
100
AcDbCircle
10
2057.329611730588
20
2679.338948536530
30
0.0
40
3.389457447208
100
AcDbArc
50
90.339830380176
51
269.767752220994
0
LINE
5
537
100
AcDbEntity
8
0-0
6
CONTINUOUS
62
7
100
AcDbLine
10
2032.324232764593
20
2683.027871395680
30
0.0
11
2057.192108362977
21
2683.027871395680
31
0.0
0
LINE
5
538
100
AcDbEntity
8
0-0
6
CONTINUOUS
62
7
100
AcDbLine
10
2032.481388737738
20
2646.075808487779
30
0.0
11
2032.481388737738
21
2675.224885698261
31
0.0
0
POLYLINE
5
539
100
AcDbEntity
8
0-0
6
CONTINUOUS
62
  7
100
AcDb2dPolyline
66
1
10
0.0
20
0.0
30
0.0
70
0
0
VERTEX
5
53a
100
AcDbEntity
8
0-0
6
CONTINUOUS
62
  7
100
AcDbVertex
100
AcDb2dVertex
10
2067.599194632188
20
2669.101236172888
30
0.0
0
VERTEX
5
53b
100
AcDbEntity
8
0-0
6
CONTINUOUS
62
  7
100
AcDbVertex
100
AcDb2dVertex
10
2066.913789155974
20
2669.323069434205
30
0.0
0
VERTEX
5
53c
100
AcDbEntity
8
0-0
6
CONTINUOUS
62
  7
100
AcDbVertex
100
AcDb2dVertex
10
2065.738081238488
20
2669.714837741744
30
0.0
0
VERTEX
5
53d
100
AcDbEntity
8
0-0
6
CONTINUOUS
62
  7
100
AcDbVertex
100
AcDb2dVertex
10
2064.579111271539
20
2670.132431514110
30
0.0
0
VERTEX
5
53e
100
AcDbEntity
8
0-0
6
CONTINUOUS
62
  7
100
AcDbVertex
100
AcDb2dVertex
10
2063.447472894708
20
2670.592195982206
30
0.0
0
VERTEX
5
53f
100
AcDbEntity
8
0-0
6
CONTINUOUS
62
  7
100
AcDbVertex
100
AcDb2dVertex
10
2062.353759747574
20
2671.110476376935
30
0.0
0
VERTEX
5
540
100
AcDbEntity
8
0-0
6
CONTINUOUS
62
  7
100
AcDbVertex
100
AcDb2dVertex
10
2061.308565469719
20
2671.703617929201
30
0.0
0
VERTEX
5
541
100
AcDbEntity
8
0-0
6
CONTINUOUS
62
  7
100
AcDbVertex
100
AcDb2dVertex
10
2060.728758579330
20
2672.088382282826
30
0.0
0
VERTEX
5
542
100
AcDbEntity
8
0-0
6
CONTINUOUS
62
  7
100
AcDbVertex
100
AcDb2dVertex
10
2060.379449343279
20
2672.343797052956
30
0.0
0
VERTEX
5
543
100
AcDbEntity
8
0-0
6
CONTINUOUS
62
  7
100
AcDbVertex
100
AcDb2dVertex
10
2059.794744268955
20
2672.811249185075
30
0.0
0
VERTEX
5
544
100
AcDbEntity
8
0-0
6
CONTINUOUS
62
  7
100
AcDbVertex
100
AcDb2dVertex
10
2059.228744800035
20
2673.307562733256
30
0.0
0
VERTEX
5
545
100
AcDbEntity
8
0-0
6
CONTINUOUS
62
  7
100
AcDbVertex
100
AcDb2dVertex
10
2058.677366743201
20
2673.826436078270
30
0.0
0
VERTEX
5
546
100
AcDbEntity
8
0-0
6
CONTINUOUS
62
  7
100
AcDbVertex
100
AcDb2dVertex
10
2058.136525905133
20
2674.361567600891
30
0.0
0
VERTEX
5
547
100
AcDbEntity
8
0-0
6
CONTINUOUS
62
  7
100
AcDbVertex
100
AcDb2dVertex
10
2057.602138092510
20
2674.906655681892
30
0.0
0
VERTEX
5
548
100
AcDbEntity
8
0-0
6
CONTINUOUS
62
  7
100
AcDbVertex
100
AcDb2dVertex
10
2057.293540552902
20
2675.224885698261
30
0.0
0
SEQEND
5
549
100
AcDbEntity
8
0-0
0
POLYLINE
5
54a
100
AcDbEntity
8
0-0
6
CONTINUOUS
62
  7
100
AcDb2dPolyline
66
1
10
0.0
20
0.0
30
0.0
70
0
0
VERTEX
5
54b
100
AcDbEntity
8
0-0
6
CONTINUOUS
62
  7
100
AcDbVertex
100
AcDb2dVertex
10
2032.152599542628
20
2683.024118196836
30
0.0
0
VERTEX
5
54c
100
AcDbEntity
8
0-0
6
CONTINUOUS
62
  7
100
AcDbVertex
100
AcDb2dVertex
10
2032.624668636727
20
2683.299265968641
30
0.0
0
VERTEX
5
54d
100
AcDbEntity
8
0-0
6
CONTINUOUS
62
  7
100
AcDbVertex
100
AcDb2dVertex
10
2033.436573741905
20
2683.776405216085
30
0.0
0
VERTEX
5
54e
100
AcDbEntity
8
0-0
6
CONTINUOUS
62
  7
100
AcDbVertex
100
AcDb2dVertex
10
2034.242903497015
20
2684.261173734184
30
0.0
0
VERTEX
5
54f
100
AcDbEntity
8
0-0
6
CONTINUOUS
62
  7
100
AcDbVertex
100
AcDb2dVertex
10
2035.040129199481
20
2684.758400175251
30
0.0
0
VERTEX
5
550
100
AcDbEntity
8
0-0
6
CONTINUOUS
62
  7
100
AcDbVertex
100
AcDb2dVertex
10
2035.824722146726
20
2685.272913191599
30
0.0
0
VERTEX
5
551
100
AcDbEntity
8
0-0
6
CONTINUOUS
62
  7
100
AcDbVertex
100
AcDb2dVertex
10
2036.593153636177
20
2685.809541435541
30
0.0
0
VERTEX
5
552
100
AcDbEntity
8
0-0
6
CONTINUOUS
62
  7
100
AcDbVertex
100
AcDb2dVertex
10
2037.030048227790
20
2686.132821754412
30
0.0
0
VERTEX
5
553
100
AcDbEntity
8
0-0
6
CONTINUOUS
62
  7
100
AcDbVertex
100
AcDb2dVertex
10
2037.279776293185
20
2686.324434408009
30
0.0
0
VERTEX
5
554
100
AcDbEntity
8
0-0
6
CONTINUOUS
62
  7
100
AcDbVertex
100
AcDb2dVertex
10
2037.705257855048
20
2686.661758055971
30
0.0
0
VERTEX
5
555
100
AcDbEntity
8
0-0
6
CONTINUOUS
62
  7
100
AcDbVertex
100
AcDb2dVertex
10
2038.125321269104
20
2687.006495860096
30
0.0
0
VERTEX
5
556
100
AcDbEntity
8
0-0
6
CONTINUOUS
62
  7
100
AcDbVertex
100
AcDb2dVertex
10
2038.541149537055
20
2687.357029008996
30
0.0
0
VERTEX
5
557
100
AcDbEntity
8
0-0
6
CONTINUOUS
62
  7
100
AcDbVertex
100
AcDb2dVertex
10
2038.953925660607
20
2687.711738691281
30
0.0
0
VERTEX
5
558
100
AcDbEntity
8
0-0
6
CONTINUOUS
62
  7
100
AcDbVertex
100
AcDb2dVertex
10
2039.364832641466
20
2688.069006095560
30
0.0
0
VERTEX
5
559
100
AcDbEntity
8
0-0
6
CONTINUOUS
62
  7
100
AcDbVertex
100
AcDb2dVertex
10
2039.602768413370
20
2688.276755242395
30
0.0
0
SEQEND
5
55a
100
AcDbEntity
8
0-0
0
LINE
5
55b
100
AcDbEntity
8
0-0
6
CONTINUOUS
62
7
100
AcDbLine
10
2049.681414330120
20
2688.306840118376
30
0.0
11
2039.681414330120
21
2688.306840118376
31
0.0
0
POLYLINE
5
55c
100
AcDbEntity
8
0-0
6
CONTINUOUS
62
  7
100
AcDb2dPolyline
66
1
10
0.0
20
0.0
30
0.0
70
0
0
VERTEX
5
55d
100
AcDbEntity
8
0-0
6
CONTINUOUS
62
  7
100
AcDbVertex
100
AcDb2dVertex
10
2057.290219689231
20
2683.077716534035
30
0.0
0
VERTEX
5
55e
100
AcDbEntity
8
0-0
6
CONTINUOUS
62
  7
100
AcDbVertex
100
AcDb2dVertex
10
2056.798654146813
20
2683.336403445189
30
0.0
0
VERTEX
5
55f
100
AcDbEntity
8
0-0
6
CONTINUOUS
62
  7
100
AcDbVertex
100
AcDb2dVertex
10
2055.953816095438
20
2683.786158150191
30
0.0
0
VERTEX
5
560
100
AcDbEntity
8
0-0
6
CONTINUOUS
62
  7
100
AcDbVertex
100
AcDb2dVertex
10
2055.116446782671
20
2684.246309491913
30
0.0
0
VERTEX
5
561
100
AcDbEntity
8
0-0
6
CONTINUOUS
62
  7
100
AcDbVertex
100
AcDb2dVertex
10
2054.291273258264
20
2684.723437620180
30
0.0
0
VERTEX
5
562
100
AcDbEntity
8
0-0
6
CONTINUOUS
62
  7
100
AcDbVertex
100
AcDb2dVertex
10
2053.483022571967
20
2685.224122684816
30
0.0
0
VERTEX
5
563
100
AcDbEntity
8
0-0
6
CONTINUOUS
62
  7
100
AcDbVertex
100
AcDb2dVertex
10
2052.696421773534
20
2685.754944835641
30
0.0
0
VERTEX
5
564
100
AcDbEntity
8
0-0
6
CONTINUOUS
62
  7
100
AcDbVertex
100
AcDb2dVertex
10
2052.251975992471
20
2686.079223417212
30
0.0
0
VERTEX
5
565
100
AcDbEntity
8
0-0
6
CONTINUOUS
62
  7
100
AcDbVertex
100
AcDb2dVertex
10
2051.994278756460
20
2686.276683979328
30
0.0
0
VERTEX
5
566
100
AcDbEntity
8
0-0
6
CONTINUOUS
62
  7
100
AcDbVertex
100
AcDb2dVertex
10
2051.557040655072
20
2686.626971298034
30
0.0
0
VERTEX
5
567
100
AcDbEntity
8
0-0
6
CONTINUOUS
62
  7
100
AcDbVertex
100
AcDb2dVertex
10
2051.127334443340
20
2686.987743161008
30
0.0
0
VERTEX
5
568
100
AcDbEntity
8
0-0
6
CONTINUOUS
62
  7
100
AcDbVertex
100
AcDb2dVertex
10
2050.703515603871
20
2687.356710366447
30
0.0
0
VERTEX
5
569
100
AcDbEntity
8
0-0
6
CONTINUOUS
62
  7
100
AcDbVertex
100
AcDb2dVertex
10
2050.283939619273
20
2687.731583712543
30
0.0
0
VERTEX
5
56a
100
AcDbEntity
8
0-0
6
CONTINUOUS
62
  7
100
AcDbVertex
100
AcDb2dVertex
10
2049.866961972155
20
2688.110073997492
30
0.0
0
VERTEX
5
56b
100
AcDbEntity
8
0-0
6
CONTINUOUS
62
  7
100
AcDbVertex
100
AcDb2dVertex
10
2049.625657469692
20
2688.330353579594
30
0.0
0
SEQEND
5
56c
100
AcDbEntity
8
0-0
0
LINE
5
56d
100
AcDbEntity
8
0-0
6
CONTINUOUS
62
7
100
AcDbLine
10
2040.681414330120
20
2688.284966364967
30
0.0
11
2040.681414330120
21
2698.018059841128
31
0.0
0
LINE
5
56e
100
AcDbEntity
8
0-0
6
CONTINUOUS
62
7
100
AcDbLine
10
2048.681414330120
20
2688.217708212597
30
0.0
11
2048.681414330120
21
2698.018059841128
31
0.0
0
LINE
5
56f
100
AcDbEntity
8
0-0
6
CONTINUOUS
62
7
100
AcDbLine
10
2059.768332425495
20
2706.945826103639
30
0.0
11
2022.790461243590
21
2706.945826103639
31
0.0
0
LINE
5
570
100
AcDbEntity
8
0-0
6
CONTINUOUS
62
7
100
AcDbLine
10
2063.412786650682
20
2697.945826103639
30
0.0
11
2022.790461243590
21
2697.945826103639
31
0.0
0
ARC
5
571
100
AcDbEntity
8
0-0
6
CONTINUOUS
62
7
100
AcDbCircle
10
2073.687801283179
20
2662.838249763595
30
0.0
40
9.625929816131
100
AcDbArc
50
81.938563763879
51
128.558722715647
0
ARC
5
572
100
AcDbEntity
8
0-0
6
CONTINUOUS
62
7
100
AcDbCircle
10
2073.687801283179
20
2677.892621198510
30
0.0
40
9.625929816131
100
AcDbArc
50
231.441277284353
51
284.928010544601
0
ARC
5
573
100
AcDbEntity
8
0-0
6
CONTINUOUS
62
7
100
AcDbCircle
10
2073.687801283179
20
2658.023218407806
30
0.0
40
6.440961171922
100
AcDbArc
50
44.474033007871
51
158.675842246797
0
ARC
5
574
100
AcDbEntity
8
0-0
6
CONTINUOUS
62
7
100
AcDbCircle
10
2073.687801283179
20
2662.707652554299
30
0.0
40
6.440961171922
100
AcDbArc
50
201.324157753203
51
328.670261838214
0
LINE
5
575
100
AcDbEntity
8
0-0
6
CONTINUOUS
62
7
100
AcDbLine
10
2079.687801283179
20
2650.365435481054
30
0.0
11
2079.687801283179
21
2657.752557545256
31
0.0
0
ARC
5
576
100
AcDbEntity
8
0-0
6
CONTINUOUS
62
7
100
AcDbCircle
10
2073.793652330432
20
2658.023218407806
30
0.0
40
6.440961171922
100
AcDbArc
50
21.324157753203
51
36.541402537417
0
ARC
5
577
100
AcDbEntity
8
0-0
6
CONTINUOUS
62
7
100
AcDbCircle
10
2073.793652330432
20
2662.707652554299
30
0.0
40
6.440961171922
100
AcDbArc
50
334.538291720016
51
338.675842246797
0
POLYLINE
5
578
100
AcDbEntity
8
0-0
6
CONTINUOUS
62
  7
100
AcDb2dPolyline
66
1
10
0.0
20
0.0
30
0.0
70
0
0
VERTEX
5
579
100
AcDbEntity
8
0-0
6
CONTINUOUS
62
  7
100
AcDbVertex
100
AcDb2dVertex
10
2031.031367784526
20
2933.810376237434
30
0.0
0
VERTEX
5
57a
100
AcDbEntity
8
0-0
6
CONTINUOUS
62
  7
100
AcDbVertex
100
AcDb2dVertex
10
2031.540723847438
20
2941.324391781109
30
0.0
0
VERTEX
5
57b
100
AcDbEntity
8
0-0
6
CONTINUOUS
62
  7
100
AcDbVertex
100
AcDb2dVertex
10
2032.422417616802
20
2954.279308807977
30
0.0
0
VERTEX
5
57c
100
AcDbEntity
8
0-0
6
CONTINUOUS
62
  7
100
AcDbVertex
100
AcDb2dVertex
10
2033.313815999761
20
2967.233441983834
30
0.0
0
VERTEX
5
57d
100
AcDbEntity
8
0-0
6
CONTINUOUS
62
  7
100
AcDbVertex
100
AcDb2dVertex
10
2034.221061156821
20
2980.186295200443
30
0.0
0
VERTEX
5
57e
100
AcDbEntity
8
0-0
6
CONTINUOUS
62
  7
100
AcDbVertex
100
AcDb2dVertex
10
2035.150295248484
20
2993.137372349570
30
0.0
0
VERTEX
5
57f
100
AcDbEntity
8
0-0
6
CONTINUOUS
62
  7
100
AcDbVertex
100
AcDb2dVertex
10
2036.107660435255
20
3006.086177322981
30
0.0
0
VERTEX
5
580
100
AcDbEntity
8
0-0
6
CONTINUOUS
62
  7
100
AcDbVertex
100
AcDb2dVertex
10
2036.678242241992
20
3013.595247604203
30
0.0
0
VERTEX
5
581
100
AcDbEntity
8
0-0
6
CONTINUOUS
62
  7
100
AcDbVertex
100
AcDb2dVertex
10
2037.084295257136
20
3018.843711215725
30
0.0
0
VERTEX
5
582
100
AcDbEntity
8
0-0
6
CONTINUOUS
62
  7
100
AcDbVertex
100
AcDb2dVertex
10
2037.795183719551
20
3027.891952545605
30
0.0
0
VERTEX
5
583
100
AcDbEntity
8
0-0
6
CONTINUOUS
62
  7
100
AcDbVertex
100
AcDb2dVertex
10
2038.513981124573
20
3036.939661246766
30
0.0
0
VERTEX
5
584
100
AcDbEntity
8
0-0
6
CONTINUOUS
62
  7
100
AcDbVertex
100
AcDb2dVertex
10
2039.233991869713
20
3045.987445334687
30
0.0
0
VERTEX
5
585
100
AcDbEntity
8
0-0
6
CONTINUOUS
62
  7
100
AcDbVertex
100
AcDb2dVertex
10
2039.948520352475
20
3055.035912824847
30
0.0
0
VERTEX
5
586
100
AcDbEntity
8
0-0
6
CONTINUOUS
62
  7
100
AcDbVertex
100
AcDb2dVertex
10
2040.650870970370
20
3064.085671732722
30
0.0
0
VERTEX
5
587
100
AcDbEntity
8
0-0
6
CONTINUOUS
62
  7
100
AcDbVertex
100
AcDb2dVertex
10
2041.050016015513
20
3069.335363216601
30
0.0
0
VERTEX
5
588
100
AcDbEntity
8
0-0
6
CONTINUOUS
62
  7
100
AcDbVertex
100
AcDb2dVertex
10
2041.789068747576
20
3079.304503013786
30
0.0
0
VERTEX
5
589
100
AcDbEntity
8
0-0
6
CONTINUOUS
62
  7
100
AcDbVertex
100
AcDb2dVertex
10
2043.031237779360
20
3096.495888245840
30
0.0
0
VERTEX
5
58a
100
AcDbEntity
8
0-0
6
CONTINUOUS
62
  7
100
AcDbVertex
100
AcDb2dVertex
10
2044.282337926866
20
3113.686501985450
30
0.0
0
VERTEX
5
58b
100
AcDbEntity
8
0-0
6
CONTINUOUS
62
  7
100
AcDbVertex
100
AcDb2dVertex
10
2045.599942634335
20
3130.870717728394
30
0.0
0
VERTEX
5
58c
100
AcDbEntity
8
0-0
6
CONTINUOUS
62
  7
100
AcDbVertex
100
AcDb2dVertex
10
2047.041625346011
20
3148.042908970443
30
0.0
0
VERTEX
5
58d
100
AcDbEntity
8
0-0
6
CONTINUOUS
62
  7
100
AcDbVertex
100
AcDb2dVertex
10
2048.664959506136
20
3165.197449207372
30
0.0
0
VERTEX
5
58e
100
AcDbEntity
8
0-0
6
CONTINUOUS
62
  7
100
AcDbVertex
100
AcDb2dVertex
10
2049.712412943538
20
3175.136777719003
30
0.0
0
VERTEX
5
58f
100
AcDbEntity
8
0-0
6
CONTINUOUS
62
  7
100
AcDbVertex
100
AcDb2dVertex
10
2049.795341492549
20
3175.889309709460
30
0.0
0
VERTEX
5
590
100
AcDbEntity
8
0-0
6
CONTINUOUS
62
  7
100
AcDbVertex
100
AcDb2dVertex
10
2049.939413033206
20
3177.186672415771
30
0.0
0
VERTEX
5
591
100
AcDbEntity
8
0-0
6
CONTINUOUS
62
  7
100
AcDbVertex
100
AcDb2dVertex
10
2050.084647567056
20
3178.483921898001
30
0.0
0
VERTEX
5
592
100
AcDbEntity
8
0-0
6
CONTINUOUS
62
  7
100
AcDbVertex
100
AcDb2dVertex
10
2050.230791165453
20
3179.781082877565
30
0.0
0
VERTEX
5
593
100
AcDbEntity
8
0-0
6
CONTINUOUS
62
  7
100
AcDbVertex
100
AcDb2dVertex
10
2050.377589899753
20
3181.078180075878
30
0.0
0
VERTEX
5
594
100
AcDbEntity
8
0-0
6
CONTINUOUS
62
  7
100
AcDbVertex
100
AcDb2dVertex
10
2050.524789841311
20
3182.375238214354
30
0.0
0
VERTEX
5
595
100
AcDbEntity
8
0-0
6
CONTINUOUS
62
  7
100
AcDbVertex
100
AcDb2dVertex
10
2050.610249579490
20
3183.127523778978
30
0.0
0
SEQEND
5
596
100
AcDbEntity
8
0-0
0
ARC
5
597
100
AcDbEntity
8
0-0
6
CONTINUOUS
62
7
100
AcDbCircle
10
3595.760944716533
20
2912.420557318316
30
0.0
40
1524.046500000000
100
AcDbArc
50
173.229356351969
51
179.098369454058
0
LINE
5
598
100
AcDbEntity
8
0-0
6
CONTINUOUS
62
7
100
AcDbLine
10
2017.742944716534
20
2883.218557318316
30
0.0
11
2026.391944716534
21
2833.217557318316
31
0.0
0
ARC
5
599
100
AcDbEntity
8
0-0
6
CONTINUOUS
62
7
100
AcDbCircle
10
2534.512444716534
20
2904.637057318316
30
0.0
40
513.114000000000
100
AcDbArc
50
188.000807526054
51
204.816442892879
0
ARC
5
59a
100
AcDbEntity
8
0-0
6
CONTINUOUS
62
7
100
AcDbCircle
10
1866.526444716534
20
2596.039057318316
30
0.0
40
222.709500000000
100
AcDbArc
50
337.764739340296
51
384.749295887637
0
LINE
5
59b
100
AcDbEntity
8
0-0
6
CONTINUOUS
62
7
100
AcDbLine
10
2367.743944716533
20
2883.218557318316
30
0.0
11
2359.094944716534
21
2833.217557318316
31
0.0
0
LINE
5
59c
100
AcDbEntity
8
0-0
6
CONTINUOUS
62
7
100
AcDbLine
10
2026.391944716534
20
2833.217557318316
30
0.0
11
2359.094944716534
21
2833.217557318316
31
0.0
0
ARC
5
59d
100
AcDbEntity
8
0-0
6
CONTINUOUS
62
7
100
AcDbCircle
10
1850.974444716533
20
2904.637057318316
30
0.0
40
513.114000000000
100
AcDbArc
50
335.183557473406
51
351.999192840231
0
ARC
5
59e
100
AcDbEntity
8
0-0
6
CONTINUOUS
62
7
100
AcDbCircle
10
2524.349944716534
20
2595.920557318316
30
0.0
40
227.664000000000
100
AcDbArc
50
155.791545433878
51
201.694418692958
0
ARC
5
59f
100
AcDbEntity
8
0-0
6
CONTINUOUS
62
7
100
AcDbCircle
10
788.768944716534
20
2912.423557318316
30
0.0
40
1524.003000000000
100
AcDbArc
50
0.909001106128
51
8.308127294338
0
LINE
5
5a0
100
AcDbEntity
8
0-0
6
CONTINUOUS
62
7
100
AcDbLine
10
2017.742944716534
20
2901.979369709092
30
0.0
11
2367.743944716533
21
2901.979369709092
31
0.0
0
LINE
5
5a1
100
AcDbEntity
8
0-0
6
CONTINUOUS
62
7
100
AcDbLine
10
2362.742944716534
20
2918.350369709092
30
0.0
11
2022.743944716533
21
2918.350369709092
31
0.0
0
LINE
5
5a2
100
AcDbEntity
8
0-0
6
CONTINUOUS
62
7
100
AcDbLine
10
2364.743944716533
20
2904.074869709092
30
0.0
11
2020.742944716534
21
2904.074869709092
31
0.0
0
LINE
5
5a3
100
AcDbEntity
8
0-0
6
CONTINUOUS
62
7
100
AcDbLine
10
2362.742944716534
20
2920.351369709092
30
0.0
11
2022.743944716533
21
2920.351369709092
31
0.0
0
LINE
5
5a4
100
AcDbEntity
8
0-0
6
CONTINUOUS
62
7
100
AcDbLine
10
2017.742944716534
20
2913.350869709092
30
0.0
11
2017.742944716534
21
2907.074869709092
31
0.0
0
LINE
5
5a5
100
AcDbEntity
8
0-0
6
CONTINUOUS
62
7
100
AcDbLine
10
2367.743944716533
20
2913.350869709092
30
0.0
11
2367.743944716533
21
2907.074869709092
31
0.0
0
ARC
5
5a6
100
AcDbEntity
8
0-0
6
CONTINUOUS
62
7
100
AcDbCircle
10
2022.743944716533
20
2925.350869709092
30
0.0
40
4.999500000000
100
AcDbArc
50
180.000000000000
51
270.000000000000
0
ARC
5
5a7
100
AcDbEntity
8
0-0
6
CONTINUOUS
62
7
100
AcDbCircle
10
2022.743944716533
20
2913.350869709092
30
0.0
40
4.999500000000
100
AcDbArc
50
90.000000000000
51
180.000000000000
0
ARC
5
5a8
100
AcDbEntity
8
0-0
6
CONTINUOUS
62
7
100
AcDbCircle
10
2020.742944716534
20
2907.074869709092
30
0.0
40
3.000000000000
100
AcDbArc
50
180.000000000000
51
270.000000000000
0
ARC
5
5a9
100
AcDbEntity
8
0-0
6
CONTINUOUS
62
7
100
AcDbCircle
10
2362.742944716534
20
2925.350869709092
30
0.0
40
4.999500000000
100
AcDbArc
50
270.000000000000
51
360.000000000000
0
ARC
5
5aa
100
AcDbEntity
8
0-0
6
CONTINUOUS
62
7
100
AcDbCircle
10
2362.742944716534
20
2913.350869709092
30
0.0
40
4.999500000000
100
AcDbArc
50
0.000000000000
51
90.000000000000
0
ARC
5
5ab
100
AcDbEntity
8
0-0
6
CONTINUOUS
62
7
100
AcDbCircle
10
2364.743944716533
20
2907.074869709092
30
0.0
40
3.000000000000
100
AcDbArc
50
270.000000000000
51
360.000000000000
0
LINE
5
5ac
100
AcDbEntity
8
0-0
6
CONTINUOUS
62
7
100
AcDbLine
10
2017.785217351799
20
2883.158340726073
30
0.0
11
2017.640083732387
21
2901.880577630100
31
0.0
0
LINE
5
5ad
100
AcDbEntity
8
0-0
6
CONTINUOUS
62
7
100
AcDbLine
10
2367.783104850102
20
2883.287284798457
30
0.0
11
2367.917368313204
21
2901.949906169639
31
0.0
0
ARC
5
5ae
100
AcDbEntity
8
0-0
6
CONTINUOUS
62
7
100
AcDbCircle
10
2022.777739926074
20
2928.454204400201
30
0.0
40
5.000000000000
100
AcDbArc
50
90.000000000000
51
180.000000000000
0
LINE
5
5af
100
AcDbEntity
8
0-0
6
CONTINUOUS
62
7
100
AcDbLine
10
2017.742944716534
20
2929.007923601635
30
0.0
11
2017.742944716534
21
2925.350869709092
31
0.0
0
ARC
5
5b0
100
AcDbEntity
8
0-0
6
CONTINUOUS
62
7
100
AcDbCircle
10
2362.706354610683
20
2928.441757730186
30
0.0
40
5.000000000000
100
AcDbArc
50
0.000000000000
51
90.000000000000
0
LINE
5
5b1
100
AcDbEntity
8
0-0
6
CONTINUOUS
62
7
100
AcDbLine
10
2367.743944716533
20
2928.816891838183
30
0.0
11
2367.743944716533
21
2925.350869709092
31
0.0
0
POLYLINE
5
5b2
100
AcDbEntity
8
0-0
6
CONTINUOUS
62
  7
100
AcDb2dPolyline
66
1
10
0.0
20
0.0
30
0.0
70
0
0
VERTEX
5
5b3
100
AcDbEntity
8
0-0
6
CONTINUOUS
62
  7
100
AcDbVertex
100
AcDb2dVertex
10
2022.620494703732
20
2933.392005085051
30
0.0
0
VERTEX
5
5b4
100
AcDbEntity
8
0-0
6
CONTINUOUS
62
  7
100
AcDbVertex
100
AcDb2dVertex
10
2023.703275869012
20
2933.440100133131
30
0.0
0
VERTEX
5
5b5
100
AcDbEntity
8
0-0
6
CONTINUOUS
62
  7
100
AcDbVertex
100
AcDb2dVertex
10
2025.570148680367
20
2933.522810808358
30
0.0
0
VERTEX
5
5b6
100
AcDbEntity
8
0-0
6
CONTINUOUS
62
  7
100
AcDbVertex
100
AcDb2dVertex
10
2027.437045750853
20
2933.604933090628
30
0.0
0
VERTEX
5
5b7
100
AcDbEntity
8
0-0
6
CONTINUOUS
62
  7
100
AcDbVertex
100
AcDb2dVertex
10
2029.303982434350
20
2933.686094579339
30
0.0
0
VERTEX
5
5b8
100
AcDbEntity
8
0-0
6
CONTINUOUS
62
  7
100
AcDbVertex
100
AcDb2dVertex
10
2031.170974084736
20
2933.765922873885
30
0.0
0
VERTEX
5
5b9
100
AcDbEntity
8
0-0
6
CONTINUOUS
62
  7
100
AcDbVertex
100
AcDb2dVertex
10
2033.038036055893
20
2933.844045573661
30
0.0
0
VERTEX
5
5ba
100
AcDbEntity
8
0-0
6
CONTINUOUS
62
  7
100
AcDbVertex
100
AcDb2dVertex
10
2034.120970270369
20
2933.888428490805
30
0.0
0
VERTEX
5
5bb
100
AcDbEntity
8
0-0
6
CONTINUOUS
62
  7
100
AcDbVertex
100
AcDb2dVertex
10
2035.156955449487
20
2933.930180765773
30
0.0
0
VERTEX
5
5bc
100
AcDbEntity
8
0-0
6
CONTINUOUS
62
  7
100
AcDbVertex
100
AcDb2dVertex
10
2036.943200566447
20
2934.000602225351
30
0.0
0
VERTEX
5
5bd
100
AcDbEntity
8
0-0
6
CONTINUOUS
62
  7
100
AcDbVertex
100
AcDb2dVertex
10
2038.729519450805
20
2934.069183317063
30
0.0
0
VERTEX
5
5be
100
AcDbEntity
8
0-0
6
CONTINUOUS
62
  7
100
AcDbVertex
100
AcDb2dVertex
10
2040.515904010997
20
2934.136087907245
30
0.0
0
VERTEX
5
5bf
100
AcDbEntity
8
0-0
6
CONTINUOUS
62
  7
100
AcDbVertex
100
AcDb2dVertex
10
2042.302346155459
20
2934.201479862230
30
0.0
0
VERTEX
5
5c0
100
AcDbEntity
8
0-0
6
CONTINUOUS
62
  7
100
AcDbVertex
100
AcDb2dVertex
10
2044.088837792629
20
2934.265523048352
30
0.0
0
VERTEX
5
5c1
100
AcDbEntity
8
0-0
6
CONTINUOUS
62
  7
100
AcDbVertex
100
AcDb2dVertex
10
2045.125022431251
20
2934.302114662266
30
0.0
0
VERTEX
5
5c2
100
AcDbEntity
8
0-0
6
CONTINUOUS
62
  7
100
AcDbVertex
100
AcDb2dVertex
10
2046.480498852241
20
2934.349442330790
30
0.0
0
VERTEX
5
5c3
100
AcDbEntity
8
0-0
6
CONTINUOUS
62
  7
100
AcDbVertex
100
AcDb2dVertex
10
2048.817563600520
20
2934.429948842900
30
0.0
0
VERTEX
5
5c4
100
AcDbEntity
8
0-0
6
CONTINUOUS
62
  7
100
AcDbVertex
100
AcDb2dVertex
10
2051.154654532247
20
2934.509647063011
30
0.0
0
VERTEX
5
5c5
100
AcDbEntity
8
0-0
6
CONTINUOUS
62
  7
100
AcDbVertex
100
AcDb2dVertex
10
2053.491748463284
20
2934.589205766074
30
0.0
0
VERTEX
5
5c6
100
AcDbEntity
8
0-0
6
CONTINUOUS
62
  7
100
AcDbVertex
100
AcDb2dVertex
10
2055.828822209494
20
2934.669293727037
30
0.0
0
VERTEX
5
5c7
100
AcDbEntity
8
0-0
6
CONTINUOUS
62
  7
100
AcDbVertex
100
AcDb2dVertex
10
2058.165852586736
20
2934.750579720851
30
0.0
0
VERTEX
5
5c8
100
AcDbEntity
8
0-0
6
CONTINUOUS
62
  7
100
AcDbVertex
100
AcDb2dVertex
10
2059.521301198120
20
2934.798538068021
30
0.0
0
VERTEX
5
5c9
100
AcDbEntity
8
0-0
6
CONTINUOUS
62
  7
100
AcDbVertex
100
AcDb2dVertex
10
2061.437725229124
20
2934.867554465288
30
0.0
0
VERTEX
5
5ca
100
AcDbEntity
8
0-0
6
CONTINUOUS
62
  7
100
AcDbVertex
100
AcDb2dVertex
10
2064.741813064197
20
2934.989139303647
30
0.0
0
VERTEX
5
5cb
100
AcDbEntity
8
0-0
6
CONTINUOUS
62
  7
100
AcDbVertex
100
AcDb2dVertex
10
2068.045837678572
20
2935.112537680619
30
0.0
0
VERTEX
5
5cc
100
AcDbEntity
8
0-0
6
CONTINUOUS
62
  7
100
AcDbVertex
100
AcDb2dVertex
10
2071.349860279755
20
2935.236044629381
30
0.0
0
VERTEX
5
5cd
100
AcDbEntity
8
0-0
6
CONTINUOUS
62
  7
100
AcDbVertex
100
AcDb2dVertex
10
2074.653942075246
20
2935.357955183104
30
0.0
0
VERTEX
5
5ce
100
AcDbEntity
8
0-0
6
CONTINUOUS
62
  7
100
AcDbVertex
100
AcDb2dVertex
10
2077.958144272551
20
2935.476564374966
30
0.0
0
VERTEX
5
5cf
100
AcDbEntity
8
0-0
6
CONTINUOUS
62
  7
100
AcDbVertex
100
AcDb2dVertex
10
2079.874660834037
20
2935.543173176652
30
0.0
0
VERTEX
5
5d0
100
AcDbEntity
8
0-0
6
CONTINUOUS
62
  7
100
AcDbVertex
100
AcDb2dVertex
10
2082.904368444809
20
2935.644447673516
30
0.0
0
VERTEX
5
5d1
100
AcDbEntity
8
0-0
6
CONTINUOUS
62
  7
100
AcDbVertex
100
AcDb2dVertex
10
2088.128399555733
20
2935.807359980495
30
0.0
0
VERTEX
5
5d2
100
AcDbEntity
8
0-0
6
CONTINUOUS
62
  7
100
AcDbVertex
100
AcDb2dVertex
10
2093.352886268066
20
2935.955669270434
30
0.0
0
VERTEX
5
5d3
100
AcDbEntity
8
0-0
6
CONTINUOUS
62
  7
100
AcDbVertex
100
AcDb2dVertex
10
2098.577773571313
20
2936.089614741228
30
0.0
0
VERTEX
5
5d4
100
AcDbEntity
8
0-0
6
CONTINUOUS
62
  7
100
AcDbVertex
100
AcDb2dVertex
10
2103.803006454973
20
2936.209435590772
30
0.0
0
VERTEX
5
5d5
100
AcDbEntity
8
0-0
6
CONTINUOUS
62
  7
100
AcDbVertex
100
AcDb2dVertex
10
2109.028529908549
20
2936.315371016959
30
0.0
0
VERTEX
5
5d6
100
AcDbEntity
8
0-0
6
CONTINUOUS
62
  7
100
AcDbVertex
100
AcDb2dVertex
10
2112.059444973761
20
2936.370545519575
30
0.0
0
VERTEX
5
5d7
100
AcDbEntity
8
0-0
6
CONTINUOUS
62
  7
100
AcDbVertex
100
AcDb2dVertex
10
2114.723516508803
20
2936.415311371289
30
0.0
0
VERTEX
5
5d8
100
AcDbEntity
8
0-0
6
CONTINUOUS
62
  7
100
AcDbVertex
100
AcDb2dVertex
10
2119.316855110786
20
2936.484763427818
30
0.0
0
VERTEX
5
5d9
100
AcDbEntity
8
0-0
6
CONTINUOUS
62
  7
100
AcDbVertex
100
AcDb2dVertex
10
2123.910316392419
20
2936.545206271689
30
0.0
0
VERTEX
5
5da
100
AcDbEntity
8
0-0
6
CONTINUOUS
62
  7
100
AcDbVertex
100
AcDb2dVertex
10
2128.503878421848
20
2936.597542417512
30
0.0
0
VERTEX
5
5db
100
AcDbEntity
8
0-0
6
CONTINUOUS
62
  7
100
AcDbVertex
100
AcDb2dVertex
10
2133.097519267217
20
2936.642674379897
30
0.0
0
VERTEX
5
5dc
100
AcDbEntity
8
0-0
6
CONTINUOUS
62
  7
100
AcDbVertex
100
AcDb2dVertex
10
2137.691216996667
20
2936.681504673453
30
0.0
0
VERTEX
5
5dd
100
AcDbEntity
8
0-0
6
CONTINUOUS
62
  7
100
AcDbVertex
100
AcDb2dVertex
10
2140.355579101744
20
2936.701494456745
30
0.0
0
VERTEX
5
5de
100
AcDbEntity
8
0-0
6
CONTINUOUS
62
  7
100
AcDbVertex
100
AcDb2dVertex
10
2145.232164070044
20
2936.733865839007
30
0.0
0
VERTEX
5
5df
100
AcDbEntity
8
0-0
6
CONTINUOUS
62
  7
100
AcDbVertex
100
AcDb2dVertex
10
2153.640121146761
20
2936.778283330153
30
0.0
0
VERTEX
5
5e0
100
AcDbEntity
8
0-0
6
CONTINUOUS
62
  7
100
AcDbVertex
100
AcDb2dVertex
10
2162.048133596712
20
2936.810556790917
30
0.0
0
VERTEX
5
5e1
100
AcDbEntity
8
0-0
6
CONTINUOUS
62
  7
100
AcDbVertex
100
AcDb2dVertex
10
2170.456189329675
20
2936.833337756317
30
0.0
0
VERTEX
5
5e2
100
AcDbEntity
8
0-0
6
CONTINUOUS
62
  7
100
AcDbVertex
100
AcDb2dVertex
10
2178.864276255421
20
2936.849277761371
30
0.0
0
VERTEX
5
5e3
100
AcDbEntity
8
0-0
6
CONTINUOUS
62
  7
100
AcDbVertex
100
AcDb2dVertex
10
2187.272382283724
20
2936.861028341097
30
0.0
0
VERTEX
5
5e4
100
AcDbEntity
8
0-0
6
CONTINUOUS
62
  7
100
AcDbVertex
100
AcDb2dVertex
10
2192.149087768755
20
2936.866968925329
30
0.0
0
SEQEND
5
5e5
100
AcDbEntity
8
0-0
0
POLYLINE
5
5e6
100
AcDbEntity
8
0-0
6
CONTINUOUS
62
  7
100
AcDb2dPolyline
66
1
10
0.0
20
0.0
30
0.0
70
0
0
VERTEX
5
5e7
100
AcDbEntity
8
0-0
6
CONTINUOUS
62
  7
100
AcDbVertex
100
AcDb2dVertex
10
2362.675294850404
20
2933.392005085051
30
0.0
0
VERTEX
5
5e8
100
AcDbEntity
8
0-0
6
CONTINUOUS
62
  7
100
AcDbVertex
100
AcDb2dVertex
10
2361.592513685124
20
2933.440100133131
30
0.0
0
VERTEX
5
5e9
100
AcDbEntity
8
0-0
6
CONTINUOUS
62
  7
100
AcDbVertex
100
AcDb2dVertex
10
2359.725640873768
20
2933.522810808358
30
0.0
0
VERTEX
5
5ea
100
AcDbEntity
8
0-0
6
CONTINUOUS
62
  7
100
AcDbVertex
100
AcDb2dVertex
10
2357.858743803282
20
2933.604933090628
30
0.0
0
VERTEX
5
5eb
100
AcDbEntity
8
0-0
6
CONTINUOUS
62
  7
100
AcDbVertex
100
AcDb2dVertex
10
2355.991807119786
20
2933.686094579339
30
0.0
0
VERTEX
5
5ec
100
AcDbEntity
8
0-0
6
CONTINUOUS
62
  7
100
AcDbVertex
100
AcDb2dVertex
10
2354.124815469399
20
2933.765922873885
30
0.0
0
VERTEX
5
5ed
100
AcDbEntity
8
0-0
6
CONTINUOUS
62
  7
100
AcDbVertex
100
AcDb2dVertex
10
2352.257753498243
20
2933.844045573661
30
0.0
0
VERTEX
5
5ee
100
AcDbEntity
8
0-0
6
CONTINUOUS
62
  7
100
AcDbVertex
100
AcDb2dVertex
10
2351.174819283767
20
2933.888428490805
30
0.0
0
VERTEX
5
5ef
100
AcDbEntity
8
0-0
6
CONTINUOUS
62
  7
100
AcDbVertex
100
AcDb2dVertex
10
2350.138834104648
20
2933.930180765773
30
0.0
0
VERTEX
5
5f0
100
AcDbEntity
8
0-0
6
CONTINUOUS
62
  7
100
AcDbVertex
100
AcDb2dVertex
10
2348.352588987688
20
2934.000602225351
30
0.0
0
VERTEX
5
5f1
100
AcDbEntity
8
0-0
6
CONTINUOUS
62
  7
100
AcDbVertex
100
AcDb2dVertex
10
2346.566270103331
20
2934.069183317063
30
0.0
0
VERTEX
5
5f2
100
AcDbEntity
8
0-0
6
CONTINUOUS
62
  7
100
AcDbVertex
100
AcDb2dVertex
10
2344.779885543139
20
2934.136087907245
30
0.0
0
VERTEX
5
5f3
100
AcDbEntity
8
0-0
6
CONTINUOUS
62
  7
100
AcDbVertex
100
AcDb2dVertex
10
2342.993443398676
20
2934.201479862230
30
0.0
0
VERTEX
5
5f4
100
AcDbEntity
8
0-0
6
CONTINUOUS
62
  7
100
AcDbVertex
100
AcDb2dVertex
10
2341.206951761506
20
2934.265523048352
30
0.0
0
VERTEX
5
5f5
100
AcDbEntity
8
0-0
6
CONTINUOUS
62
  7
100
AcDbVertex
100
AcDb2dVertex
10
2340.170767122884
20
2934.302114662266
30
0.0
0
VERTEX
5
5f6
100
AcDbEntity
8
0-0
6
CONTINUOUS
62
  7
100
AcDbVertex
100
AcDb2dVertex
10
2338.815290701895
20
2934.349442330790
30
0.0
0
VERTEX
5
5f7
100
AcDbEntity
8
0-0
6
CONTINUOUS
62
  7
100
AcDbVertex
100
AcDb2dVertex
10
2336.478225953616
20
2934.429948842900
30
0.0
0
VERTEX
5
5f8
100
AcDbEntity
8
0-0
6
CONTINUOUS
62
  7
100
AcDbVertex
100
AcDb2dVertex
10
2334.141135021888
20
2934.509647063011
30
0.0
0
VERTEX
5
5f9
100
AcDbEntity
8
0-0
6
CONTINUOUS
62
  7
100
AcDbVertex
100
AcDb2dVertex
10
2331.804041090851
20
2934.589205766074
30
0.0
0
VERTEX
5
5fa
100
AcDbEntity
8
0-0
6
CONTINUOUS
62
  7
100
AcDbVertex
100
AcDb2dVertex
10
2329.466967344642
20
2934.669293727037
30
0.0
0
VERTEX
5
5fb
100
AcDbEntity
8
0-0
6
CONTINUOUS
62
  7
100
AcDbVertex
100
AcDb2dVertex
10
2327.129936967399
20
2934.750579720851
30
0.0
0
VERTEX
5
5fc
100
AcDbEntity
8
0-0
6
CONTINUOUS
62
  7
100
AcDbVertex
100
AcDb2dVertex
10
2325.774488356016
20
2934.798538068021
30
0.0
0
VERTEX
5
5fd
100
AcDbEntity
8
0-0
6
CONTINUOUS
62
  7
100
AcDbVertex
100
AcDb2dVertex
10
2323.858064325012
20
2934.867554465288
30
0.0
0
VERTEX
5
5fe
100
AcDbEntity
8
0-0
6
CONTINUOUS
62
  7
100
AcDbVertex
100
AcDb2dVertex
10
2320.553976489939
20
2934.989139303647
30
0.0
0
VERTEX
5
5ff
100
AcDbEntity
8
0-0
6
CONTINUOUS
62
  7
100
AcDbVertex
100
AcDb2dVertex
10
2317.249951875564
20
2935.112537680619
30
0.0
0
VERTEX
5
600
100
AcDbEntity
8
0-0
6
CONTINUOUS
62
  7
100
AcDbVertex
100
AcDb2dVertex
10
2313.945929274381
20
2935.236044629381
30
0.0
0
VERTEX
5
601
100
AcDbEntity
8
0-0
6
CONTINUOUS
62
  7
100
AcDbVertex
100
AcDb2dVertex
10
2310.641847478889
20
2935.357955183104
30
0.0
0
VERTEX
5
602
100
AcDbEntity
8
0-0
6
CONTINUOUS
62
  7
100
AcDbVertex
100
AcDb2dVertex
10
2307.337645281585
20
2935.476564374966
30
0.0
0
VERTEX
5
603
100
AcDbEntity
8
0-0
6
CONTINUOUS
62
  7
100
AcDbVertex
100
AcDb2dVertex
10
2305.421128720098
20
2935.543173176652
30
0.0
0
VERTEX
5
604
100
AcDbEntity
8
0-0
6
CONTINUOUS
62
  7
100
AcDbVertex
100
AcDb2dVertex
10
2302.391421109326
20
2935.644447673516
30
0.0
0
VERTEX
5
605
100
AcDbEntity
8
0-0
6
CONTINUOUS
62
  7
100
AcDbVertex
100
AcDb2dVertex
10
2297.167389998403
20
2935.807359980495
30
0.0
0
VERTEX
5
606
100
AcDbEntity
8
0-0
6
CONTINUOUS
62
  7
100
AcDbVertex
100
AcDb2dVertex
10
2291.942903286069
20
2935.955669270434
30
0.0
0
VERTEX
5
607
100
AcDbEntity
8
0-0
6
CONTINUOUS
62
  7
100
AcDbVertex
100
AcDb2dVertex
10
2286.718015982823
20
2936.089614741228
30
0.0
0
VERTEX
5
608
100
AcDbEntity
8
0-0
6
CONTINUOUS
62
  7
100
AcDbVertex
100
AcDb2dVertex
10
2281.492783099163
20
2936.209435590772
30
0.0
0
VERTEX
5
609
100
AcDbEntity
8
0-0
6
CONTINUOUS
62
  7
100
AcDbVertex
100
AcDb2dVertex
10
2276.267259645587
20
2936.315371016959
30
0.0
0
VERTEX
5
60a
100
AcDbEntity
8
0-0
6
CONTINUOUS
62
  7
100
AcDbVertex
100
AcDb2dVertex
10
2273.236344580374
20
2936.370545519575
30
0.0
0
VERTEX
5
60b
100
AcDbEntity
8
0-0
6
CONTINUOUS
62
  7
100
AcDbVertex
100
AcDb2dVertex
10
2270.572273045333
20
2936.415311371289
30
0.0
0
VERTEX
5
60c
100
AcDbEntity
8
0-0
6
CONTINUOUS
62
  7
100
AcDbVertex
100
AcDb2dVertex
10
2265.978934443350
20
2936.484763427818
30
0.0
0
VERTEX
5
60d
100
AcDbEntity
8
0-0
6
CONTINUOUS
62
  7
100
AcDbVertex
100
AcDb2dVertex
10
2261.385473161717
20
2936.545206271689
30
0.0
0
VERTEX
5
60e
100
AcDbEntity
8
0-0
6
CONTINUOUS
62
  7
100
AcDbVertex
100
AcDb2dVertex
10
2256.791911132288
20
2936.597542417512
30
0.0
0
VERTEX
5
60f
100
AcDbEntity
8
0-0
6
CONTINUOUS
62
  7
100
AcDbVertex
100
AcDb2dVertex
10
2252.198270286919
20
2936.642674379897
30
0.0
0
VERTEX
5
610
100
AcDbEntity
8
0-0
6
CONTINUOUS
62
  7
100
AcDbVertex
100
AcDb2dVertex
10
2247.604572557468
20
2936.681504673453
30
0.0
0
VERTEX
5
611
100
AcDbEntity
8
0-0
6
CONTINUOUS
62
  7
100
AcDbVertex
100
AcDb2dVertex
10
2244.940210452391
20
2936.701494456745
30
0.0
0
VERTEX
5
612
100
AcDbEntity
8
0-0
6
CONTINUOUS
62
  7
100
AcDbVertex
100
AcDb2dVertex
10
2240.063625484090
20
2936.733865839007
30
0.0
0
VERTEX
5
613
100
AcDbEntity
8
0-0
6
CONTINUOUS
62
  7
100
AcDbVertex
100
AcDb2dVertex
10
2231.655668407375
20
2936.778283330153
30
0.0
0
VERTEX
5
614
100
AcDbEntity
8
0-0
6
CONTINUOUS
62
  7
100
AcDbVertex
100
AcDb2dVertex
10
2223.247655957423
20
2936.810556790917
30
0.0
0
VERTEX
5
615
100
AcDbEntity
8
0-0
6
CONTINUOUS
62
  7
100
AcDbVertex
100
AcDb2dVertex
10
2214.839600224461
20
2936.833337756317
30
0.0
0
VERTEX
5
616
100
AcDbEntity
8
0-0
6
CONTINUOUS
62
  7
100
AcDbVertex
100
AcDb2dVertex
10
2206.431513298715
20
2936.849277761371
30
0.0
0
VERTEX
5
617
100
AcDbEntity
8
0-0
6
CONTINUOUS
62
  7
100
AcDbVertex
100
AcDb2dVertex
10
2198.023407270411
20
2936.861028341097
30
0.0
0
VERTEX
5
618
100
AcDbEntity
8
0-0
6
CONTINUOUS
62
  7
100
AcDbVertex
100
AcDb2dVertex
10
2193.146701785381
20
2936.866968925329
30
0.0
0
SEQEND
5
619
100
AcDbEntity
8
0-0
0
LINE
5
61a
100
AcDbEntity
8
0-0
6
CONTINUOUS
62
7
100
AcDbLine
10
2192.160884114366
20
2936.870596989308
30
0.0
11
2193.152617485438
21
2936.870596989308
31
0.0
0
POLYLINE
5
61b
100
AcDbEntity
8
0-0
6
CONTINUOUS
62
  7
100
AcDb2dPolyline
66
1
10
0.0
20
0.0
30
0.0
70
0
0
VERTEX
5
61c
100
AcDbEntity
8
0-0
6
CONTINUOUS
62
  7
100
AcDbVertex
100
AcDb2dVertex
10
2352.798159624723
20
2933.810376237434
30
0.0
0
VERTEX
5
61d
100
AcDbEntity
8
0-0
6
CONTINUOUS
62
  7
100
AcDbVertex
100
AcDb2dVertex
10
2352.288803561811
20
2941.324391781109
30
0.0
0
VERTEX
5
61e
100
AcDbEntity
8
0-0
6
CONTINUOUS
62
  7
100
AcDbVertex
100
AcDb2dVertex
10
2351.407109792447
20
2954.279308807977
30
0.0
0
VERTEX
5
61f
100
AcDbEntity
8
0-0
6
CONTINUOUS
62
  7
100
AcDbVertex
100
AcDb2dVertex
10
2350.515711409488
20
2967.233441983834
30
0.0
0
VERTEX
5
620
100
AcDbEntity
8
0-0
6
CONTINUOUS
62
  7
100
AcDbVertex
100
AcDb2dVertex
10
2349.608466252428
20
2980.186295200443
30
0.0
0
VERTEX
5
621
100
AcDbEntity
8
0-0
6
CONTINUOUS
62
  7
100
AcDbVertex
100
AcDb2dVertex
10
2348.679232160765
20
2993.137372349570
30
0.0
0
VERTEX
5
622
100
AcDbEntity
8
0-0
6
CONTINUOUS
62
  7
100
AcDbVertex
100
AcDb2dVertex
10
2347.721866973994
20
3006.086177322981
30
0.0
0
VERTEX
5
623
100
AcDbEntity
8
0-0
6
CONTINUOUS
62
  7
100
AcDbVertex
100
AcDb2dVertex
10
2347.151285167257
20
3013.595247604203
30
0.0
0
VERTEX
5
624
100
AcDbEntity
8
0-0
6
CONTINUOUS
62
  7
100
AcDbVertex
100
AcDb2dVertex
10
2346.745232152113
20
3018.843711215725
30
0.0
0
VERTEX
5
625
100
AcDbEntity
8
0-0
6
CONTINUOUS
62
  7
100
AcDbVertex
100
AcDb2dVertex
10
2346.034343689698
20
3027.891952545605
30
0.0
0
VERTEX
5
626
100
AcDbEntity
8
0-0
6
CONTINUOUS
62
  7
100
AcDbVertex
100
AcDb2dVertex
10
2345.315546284675
20
3036.939661246766
30
0.0
0
VERTEX
5
627
100
AcDbEntity
8
0-0
6
CONTINUOUS
62
  7
100
AcDbVertex
100
AcDb2dVertex
10
2344.595535539536
20
3045.987445334687
30
0.0
0
VERTEX
5
628
100
AcDbEntity
8
0-0
6
CONTINUOUS
62
  7
100
AcDbVertex
100
AcDb2dVertex
10
2343.881007056773
20
3055.035912824847
30
0.0
0
VERTEX
5
629
100
AcDbEntity
8
0-0
6
CONTINUOUS
62
  7
100
AcDbVertex
100
AcDb2dVertex
10
2343.178656438879
20
3064.085671732722
30
0.0
0
VERTEX
5
62a
100
AcDbEntity
8
0-0
6
CONTINUOUS
62
  7
100
AcDbVertex
100
AcDb2dVertex
10
2342.779511393735
20
3069.335363216601
30
0.0
0
VERTEX
5
62b
100
AcDbEntity
8
0-0
6
CONTINUOUS
62
  7
100
AcDbVertex
100
AcDb2dVertex
10
2342.040458661674
20
3079.304503013786
30
0.0
0
VERTEX
5
62c
100
AcDbEntity
8
0-0
6
CONTINUOUS
62
  7
100
AcDbVertex
100
AcDb2dVertex
10
2340.798289629889
20
3096.495888245840
30
0.0
0
VERTEX
5
62d
100
AcDbEntity
8
0-0
6
CONTINUOUS
62
  7
100
AcDbVertex
100
AcDb2dVertex
10
2339.547189482384
20
3113.686501985450
30
0.0
0
VERTEX
5
62e
100
AcDbEntity
8
0-0
6
CONTINUOUS
62
  7
100
AcDbVertex
100
AcDb2dVertex
10
2338.229584774914
20
3130.870717728394
30
0.0
0
VERTEX
5
62f
100
AcDbEntity
8
0-0
6
CONTINUOUS
62
  7
100
AcDbVertex
100
AcDb2dVertex
10
2336.787902063238
20
3148.042908970443
30
0.0
0
VERTEX
5
630
100
AcDbEntity
8
0-0
6
CONTINUOUS
62
  7
100
AcDbVertex
100
AcDb2dVertex
10
2335.164567903113
20
3165.197449207372
30
0.0
0
VERTEX
5
631
100
AcDbEntity
8
0-0
6
CONTINUOUS
62
  7
100
AcDbVertex
100
AcDb2dVertex
10
2334.117114465711
20
3175.136777719003
30
0.0
0
VERTEX
5
632
100
AcDbEntity
8
0-0
6
CONTINUOUS
62
  7
100
AcDbVertex
100
AcDb2dVertex
10
2334.034185916700
20
3175.889309709460
30
0.0
0
VERTEX
5
633
100
AcDbEntity
8
0-0
6
CONTINUOUS
62
  7
100
AcDbVertex
100
AcDb2dVertex
10
2333.890114376043
20
3177.186672415771
30
0.0
0
VERTEX
5
634
100
AcDbEntity
8
0-0
6
CONTINUOUS
62
  7
100
AcDbVertex
100
AcDb2dVertex
10
2333.744879842194
20
3178.483921898001
30
0.0
0
VERTEX
5
635
100
AcDbEntity
8
0-0
6
CONTINUOUS
62
  7
100
AcDbVertex
100
AcDb2dVertex
10
2333.598736243796
20
3179.781082877565
30
0.0
0
VERTEX
5
636
100
AcDbEntity
8
0-0
6
CONTINUOUS
62
  7
100
AcDbVertex
100
AcDb2dVertex
10
2333.451937509496
20
3181.078180075878
30
0.0
0
VERTEX
5
637
100
AcDbEntity
8
0-0
6
CONTINUOUS
62
  7
100
AcDbVertex
100
AcDb2dVertex
10
2333.304737567938
20
3182.375238214354
30
0.0
0
VERTEX
5
638
100
AcDbEntity
8
0-0
6
CONTINUOUS
62
  7
100
AcDbVertex
100
AcDb2dVertex
10
2333.219277829759
20
3183.127523778978
30
0.0
0
SEQEND
5
639
100
AcDbEntity
8
0-0
0
ELLIPSE
  5
63a
100
AcDbEntity
8
0-0
6
CONTINUOUS
62
7
100
AcDbEllipse
10
2193.632944716534
20
3239.796749481806
30
0.0
11
24.493500000000
21
0.000000000000
31
0.0
210
0.0
220
0.0
230
1.0
40
0.197880000000
41
3.141592653610
42
6.283185307190
0
ELLIPSE
  5
63b
100
AcDbEntity
8
0-0
6
CONTINUOUS
62
7
100
AcDbEllipse
10
2193.632944716534
20
3239.796749481806
30
0.0
11
24.493500000000
21
0.000000000000
31
0.0
210
0.0
220
0.0
230
1.0
40
0.106600000000
41
0.000000000000
42
3.141592653580
0
ARC
5
63c
100
AcDbEntity
8
0-0
6
CONTINUOUS
62
7
100
AcDbCircle
10
2192.741944716534
20
3095.462249481806
30
0.0
40
160.935000000000
100
AcDbArc
50
64.192794257080
51
115.806387945634
0
LINE
5
63d
100
AcDbEntity
8
0-0
6
CONTINUOUS
62
7
100
AcDbLine
10
2051.508030421218
20
3197.681249481806
30
0.0
11
2333.212647115738
21
3197.681249481806
31
0.0
0
LINE
5
63e
100
AcDbEntity
8
0-0
6
CONTINUOUS
62
7
100
AcDbLine
10
2050.606533605312
20
3182.917969893276
30
0.0
11
2051.890583051738
21
3197.299323693256
31
0.0
0
LINE
5
63f
100
AcDbEntity
8
0-0
6
CONTINUOUS
62
7
100
AcDbLine
10
2333.226425318079
20
3182.607607230870
30
0.0
11
2331.327736089239
21
3197.797121061586
31
0.0
0
LINE
5
640
100
AcDbEntity
8
0-0
6
CONTINUOUS
62
7
100
AcDbLine
10
2072.401328512548
20
2511.335385279646
30
0.0
11
2312.430183283272
21
2511.335385279646
31
0.0
0
POLYLINE
5
641
100
AcDbEntity
8
0-0
6
CONTINUOUS
62
  7
100
AcDb2dPolyline
66
1
10
0.0
20
0.0
30
0.0
70
0
0
VERTEX
5
642
100
AcDbEntity
8
0-0
6
CONTINUOUS
62
  7
100
AcDbVertex
100
AcDb2dVertex
10
2066.501944716533
20
3143.932145726038
30
0.0
0
VERTEX
5
643
100
AcDbEntity
8
0-0
6
CONTINUOUS
62
  7
100
AcDbVertex
100
AcDb2dVertex
10
2063.419444716533
20
3145.417145726038
30
0.0
0
VERTEX
5
644
100
AcDbEntity
8
0-0
6
CONTINUOUS
62
  7
100
AcDbVertex
100
AcDb2dVertex
10
2097.106444716534
20
3145.987145726038
30
0.0
0
SEQEND
5
645
100
AcDbEntity
8
0-0
0
LINE
5
646
100
AcDbEntity
8
0-0
6
CONTINUOUS
62
7
100
AcDbLine
10
2093.129944716534
20
3148.274645726038
30
0.0
11
2065.105444716533
21
3147.578645726037
31
0.0
0
POLYLINE
5
647
100
AcDbEntity
8
0-0
6
CONTINUOUS
62
  7
100
AcDb2dPolyline
66
1
10
0.0
20
0.0
30
0.0
70
0
0
VERTEX
5
648
100
AcDbEntity
8
0-0
6
CONTINUOUS
62
  7
100
AcDbVertex
100
AcDb2dVertex
10
2084.147944716533
20
3155.542145726038
30
0.0
0
VERTEX
5
649
100
AcDbEntity
8
0-0
6
CONTINUOUS
62
  7
100
AcDbVertex
100
AcDb2dVertex
10
2070.565444716533
20
3154.573145726038
30
0.0
0
VERTEX
5
64a
100
AcDbEntity
8
0-0
6
CONTINUOUS
62
  7
100
AcDbVertex
100
AcDb2dVertex
10
2063.419444716533
20
3145.417145726038
30
0.0
0
SEQEND
5
64b
100
AcDbEntity
8
0-0
0
LINE
5
64c
100
AcDbEntity
8
0-0
6
CONTINUOUS
62
7
100
AcDbLine
10
2066.501944716533
20
3143.932145726038
30
0.0
11
2096.764444716534
21
3143.932145726038
31
0.0
0
ARC
5
64d
100
AcDbEntity
8
0-0
6
CONTINUOUS
62
7
100
AcDbCircle
10
2092.079944716534
20
3196.699145726038
30
0.0
40
50.961000000000
100
AcDbArc
50
275.661914788045
51
299.836616948768
0
ARC
5
64e
100
AcDbEntity
8
0-0
6
CONTINUOUS
62
7
100
AcDbCircle
10
2108.873944716534
20
3166.196645726038
30
0.0
40
16.156500000000
100
AcDbArc
50
301.993253789310
51
327.982256288303
0
ARC
5
64f
100
AcDbEntity
8
0-0
6
CONTINUOUS
62
7
100
AcDbCircle
10
2119.285444716534
20
3159.602645726038
30
0.0
40
3.832500000000
100
AcDbArc
50
329.026834588409
51
409.493519090843
0
ARC
5
650
100
AcDbEntity
8
0-0
6
CONTINUOUS
62
7
100
AcDbCircle
10
2100.479944716534
20
3139.025645726038
30
0.0
40
31.707000000000
100
AcDbArc
50
47.806623166014
51
80.964158979862
0
ARC
5
651
100
AcDbEntity
8
0-0
6
CONTINUOUS
62
7
100
AcDbCircle
10
2096.477944716534
20
3131.021645726038
30
0.0
40
40.330500000000
100
AcDbArc
50
77.131533900155
51
96.419525112039
0
ARC
5
652
100
AcDbEntity
8
0-0
6
CONTINUOUS
62
7
100
AcDbCircle
10
2092.652944716533
20
3169.892645726038
30
0.0
40
1.387500000000
100
AcDbArc
50
119.544834827612
51
208.413895092946
0
ARC
5
653
100
AcDbEntity
8
0-0
6
CONTINUOUS
62
7
100
AcDbCircle
10
2082.725944716533
20
3114.515645726038
30
0.0
40
55.404000000000
100
AcDbArc
50
66.108869616858
51
80.958600141477
0
ARC
5
654
100
AcDbEntity
8
0-0
6
CONTINUOUS
62
7
100
AcDbCircle
10
2101.957444716534
20
3157.063145726038
30
0.0
40
8.721000000000
100
AcDbArc
50
9.692505875857
51
68.423221948126
0
ARC
5
655
100
AcDbEntity
8
0-0
6
CONTINUOUS
62
7
100
AcDbCircle
10
2100.976444716534
20
3160.636145726038
30
0.0
40
9.805500000000
100
AcDbArc
50
307.428118912592
51
347.607250028551
0
ARC
5
656
100
AcDbEntity
8
0-0
6
CONTINUOUS
62
7
100
AcDbCircle
10
2088.089944716533
20
3186.601145726038
30
0.0
40
38.656500000000
100
AcDbArc
50
277.492401797477
51
299.178982489775
0
ARC
5
657
100
AcDbEntity
8
0-0
6
CONTINUOUS
62
7
100
AcDbCircle
10
2095.756444716533
20
3194.842145726038
30
0.0
40
50.920500000000
100
AcDbArc
50
271.133582918550
51
312.214701220933
0
ARC
5
658
100
AcDbEntity
8
0-0
6
CONTINUOUS
62
7
100
AcDbCircle
10
2126.252944716533
20
3160.274645726038
30
0.0
40
4.869000000000
100
AcDbArc
50
319.777838875056
51
398.857473747921
0
ARC
5
659
100
AcDbEntity
8
0-0
6
CONTINUOUS
62
7
100
AcDbCircle
10
2097.568444716534
20
3129.995645726038
30
0.0
40
46.537500000000
100
AcDbArc
50
45.745450014634
51
77.535099676071
0
ARC
5
65a
100
AcDbEntity
8
0-0
6
CONTINUOUS
62
7
100
AcDbCircle
10
2098.961944716534
20
3136.729145726038
30
0.0
40
39.664500000000
100
AcDbArc
50
77.401202102841
51
97.758541309263
0
ARC
5
65b
100
AcDbEntity
8
0-0
6
CONTINUOUS
62
7
100
AcDbCircle
10
2132.833444716533
20
3156.767645726038
30
0.0
40
43.701000000000
100
AcDbArc
50
153.847092761835
51
174.125074038644
0
ARC
5
65c
100
AcDbEntity
8
0-0
6
CONTINUOUS
62
7
100
AcDbCircle
10
2090.530444716534
20
3092.600645726038
30
0.0
40
89.263500000000
100
AcDbArc
50
64.274871981067
51
92.479956096630
0
ARC
5
65d
100
AcDbEntity
8
0-0
6
CONTINUOUS
62
7
100
AcDbCircle
10
2123.597944716534
20
3161.806145726037
30
0.0
40
12.567000000000
100
AcDbArc
50
299.832786827408
51
423.138671350139
0
ARC
5
65e
100
AcDbEntity
8
0-0
6
CONTINUOUS
62
7
100
AcDbCircle
10
2092.520944716533
20
3208.316645726038
30
0.0
40
68.481000000000
100
AcDbArc
50
265.029108833440
51
303.031871259216
0
ARC
5
65f
100
AcDbEntity
8
0-0
6
CONTINUOUS
62
7
100
AcDbCircle
10
2100.926944716533
20
3207.689645726037
30
0.0
40
54.249000000000
100
AcDbArc
50
255.453236592232
51
269.953296230356
0
ARC
5
660
100
AcDbEntity
8
0-0
6
CONTINUOUS
62
7
100
AcDbCircle
10
2083.720444716533
20
3161.168645726038
30
0.0
40
5.641500000000
100
AcDbArc
50
274.339073977056
51
360.726193808461
0
ARC
5
661
100
AcDbEntity
8
0-0
6
CONTINUOUS
62
7
100
AcDbCircle
10
2123.604957995805
20
3180.116462279420
30
0.0
40
73.911000000000
100
AcDbArc
50
108.310543076599
51
163.191718875296
0
ARC
5
662
100
AcDbEntity
8
0-0
6
CONTINUOUS
62
7
100
AcDbCircle
10
2261.881931437261
20
3180.116462279420
30
0.0
40
73.911000000000
100
AcDbArc
50
16.808281727196
51
71.689457525893
0
ARC
5
663
100
AcDbEntity
8
0-0
6
CONTINUOUS
62
7
100
AcDbCircle
10
2205.266457995805
20
2821.479123684226
30
0.0
40
441.958500000000
100
AcDbArc
50
92.907059785394
51
103.727914157372
0
LINE
5
664
100
AcDbEntity
8
0-0
6
CONTINUOUS
62
7
100
AcDbLine
10
2182.325624261089
20
3263.000207413031
30
0.0
11
2202.809892317062
21
3263.000207413031
31
0.0
0
ARC
5
665
100
AcDbEntity
8
0-0
6
CONTINUOUS
62
7
100
AcDbCircle
10
2180.220431437261
20
2821.479123684226
30
0.0
40
441.958500000000
100
AcDbArc
50
76.272085743181
51
87.092940115159
0
LINE
5
666
100
AcDbEntity
8
0-0
6
CONTINUOUS
62
7
100
AcDbLine
10
2053.818486757643
20
3199.010498962527
30
0.0
11
2332.921292582792
21
3199.010498962527
31
0.0
0
ARC
5
667
100
AcDbEntity
8
0-0
6
CONTINUOUS
62
7
100
AcDbCircle
10
2028.681414330120
20
2511.096995992918
30
0.0
40
12.000000000000
100
AcDbArc
50
90.000000000000
51
180.000000000000
0
ARC
5
668
100
AcDbEntity
8
0-0
6
CONTINUOUS
62
7
100
AcDbCircle
10
2060.681414330120
20
2511.096995992918
30
0.0
40
12.000000000000
100
AcDbArc
50
0.000000000000
51
90.000000000000
0
LINE
5
669
100
AcDbEntity
8
0-0
6
CONTINUOUS
62
7
100
AcDbLine
10
2072.433120532679
20
2511.379699162875
30
0.0
11
2016.827432547817
21
2511.379699162875
31
0.0
0
LINE
5
66a
100
AcDbEntity
8
0-0
6
CONTINUOUS
62
7
100
AcDbLine
10
2060.681414330120
20
2523.113895653688
30
0.0
11
2028.681414330120
21
2523.113895653688
31
0.0
0
LINE
5
66b
100
AcDbEntity
8
0-0
6
CONTINUOUS
62
7
100
AcDbLine
10
2036.681414330120
20
2523.023228534629
30
0.0
11
2036.681414330120
21
2637.933726663140
31
0.0
0
LINE
5
66c
100
AcDbEntity
8
0-0
6
CONTINUOUS
62
7
100
AcDbLine
10
2052.681414330120
20
2522.878716994482
30
0.0
11
2052.681414330120
21
2637.933726663140
31
0.0
0
LINE
5
66d
100
AcDbEntity
8
0-0
6
CONTINUOUS
62
7
100
AcDbLine
10
3231.811515437129
20
2711.777158424095
30
0.0
11
3223.171515437129
21
2711.777158424095
31
0.0
0
LINE
5
66e
100
AcDbEntity
8
0-0
6
CONTINUOUS
62
7
100
AcDbLine
10
3243.491515437128
20
2524.780059553795
30
0.0
11
3211.491515437128
21
2524.780059553795
31
0.0
0
ARC
5
66f
100
AcDbEntity
8
0-0
6
CONTINUOUS
62
7
100
AcDbCircle
10
3211.491515437128
20
2512.780059553795
30
0.0
40
12.000000000000
100
AcDbArc
50
90.000000000000
51
180.000000000000
0
ARC
5
670
100
AcDbEntity
8
0-0
6
CONTINUOUS
62
7
100
AcDbCircle
10
3243.491515437128
20
2512.780059553795
30
0.0
40
12.000000000000
100
AcDbArc
50
0.000000000000
51
90.000000000000
0
LINE
5
671
100
AcDbEntity
8
0-0
6
CONTINUOUS
62
7
100
AcDbLine
10
3235.491515437128
20
2507.776668999191
30
0.0
11
3235.491515437128
21
2513.094113416666
31
0.0
0
LINE
5
672
100
AcDbEntity
8
0-0
6
CONTINUOUS
62
7
100
AcDbLine
10
3219.491515437129
20
2507.776668999191
30
0.0
11
3219.491515437129
21
2513.342342797322
31
0.0
0
LINE
5
673
100
AcDbEntity
8
0-0
6
CONTINUOUS
62
7
100
AcDbLine
10
3255.243221639687
20
2513.062762723751
30
0.0
11
3199.637533654826
21
2513.062762723751
31
0.0
0
LINE
5
674
100
AcDbEntity
8
0-0
6
CONTINUOUS
62
7
100
AcDbLine
10
3240.031747421988
20
2676.863454724702
30
0.0
11
3215.031747421988
21
2676.863454724702
31
0.0
0
LINE
5
675
100
AcDbEntity
8
0-0
6
CONTINUOUS
62
7
100
AcDbLine
10
3215.031747421987
20
2647.570988941572
30
0.0
11
3240.031747421987
21
2647.570988941572
31
0.0
0
LINE
5
676
100
AcDbEntity
8
0-0
6
CONTINUOUS
62
7
100
AcDbLine
10
3240.031747421987
20
2639.570988941572
30
0.0
11
3215.031747421987
21
2639.570988941572
31
0.0
0
ARC
5
677
100
AcDbEntity
8
0-0
6
CONTINUOUS
62
7
100
AcDbCircle
10
3227.482487675062
20
2643.610666868658
30
0.0
40
13.134414676531
100
AcDbArc
50
342.276763383114
51
377.297564485525
0
ARC
5
678
100
AcDbEntity
8
0-0
6
CONTINUOUS
62
7
100
AcDbCircle
10
3227.482487675062
20
2643.610666868658
30
0.0
40
13.134414676531
100
AcDbArc
50
162.521885466274
51
198.017609214690
0
CIRCLE
5
679
100
AcDbEntity
8
0-0
6
CONTINUOUS
62
7
100
AcDbCircle
10
3227.498945882355
20
2643.597949163022
30
0.0
40
3.389457447208
0
ARC
5
67a
100
AcDbEntity
8
0-0
6
CONTINUOUS
62
7
100
AcDbCircle
10
3214.830351994819
20
2643.594685622288
30
0.0
40
3.389457447208
100
AcDbArc
50
269.971509582607
51
449.978070214998
0
ARC
5
67b
100
AcDbEntity
8
0-0
6
CONTINUOUS
62
7
100
AcDbCircle
10
3240.139712837597
20
2643.608449874943
30
0.0
40
3.389457447208
100
AcDbArc
50
90.339830380176
51
269.767752220994
0
ARC
5
67c
100
AcDbEntity
8
0-0
6
CONTINUOUS
62
7
100
AcDbCircle
10
3231.811515437129
20
2708.537158424093
30
0.0
40
3.240000000000
100
AcDbArc
50
0.000000000000
51
90.000000000000
0
ARC
5
67d
100
AcDbEntity
8
0-0
6
CONTINUOUS
62
7
100
AcDbCircle
10
3223.171515437129
20
2708.537158424093
30
0.0
40
3.240000000000
100
AcDbArc
50
90.000000000000
51
180.000000000000
0
ARC
5
67e
100
AcDbEntity
8
0-0
6
CONTINUOUS
62
7
100
AcDbCircle
10
3205.600562350598
20
2702.507793225183
30
0.0
40
3.000000000000
100
AcDbArc
50
180.000000000000
51
270.000000000000
0
LINE
5
67f
100
AcDbEntity
8
0-0
6
CONTINUOUS
62
7
100
AcDbLine
10
3202.600562350598
20
2705.507793225183
30
0.0
11
3202.600562350598
21
2702.507793225183
31
0.0
0
ARC
5
680
100
AcDbEntity
8
0-0
6
CONTINUOUS
62
7
100
AcDbCircle
10
3205.600562350598
20
2705.507793225183
30
0.0
40
3.000000000000
100
AcDbArc
50
90.000000000000
51
180.000000000000
0
LINE
5
681
100
AcDbEntity
8
0-0
6
CONTINUOUS
62
7
100
AcDbLine
10
3249.600562350598
20
2699.507793225183
30
0.0
11
3205.600562350598
21
2699.507793225183
31
0.0
0
ARC
5
682
100
AcDbEntity
8
0-0
6
CONTINUOUS
62
7
100
AcDbCircle
10
3249.600562350598
20
2702.507793225183
30
0.0
40
3.000000000000
100
AcDbArc
50
270.000000000000
51
360.000000000000
0
LINE
5
683
100
AcDbEntity
8
0-0
6
CONTINUOUS
62
7
100
AcDbLine
10
3252.600562350598
20
2705.507793225183
30
0.0
11
3252.600562350598
21
2702.507793225183
31
0.0
0
LINE
5
684
100
AcDbEntity
8
0-0
6
CONTINUOUS
62
7
100
AcDbLine
10
3249.600562350598
20
2708.507793225183
30
0.0
11
3205.600562350598
21
2708.507793225183
31
0.0
0
ARC
5
685
100
AcDbEntity
8
0-0
6
CONTINUOUS
62
7
100
AcDbCircle
10
3249.600562350598
20
2705.507793225183
30
0.0
40
3.000000000000
100
AcDbArc
50
0.000000000000
51
90.000000000000
0
ARC
5
686
100
AcDbEntity
8
0-0
6
CONTINUOUS
62
7
100
AcDbCircle
10
3227.482487675062
20
2680.903132651788
30
0.0
40
13.134414676531
100
AcDbArc
50
342.276763383114
51
377.297564485525
0
ARC
5
687
100
AcDbEntity
8
0-0
6
CONTINUOUS
62
7
100
AcDbCircle
10
3227.482487675062
20
2680.903132651788
30
0.0
40
13.134414676531
100
AcDbArc
50
162.521885466274
51
198.017609214690
0
CIRCLE
5
688
100
AcDbEntity
8
0-0
6
CONTINUOUS
62
7
100
AcDbCircle
10
3227.498945882355
20
2680.890414946153
30
0.0
40
3.389457447208
0
ARC
5
689
100
AcDbEntity
8
0-0
6
CONTINUOUS
62
7
100
AcDbCircle
10
3214.830351994819
20
2680.887151405419
30
0.0
40
3.389457447208
100
AcDbArc
50
269.971509582607
51
449.978070214998
0
ARC
5
68a
100
AcDbEntity
8
0-0
6
CONTINUOUS
62
7
100
AcDbCircle
10
3240.139712837597
20
2680.900915658073
30
0.0
40
3.389457447208
100
AcDbArc
50
90.339830380176
51
269.767752220994
0
LINE
5
68b
100
AcDbEntity
8
0-0
6
CONTINUOUS
62
7
100
AcDbLine
10
3215.134333871601
20
2684.589838517223
30
0.0
11
3240.002209469985
21
2684.589838517223
31
0.0
0
LINE
5
68c
100
AcDbEntity
8
0-0
6
CONTINUOUS
62
7
100
AcDbLine
10
3215.291489844746
20
2647.637775609323
30
0.0
11
3215.291489844746
21
2676.786852819804
31
0.0
0
POLYLINE
5
68d
100
AcDbEntity
8
0-0
6
CONTINUOUS
62
  7
100
AcDb2dPolyline
66
1
10
0.0
20
0.0
30
0.0
70
0
0
VERTEX
5
68e
100
AcDbEntity
8
0-0
6
CONTINUOUS
62
  7
100
AcDbVertex
100
AcDb2dVertex
10
3214.962700649637
20
2684.586085318379
30
0.0
0
VERTEX
5
68f
100
AcDbEntity
8
0-0
6
CONTINUOUS
62
  7
100
AcDbVertex
100
AcDb2dVertex
10
3215.434769743735
20
2684.861233090184
30
0.0
0
VERTEX
5
690
100
AcDbEntity
8
0-0
6
CONTINUOUS
62
  7
100
AcDbVertex
100
AcDb2dVertex
10
3216.246674848914
20
2685.338372337629
30
0.0
0
VERTEX
5
691
100
AcDbEntity
8
0-0
6
CONTINUOUS
62
  7
100
AcDbVertex
100
AcDb2dVertex
10
3217.053004604024
20
2685.823140855728
30
0.0
0
VERTEX
5
692
100
AcDbEntity
8
0-0
6
CONTINUOUS
62
  7
100
AcDbVertex
100
AcDb2dVertex
10
3217.850230306489
20
2686.320367296794
30
0.0
0
VERTEX
5
693
100
AcDbEntity
8
0-0
6
CONTINUOUS
62
  7
100
AcDbVertex
100
AcDb2dVertex
10
3218.634823253735
20
2686.834880313142
30
0.0
0
VERTEX
5
694
100
AcDbEntity
8
0-0
6
CONTINUOUS
62
  7
100
AcDbVertex
100
AcDb2dVertex
10
3219.403254743186
20
2687.371508557084
30
0.0
0
VERTEX
5
695
100
AcDbEntity
8
0-0
6
CONTINUOUS
62
  7
100
AcDbVertex
100
AcDb2dVertex
10
3219.840149334799
20
2687.694788875955
30
0.0
0
VERTEX
5
696
100
AcDbEntity
8
0-0
6
CONTINUOUS
62
  7
100
AcDbVertex
100
AcDb2dVertex
10
3220.089877400194
20
2687.886401529553
30
0.0
0
VERTEX
5
697
100
AcDbEntity
8
0-0
6
CONTINUOUS
62
  7
100
AcDbVertex
100
AcDb2dVertex
10
3220.515358962057
20
2688.223725177514
30
0.0
0
VERTEX
5
698
100
AcDbEntity
8
0-0
6
CONTINUOUS
62
  7
100
AcDbVertex
100
AcDb2dVertex
10
3220.935422376112
20
2688.568462981640
30
0.0
0
VERTEX
5
699
100
AcDbEntity
8
0-0
6
CONTINUOUS
62
  7
100
AcDbVertex
100
AcDb2dVertex
10
3221.351250644063
20
2688.918996130539
30
0.0
0
VERTEX
5
69a
100
AcDbEntity
8
0-0
6
CONTINUOUS
62
  7
100
AcDbVertex
100
AcDb2dVertex
10
3221.764026767616
20
2689.273705812824
30
0.0
0
VERTEX
5
69b
100
AcDbEntity
8
0-0
6
CONTINUOUS
62
  7
100
AcDbVertex
100
AcDb2dVertex
10
3222.174933748475
20
2689.630973217103
30
0.0
0
VERTEX
5
69c
100
AcDbEntity
8
0-0
6
CONTINUOUS
62
  7
100
AcDbVertex
100
AcDb2dVertex
10
3222.412869520379
20
2689.838722363938
30
0.0
0
SEQEND
5
69d
100
AcDbEntity
8
0-0
0
LINE
5
69e
100
AcDbEntity
8
0-0
6
CONTINUOUS
62
7
100
AcDbLine
10
3232.491515437129
20
2689.868807239920
30
0.0
11
3222.491515437129
21
2689.868807239920
31
0.0
0
POLYLINE
5
69f
100
AcDbEntity
8
0-0
6
CONTINUOUS
62
  7
100
AcDb2dPolyline
66
1
10
0.0
20
0.0
30
0.0
70
0
0
VERTEX
5
6a0
100
AcDbEntity
8
0-0
6
CONTINUOUS
62
  7
100
AcDbVertex
100
AcDb2dVertex
10
3240.100320796240
20
2684.639683655579
30
0.0
0
VERTEX
5
6a1
100
AcDbEntity
8
0-0
6
CONTINUOUS
62
  7
100
AcDbVertex
100
AcDb2dVertex
10
3239.608755253822
20
2684.898370566732
30
0.0
0
VERTEX
5
6a2
100
AcDbEntity
8
0-0
6
CONTINUOUS
62
  7
100
AcDbVertex
100
AcDb2dVertex
10
3238.763917202447
20
2685.348125271734
30
0.0
0
VERTEX
5
6a3
100
AcDbEntity
8
0-0
6
CONTINUOUS
62
  7
100
AcDbVertex
100
AcDb2dVertex
10
3237.926547889680
20
2685.808276613457
30
0.0
0
VERTEX
5
6a4
100
AcDbEntity
8
0-0
6
CONTINUOUS
62
  7
100
AcDbVertex
100
AcDb2dVertex
10
3237.101374365272
20
2686.285404741724
30
0.0
0
VERTEX
5
6a5
100
AcDbEntity
8
0-0
6
CONTINUOUS
62
  7
100
AcDbVertex
100
AcDb2dVertex
10
3236.293123678976
20
2686.786089806359
30
0.0
0
VERTEX
5
6a6
100
AcDbEntity
8
0-0
6
CONTINUOUS
62
  7
100
AcDbVertex
100
AcDb2dVertex
10
3235.506522880543
20
2687.316911957185
30
0.0
0
VERTEX
5
6a7
100
AcDbEntity
8
0-0
6
CONTINUOUS
62
  7
100
AcDbVertex
100
AcDb2dVertex
10
3235.062077099480
20
2687.641190538755
30
0.0
0
VERTEX
5
6a8
100
AcDbEntity
8
0-0
6
CONTINUOUS
62
  7
100
AcDbVertex
100
AcDb2dVertex
10
3234.804379863468
20
2687.838651100871
30
0.0
0
VERTEX
5
6a9
100
AcDbEntity
8
0-0
6
CONTINUOUS
62
  7
100
AcDbVertex
100
AcDb2dVertex
10
3234.367141762081
20
2688.188938419577
30
0.0
0
VERTEX
5
6aa
100
AcDbEntity
8
0-0
6
CONTINUOUS
62
  7
100
AcDbVertex
100
AcDb2dVertex
10
3233.937435550349
20
2688.549710282552
30
0.0
0
VERTEX
5
6ab
100
AcDbEntity
8
0-0
6
CONTINUOUS
62
  7
100
AcDbVertex
100
AcDb2dVertex
10
3233.513616710879
20
2688.918677487990
30
0.0
0
VERTEX
5
6ac
100
AcDbEntity
8
0-0
6
CONTINUOUS
62
  7
100
AcDbVertex
100
AcDb2dVertex
10
3233.094040726282
20
2689.293550834087
30
0.0
0
VERTEX
5
6ad
100
AcDbEntity
8
0-0
6
CONTINUOUS
62
  7
100
AcDbVertex
100
AcDb2dVertex
10
3232.677063079163
20
2689.672041119035
30
0.0
0
VERTEX
5
6ae
100
AcDbEntity
8
0-0
6
CONTINUOUS
62
  7
100
AcDbVertex
100
AcDb2dVertex
10
3232.435758576700
20
2689.892320701138
30
0.0
0
SEQEND
5
6af
100
AcDbEntity
8
0-0
0
LINE
5
6b0
100
AcDbEntity
8
0-0
6
CONTINUOUS
62
7
100
AcDbLine
10
3223.491515437129
20
2689.846933486510
30
0.0
11
3223.491515437129
21
2699.580026962672
31
0.0
0
LINE
5
6b1
100
AcDbEntity
8
0-0
6
CONTINUOUS
62
7
100
AcDbLine
10
3231.491515437129
20
2689.779675334140
30
0.0
11
3231.491515437129
21
2699.580026962672
31
0.0
0
LINE
5
6b2
100
AcDbEntity
8
0-0
6
CONTINUOUS
62
7
100
AcDbLine
10
3239.882785126437
20
2647.657990036775
30
0.0
11
3239.882785126437
21
2676.851434442664
31
0.0
0
LINE
5
6b3
100
AcDbEntity
8
0-0
6
CONTINUOUS
62
7
100
AcDbLine
10
3221.304633725450
20
2688.728086469219
30
0.0
11
3221.304633725450
21
2699.215615878408
31
0.0
0
LINE
5
6b4
100
AcDbEntity
8
0-0
6
CONTINUOUS
62
7
100
AcDbLine
10
3219.491515437129
20
2525.257353068811
30
0.0
11
3219.491515437129
21
2639.313803327817
31
0.0
0
LINE
5
6b5
100
AcDbEntity
8
0-0
6
CONTINUOUS
62
7
100
AcDbLine
10
3235.491515437128
20
2525.009123688155
30
0.0
11
3235.491515437128
21
2639.110308071741
31
0.0
0
ARC
5
6b6
100
AcDbEntity
8
0-0
6
CONTINUOUS
62
7
100
AcDbCircle
10
3270.277905711515
20
2813.878817891749
30
0.0
40
49.590000000000
100
AcDbArc
50
132.592382025364
51
250.784788770823
0
ARC
5
6b7
100
AcDbEntity
8
0-0
6
CONTINUOUS
62
7
100
AcDbCircle
10
2588.781527416993
20
2978.017817891750
30
0.0
40
1048.834500000000
100
AcDbArc
50
341.397366097995
51
343.926757469019
0
ARC
5
6b8
100
AcDbEntity
8
0-0
6
CONTINUOUS
62
7
100
AcDbCircle
10
3216.227027416993
20
2783.530817891749
30
0.0
40
392.449500000000
100
AcDbArc
50
330.703202335062
51
339.085502118476
0
ARC
5
6b9
100
AcDbEntity
8
0-0
6
CONTINUOUS
62
7
100
AcDbCircle
10
3543.056027416994
20
2595.471317891750
30
0.0
40
15.930000000000
100
AcDbArc
50
207.140601124105
51
345.534421976395
0
ARC
5
6ba
100
AcDbEntity
8
0-0
6
CONTINUOUS
62
7
100
AcDbCircle
10
3716.720027416994
20
2783.137817891749
30
0.0
40
270.708000000000
100
AcDbArc
50
213.552407538742
51
226.061390716967
0
ARC
5
6bb
100
AcDbEntity
8
0-0
6
CONTINUOUS
62
7
100
AcDbCircle
10
3469.788527416994
20
2533.528817891750
30
0.0
40
37.137000000000
100
AcDbArc
50
8.548330808172
51
102.448591638256
0
ARC
5
6bc
100
AcDbEntity
8
0-0
6
CONTINUOUS
62
7
100
AcDbCircle
10
3485.577527416994
20
2799.328817891749
30
0.0
40
230.766000000000
100
AcDbArc
50
241.726599922466
51
264.081685310477
0
ARC
5
6bd
100
AcDbEntity
8
0-0
6
CONTINUOUS
62
7
100
AcDbCircle
10
9691.755527416992
20
5410.242317891751
30
0.0
40
6914.101499999999
100
AcDbArc
50
203.214672181862
51
204.017497360582
0
ARC
5
6be
100
AcDbEntity
8
0-0
6
CONTINUOUS
62
7
100
AcDbCircle
10
3354.608027416994
20
2696.836817891750
30
0.0
40
20.916000000000
100
AcDbArc
50
51.186363640730
51
214.928068336268
0
ARC
5
6bf
100
AcDbEntity
8
0-0
6
CONTINUOUS
62
7
100
AcDbCircle
10
3254.516027416993
20
2503.581317891750
30
0.0
40
238.174500000000
100
AcDbArc
50
40.551529366581
51
61.621731215491
0
ARC
5
6c0
100
AcDbEntity
8
0-0
6
CONTINUOUS
62
7
100
AcDbCircle
10
3530.822027416994
20
2796.772817891750
30
0.0
40
168.015000000000
100
AcDbArc
50
235.428532083248
51
272.908303555254
0
ARC
5
6c1
100
AcDbEntity
8
0-0
6
CONTINUOUS
62
7
100
AcDbCircle
10
3722.651027416994
20
2890.231817891749
30
0.0
40
173.437500000000
100
AcDbArc
50
341.098916455461
51
356.303268525223
0
ARC
5
6c2
100
AcDbEntity
8
0-0
6
CONTINUOUS
62
7
100
AcDbCircle
10
3449.079527416993
20
2987.260817891749
30
0.0
40
463.699500000000
100
AcDbArc
50
313.679340537528
51
340.706281463412
0
ARC
5
6c3
100
AcDbEntity
8
0-0
6
CONTINUOUS
62
7
100
AcDbCircle
10
4009.491527416994
20
2488.476317891750
30
0.0
40
290.502000000000
100
AcDbArc
50
145.765913560546
51
174.949688917364
0
ARC
5
6c4
100
AcDbEntity
8
0-0
6
CONTINUOUS
62
7
100
AcDbCircle
10
3602.831027416994
20
2924.394317891749
30
0.0
40
236.844000000000
100
AcDbArc
50
206.069460392779
51
274.073718977505
0
ARC
5
6c5
100
AcDbEntity
8
0-0
6
CONTINUOUS
62
7
100
AcDbCircle
10
3557.597027416993
20
2763.592817891749
30
0.0
40
126.372000000000
100
AcDbArc
50
221.102884325630
51
261.696749948942
0
ARC
5
6c6
100
AcDbEntity
8
0-0
6
CONTINUOUS
62
7
100
AcDbCircle
10
3468.869027416994
20
2691.015317891749
30
0.0
40
12.346500000000
100
AcDbArc
50
75.559333401138
51
238.252763856065
0
ARC
5
6c7
100
AcDbEntity
8
0-0
6
CONTINUOUS
62
7
100
AcDbCircle
10
3434.339027416994
20
2579.425817891750
30
0.0
40
129.144000000000
100
AcDbArc
50
35.878605112092
51
73.069168224701
0
ARC
5
6c8
100
AcDbEntity
8
0-0
6
CONTINUOUS
62
7
100
AcDbCircle
10
3517.757027416993
20
2633.146817891749
30
0.0
40
30.543000000000
100
AcDbArc
50
326.925406687718
51
405.988195224086
0
ARC
5
6c9
100
AcDbEntity
8
0-0
6
CONTINUOUS
62
7
100
AcDbCircle
10
3540.995027416993
20
2639.451317891750
30
0.0
40
23.092500000000
100
AcDbArc
50
206.673599813373
51
275.854939804651
0
ARC
5
6ca
100
AcDbEntity
8
0-0
6
CONTINUOUS
62
7
100
AcDbCircle
10
3177.891527416994
20
3186.520817891749
30
0.0
40
2.172000000000
100
AcDbArc
50
175.456000000000
51
254.238000000000
0
LINE
5
6cb
100
AcDbEntity
8
0-0
6
CONTINUOUS
62
7
100
AcDbLine
10
3872.567027416993
20
2915.008830970476
30
0.0
11
3457.989527416994
21
2917.797330970476
31
0.0
0
LINE
5
6cc
100
AcDbEntity
8
0-0
6
CONTINUOUS
62
7
100
AcDbLine
10
3881.862527416994
20
2903.100330970476
30
0.0
11
3445.295027416993
21
2904.042330970476
31
0.0
0
LINE
5
6cd
100
AcDbEntity
8
0-0
6
CONTINUOUS
62
7
100
AcDbLine
10
3883.007027416994
20
2916.579330970476
30
0.0
11
3457.692527416994
21
2919.690330970476
31
0.0
0
LINE
5
6ce
100
AcDbEntity
8
0-0
6
CONTINUOUS
62
7
100
AcDbLine
10
3415.521527416994
20
2908.003830970476
30
0.0
11
3415.521527416994
21
2903.004330970476
31
0.0
0
LINE
5
6cf
100
AcDbEntity
8
0-0
6
CONTINUOUS
62
7
100
AcDbLine
10
3435.932027416994
20
2903.004330970476
30
0.0
11
3415.521527416994
21
2903.004330970476
31
0.0
0
LINE
5
6d0
100
AcDbEntity
8
0-0
6
CONTINUOUS
62
7
100
AcDbLine
10
3430.521527416994
20
2908.003830970476
30
0.0
11
3415.521527416994
21
2908.003830970476
31
0.0
0
LINE
5
6d1
100
AcDbEntity
8
0-0
6
CONTINUOUS
62
7
100
AcDbLine
10
3430.521527416994
20
2908.003830970476
30
0.0
11
3437.721527416994
21
2915.205330970476
31
0.0
0
LINE
5
6d2
100
AcDbEntity
8
0-0
6
CONTINUOUS
62
7
100
AcDbLine
10
3435.932027416994
20
2903.004330970476
30
0.0
11
3442.494527416994
21
2909.566830970476
31
0.0
0
ARC
5
6d3
100
AcDbEntity
8
0-0
6
CONTINUOUS
62
7
100
AcDbCircle
10
3582.200027416994
20
-2097.824669029524
30
0.0
40
5034.549000000000
100
AcDbArc
50
86.978480672446
51
91.463021847322
0
ARC
5
6d4
100
AcDbEntity
8
0-0
6
CONTINUOUS
62
7
100
AcDbCircle
10
3823.125527416994
20
2697.820830970476
30
0.0
40
233.188500000000
100
AcDbArc
50
75.083861146234
51
83.981090244035
0
ARC
5
6d5
100
AcDbEntity
8
0-0
6
CONTINUOUS
62
7
100
AcDbCircle
10
3445.295027416993
20
2916.775830970476
30
0.0
40
12.735000000000
100
AcDbArc
50
239.171000000000
51
565.531000000000
0
ARC
5
6d6
100
AcDbEntity
8
0-0
6
CONTINUOUS
62
7
100
AcDbCircle
10
3445.295027416993
20
2916.775830970476
30
0.0
40
7.734000000000
100
AcDbArc
50
248.771000000000
51
551.719000000000
0
ARC
5
6d7
100
AcDbEntity
8
0-0
6
CONTINUOUS
62
7
100
AcDbCircle
10
3452.079527416994
20
2919.028830970476
30
0.0
40
16.131000000000
100
AcDbArc
50
84.377000000000
51
114.018000000000
0
ARC
5
6d8
100
AcDbEntity
8
0-0
6
CONTINUOUS
62
7
100
AcDbCircle
10
3461.477027416993
20
2906.799330970476
30
0.0
40
31.335000000000
100
AcDbArc
50
120.628000000000
51
140.812000000000
0
ARC
5
6d9
100
AcDbEntity
8
0-0
6
CONTINUOUS
62
7
100
AcDbCircle
10
3882.407027416994
20
2919.880830970476
30
0.0
40
3.354000000000
100
AcDbArc
50
280.291000000000
51
437.216000000000
0
ARC
5
6da
100
AcDbEntity
8
0-0
6
CONTINUOUS
62
7
100
AcDbCircle
10
3872.558027416994
20
2899.297830970476
30
0.0
40
15.711000000000
100
AcDbArc
50
33.045000000000
51
89.965000000000
0
ARC
5
6db
100
AcDbEntity
8
0-0
6
CONTINUOUS
62
7
100
AcDbCircle
10
3880.757027416993
20
2907.945330970476
30
0.0
40
4.969500000000
100
AcDbArc
50
282.845000000000
51
359.069000000000
0
ARC
5
6dc
100
AcDbEntity
8
0-0
6
CONTINUOUS
62
7
100
AcDbCircle
10
3890.726027416994
20
2896.003830970476
30
0.0
40
4.999500000000
100
AcDbArc
50
0.000000000000
51
90.000000000000
0
LINE
5
6dd
100
AcDbEntity
8
0-0
6
CONTINUOUS
62
7
100
AcDbLine
10
3886.736027416993
20
2851.003830970476
30
0.0
11
3175.727027416994
21
2851.003830970476
31
0.0
0
LINE
5
6de
100
AcDbEntity
8
0-0
6
CONTINUOUS
62
7
100
AcDbLine
10
3890.726027416994
20
2901.004830970476
30
0.0
11
3175.727027416994
21
2901.004830970476
31
0.0
0
POLYLINE
5
6df
100
AcDbEntity
8
0-0
6
CONTINUOUS
62
  7
100
AcDb2dPolyline
66
1
10
0.0
20
0.0
30
0.0
70
0
0
VERTEX
5
6e0
100
AcDbEntity
8
0-0
6
CONTINUOUS
62
  7
100
AcDbVertex
100
AcDb2dVertex
10
3385.727027416993
20
2903.004330970476
30
0.0
0
VERTEX
5
6e1
100
AcDbEntity
8
0-0
6
CONTINUOUS
62
  7
100
AcDbVertex
100
AcDb2dVertex
10
3175.727027416994
20
2903.004330970476
30
0.0
0
VERTEX
5
6e2
100
AcDbEntity
8
0-0
6
CONTINUOUS
62
  7
100
AcDbVertex
100
AcDb2dVertex
10
3175.727027416994
20
3201.004830970476
30
0.0
0
VERTEX
5
6e3
100
AcDbEntity
8
0-0
6
CONTINUOUS
62
  7
100
AcDbVertex
100
AcDb2dVertex
10
3342.002027416994
20
3201.235830970476
30
0.0
0
SEQEND
5
6e4
100
AcDbEntity
8
0-0
0
ARC
5
6e5
100
AcDbEntity
8
0-0
6
CONTINUOUS
62
7
100
AcDbCircle
10
2420.774027416994
20
2913.850830970476
30
0.0
40
965.014500000000
100
AcDbArc
50
359.355989676343
51
377.325762423262
0
LINE
5
6e6
100
AcDbEntity
8
0-0
6
CONTINUOUS
62
7
100
AcDbLine
10
3895.486821074544
20
2878.435349203255
30
0.0
11
3896.085341090125
21
2896.390949670677
31
0.0
0
LINE
5
6e7
100
AcDbEntity
8
0-0
6
CONTINUOUS
62
7
100
AcDbLine
10
3175.728632507280
20
2900.758479110703
30
0.0
11
3175.148572375143
21
2851.453367879085
31
0.0
0
POLYLINE
5
6e8
100
AcDbEntity
8
0-0
6
CONTINUOUS
62
  7
100
AcDb2dPolyline
66
1
10
0.0
20
0.0
30
0.0
70
0
0
VERTEX
5
6e9
100
AcDbEntity
8
0-0
6
CONTINUOUS
62
  7
100
AcDbVertex
100
AcDb2dVertex
10
3284.974905711515
20
2514.049817891750
30
0.0
0
VERTEX
5
6ea
100
AcDbEntity
8
0-0
6
CONTINUOUS
62
  7
100
AcDbVertex
100
AcDb2dVertex
10
3295.831905711515
20
2539.050317891750
30
0.0
0
VERTEX
5
6eb
100
AcDbEntity
8
0-0
6
CONTINUOUS
62
  7
100
AcDbVertex
100
AcDb2dVertex
10
3584.974905711515
20
2539.050317891750
30
0.0
0
SEQEND
5
6ec
100
AcDbEntity
8
0-0
0
ARC
5
6ed
100
AcDbEntity
8
0-0
6
CONTINUOUS
62
7
100
AcDbCircle
10
3541.536405711515
20
2574.714317891750
30
0.0
40
56.205000000000
100
AcDbArc
50
320.612796789376
51
346.593880555610
0
ARC
5
6ee
100
AcDbEntity
8
0-0
6
CONTINUOUS
62
7
100
AcDbCircle
10
3958.507905711515
20
2477.718317891750
30
0.0
40
371.901000000000
100
AcDbArc
50
149.855866378909
51
166.951628870394
0
ARC
5
6ef
100
AcDbEntity
8
0-0
6
CONTINUOUS
62
7
100
AcDbCircle
10
3582.147405711514
20
2701.660817891750
30
0.0
40
66.184500000000
100
AcDbArc
50
325.819866486254
51
395.304025282770
0
ARC
5
6f0
100
AcDbEntity
8
0-0
6
CONTINUOUS
62
7
100
AcDbCircle
10
2724.235905711515
20
2193.961817891750
30
0.0
40
720.009000000000
100
AcDbArc
50
35.931683560287
51
43.703511200525
0
ARC
5
6f1
100
AcDbEntity
8
0-0
6
CONTINUOUS
62
7
100
AcDbCircle
10
3551.449905711515
20
2540.946317891750
30
0.0
40
255.624000000000
100
AcDbArc
50
162.813591086045
51
180.425026841214
0
LINE
5
6f2
100
AcDbEntity
8
0-0
6
CONTINUOUS
62
7
100
AcDbLine
10
3285.336679246455
20
2512.939644566263
30
0.0
11
3719.672176418676
21
2512.939644566263
31
0.0
0
ARC
5
6f3
100
AcDbEntity
8
0-0
6
CONTINUOUS
62
7
100
AcDbCircle
10
3192.303527416993
20
2886.829282005068
30
0.0
40
382.200000000000
100
AcDbArc
50
77.066311191930
51
92.485819667895
0
ARC
5
6f4
100
AcDbEntity
8
0-0
6
CONTINUOUS
62
7
100
AcDbCircle
10
3267.075527416994
20
3284.855782005068
30
0.0
40
25.740000000000
100
AcDbArc
50
232.358568634988
51
286.035421865177
0
ARC
5
6f5
100
AcDbEntity
8
0-0
6
CONTINUOUS
62
7
100
AcDbCircle
10
3274.518527416994
20
3335.666782005069
30
0.0
40
82.159500000000
100
AcDbArc
50
236.371688302857
51
273.174667868028
0
ARC
5
6f6
100
AcDbEntity
8
0-0
6
CONTINUOUS
62
7
100
AcDbCircle
10
3228.780527416994
20
3130.883782005069
30
0.0
40
137.500500000000
100
AcDbArc
50
36.026379750144
51
69.092571585039
0
LINE
5
6f7
100
AcDbEntity
8
0-0
6
CONTINUOUS
62
7
100
AcDbLine
10
3175.727027416994
20
3211.310782005069
30
0.0
11
3175.727027416994
21
3268.669282005069
31
0.0
0
LINE
5
6f8
100
AcDbEntity
8
0-0
6
CONTINUOUS
62
7
100
AcDbLine
10
3339.890027416994
20
3203.011623614177
30
0.0
11
3177.302027416994
21
3203.011623614177
31
0.0
0
LINE
5
6f9
100
AcDbEntity
8
0-0
6
CONTINUOUS
62
7
100
AcDbLine
10
3231.863920692852
20
2849.611201076315
30
0.0
11
3232.050718125334
21
2850.679221175677
31
0.0
0
LINE
5
6fa
100
AcDbEntity
8
0-0
6
CONTINUOUS
62
7
100
AcDbLine
10
3231.407266969089
20
2847.335584814359
30
0.0
11
3231.863920692852
21
2849.611201076315
31
0.0
0
LINE
5
6fb
100
AcDbEntity
8
0-0
6
CONTINUOUS
62
7
100
AcDbLine
10
3230.837491861666
20
2844.861627576300
30
0.0
11
3231.407266969089
21
2847.335584814359
31
0.0
0
LINE
5
6fc
100
AcDbEntity
8
0-0
6
CONTINUOUS
62
7
100
AcDbLine
10
3221.304633725450
20
2710.663989442732
30
0.0
11
3221.304633725450
21
2805.295377473626
31
0.0
0
LINE
5
6fd
100
AcDbEntity
8
0-0
6
CONTINUOUS
62
7
100
AcDbLine
10
3221.304633725450
20
2823.608432552906
30
0.0
11
3221.304633725450
21
2851.357376933826
31
0.0
0
LINE
5
6fe
100
AcDbEntity
8
0-0
6
CONTINUOUS
62
7
100
AcDbLine
10
3237.571524151571
20
2685.935606827176
30
0.0
11
3237.571524151571
21
2698.754077753978
31
0.0
0
LINE
5
6ff
100
AcDbEntity
8
0-0
6
CONTINUOUS
62
7
100
AcDbLine
10
3237.571524151571
20
2743.191443633557
30
0.0
11
3237.571524151571
21
2777.374032771695
31
0.0
0
LINE
5
700
100
AcDbEntity
8
0-0
6
CONTINUOUS
62
7
100
AcDbLine
10
2050.914268715529
20
1123.404312491252
30
0.0
11
2050.914268715529
21
1114.464991653618
31
0.0
0
LINE
5
701
100
AcDbEntity
8
0-0
6
CONTINUOUS
62
7
100
AcDbLine
10
2031.365644026637
20
1123.404312491252
30
0.0
11
2031.365644026637
21
1116.429677551999
31
0.0
0
LINE
5
702
100
AcDbEntity
8
0-0
6
CONTINUOUS
62
7
100
AcDbLine
10
2045.229309733856
20
1123.454832985782
30
0.0
11
2051.003381254491
21
1123.454832985782
31
0.0
0
LINE
5
703
100
AcDbEntity
8
0-0
6
CONTINUOUS
62
7
100
AcDbLine
10
2031.016210606140
20
1123.454832985782
30
0.0
11
2036.346122779033
21
1123.454832985782
31
0.0
0
ELLIPSE
  5
704
100
AcDbEntity
8
0-0
6
CONTINUOUS
62
7
100
AcDbEllipse
10
2040.825229714869
20
1100.525856927814
30
0.0
11
0.000000000000
21
24.534999686935
31
0.0
210
0.0
220
0.0
230
1.0
40
0.500000000000
41
0.000000000000
42
6.283185307180
0
LINE
5
705
100
AcDbEntity
8
0-0
6
CONTINUOUS
62
7
100
AcDbLine
10
2031.108488094467
20
1135.488126181271
30
0.0
11
2051.108488094467
21
1135.488126181271
31
0.0
0
CIRCLE
5
706
100
AcDbEntity
8
0-0
6
CONTINUOUS
62
7
100
AcDbCircle
10
2041.108488094467
20
1100.488126181271
30
0.0
40
5.560000000000
0
ARC
5
707
100
AcDbEntity
8
0-0
6
CONTINUOUS
62
7
100
AcDbCircle
10
2038.766271021219
20
1129.488126181271
30
0.0
40
6.440961171922
100
AcDbArc
50
322.174319547135
51
428.675842246797
0
ARC
5
708
100
AcDbEntity
8
0-0
6
CONTINUOUS
62
7
100
AcDbCircle
10
2043.450705167715
20
1129.488126181271
30
0.0
40
6.440961171922
100
AcDbArc
50
111.324157753203
51
217.825680452866
0
ARC
5
709
100
AcDbEntity
8
0-0
6
CONTINUOUS
62
7
100
AcDbCircle
10
2023.581302377011
20
1129.488126181271
30
0.0
40
9.625929816131
100
AcDbArc
50
321.441277284353
51
398.558722715647
0
ARC
5
70a
100
AcDbEntity
8
0-0
6
CONTINUOUS
62
7
100
AcDbCircle
10
2043.581302377011
20
1129.488126181271
30
0.0
40
9.625929816131
100
AcDbArc
50
321.441277284353
51
398.558722715647
0
ARC
5
70b
100
AcDbEntity
8
0-0
6
CONTINUOUS
62
7
100
AcDbCircle
10
2058.635673811923
20
1129.488126181271
30
0.0
40
9.625929816131
100
AcDbArc
50
141.441277284353
51
218.558722715647
0
ARC
5
70c
100
AcDbEntity
8
0-0
6
CONTINUOUS
62
7
100
AcDbCircle
10
2038.635673811923
20
1129.488126181271
30
0.0
40
9.625929816131
100
AcDbArc
50
141.441277284353
51
218.558722715647
0
LINE
5
70d
100
AcDbEntity
8
0-0
6
CONTINUOUS
62
7
100
AcDbLine
10
2055.089034640298
20
1208.883126952976
30
0.0
11
2055.544898430812
21
1210.010161580279
31
0.0
0
LINE
5
70e
100
AcDbEntity
8
0-0
6
CONTINUOUS
62
7
100
AcDbLine
10
2054.649041560761
20
1207.751180685071
30
0.0
11
2055.089034640298
21
1208.883126952976
31
0.0
0
LINE
5
70f
100
AcDbEntity
8
0-0
6
CONTINUOUS
62
7
100
AcDbLine
10
2054.225041902996
20
1206.614652250055
30
0.0
11
2054.649041560761
21
1207.751180685071
31
0.0
0
LINE
5
710
100
AcDbEntity
8
0-0
6
CONTINUOUS
62
7
100
AcDbLine
10
2053.817158377797
20
1205.473871121420
30
0.0
11
2054.225041902996
21
1206.614652250055
31
0.0
0
LINE
5
711
100
AcDbEntity
8
0-0
6
CONTINUOUS
62
7
100
AcDbLine
10
2053.425513695956
20
1204.329166772655
30
0.0
11
2053.817158377797
21
1205.473871121420
31
0.0
0
LINE
5
712
100
AcDbEntity
8
0-0
6
CONTINUOUS
62
7
100
AcDbLine
10
2053.050230568270
20
1203.180868677254
30
0.0
11
2053.425513695956
21
1204.329166772655
31
0.0
0
LINE
5
713
100
AcDbEntity
8
0-0
6
CONTINUOUS
62
7
100
AcDbLine
10
2052.840111572759
20
1202.513338956900
30
0.0
11
2053.050230568270
21
1203.180868677254
31
0.0
0
LINE
5
714
100
AcDbEntity
8
0-0
6
CONTINUOUS
62
7
100
AcDbLine
10
2052.459537418399
20
1201.253688917009
30
0.0
11
2052.840111572759
21
1202.513338956900
31
0.0
0
LINE
5
715
100
AcDbEntity
8
0-0
6
CONTINUOUS
62
7
100
AcDbLine
10
2051.848594614704
20
1199.073484421695
30
0.0
11
2052.459537418399
21
1201.253688917009
31
0.0
0
LINE
5
716
100
AcDbEntity
8
0-0
6
CONTINUOUS
62
7
100
AcDbLine
10
2051.293160840735
20
1196.882975809629
30
0.0
11
2051.848594614704
21
1199.073484421695
31
0.0
0
LINE
5
717
100
AcDbEntity
8
0-0
6
CONTINUOUS
62
7
100
AcDbLine
10
2050.791223441317
20
1194.682536689104
30
0.0
11
2051.293160840735
21
1196.882975809629
31
0.0
0
LINE
5
718
100
AcDbEntity
8
0-0
6
CONTINUOUS
62
7
100
AcDbLine
10
2050.340769761273
20
1192.472540668414
30
0.0
11
2050.791223441317
21
1194.682536689104
31
0.0
0
LINE
5
719
100
AcDbEntity
8
0-0
6
CONTINUOUS
62
7
100
AcDbLine
10
2049.939787145431
20
1190.253361355853
30
0.0
11
2050.340769761273
21
1192.472540668414
31
0.0
0
LINE
5
71a
100
AcDbEntity
8
0-0
6
CONTINUOUS
62
7
100
AcDbLine
10
2049.586262938614
20
1188.025372359717
30
0.0
11
2049.939787145431
21
1190.253361355853
31
0.0
0
LINE
5
71b
100
AcDbEntity
8
0-0
6
CONTINUOUS
62
7
100
AcDbLine
10
2049.278184485647
20
1185.788947288298
30
0.0
11
2049.586262938614
21
1188.025372359717
31
0.0
0
LINE
5
71c
100
AcDbEntity
8
0-0
6
CONTINUOUS
62
7
100
AcDbLine
10
2049.013539131356
20
1183.544459749892
30
0.0
11
2049.278184485647
21
1185.788947288298
31
0.0
0
LINE
5
71d
100
AcDbEntity
8
0-0
6
CONTINUOUS
62
7
100
AcDbLine
10
2048.790314220566
20
1181.292283352791
30
0.0
11
2049.013539131356
21
1183.544459749892
31
0.0
0
LINE
5
71e
100
AcDbEntity
8
0-0
6
CONTINUOUS
62
7
100
AcDbLine
10
2048.606497098102
20
1179.032791705291
30
0.0
11
2048.790314220566
21
1181.292283352791
31
0.0
0
LINE
5
71f
100
AcDbEntity
8
0-0
6
CONTINUOUS
62
7
100
AcDbLine
10
2048.460075108788
20
1176.766358415686
30
0.0
11
2048.606497098102
21
1179.032791705291
31
0.0
0
LINE
5
720
100
AcDbEntity
8
0-0
6
CONTINUOUS
62
7
100
AcDbLine
10
2048.349035597450
20
1174.493357092269
30
0.0
11
2048.460075108788
21
1176.766358415686
31
0.0
0
LINE
5
721
100
AcDbEntity
8
0-0
6
CONTINUOUS
62
7
100
AcDbLine
10
2048.271365908913
20
1172.214161343336
30
0.0
11
2048.349035597450
21
1174.493357092269
31
0.0
0
LINE
5
722
100
AcDbEntity
8
0-0
6
CONTINUOUS
62
7
100
AcDbLine
10
2048.225053388002
20
1169.929144777179
30
0.0
11
2048.271365908913
21
1172.214161343336
31
0.0
0
LINE
5
723
100
AcDbEntity
8
0-0
6
CONTINUOUS
62
7
100
AcDbLine
10
2048.208085379541
20
1167.638681002093
30
0.0
11
2048.225053388002
21
1169.929144777179
31
0.0
0
LINE
5
724
100
AcDbEntity
8
0-0
6
CONTINUOUS
62
7
100
AcDbLine
10
2048.218449228357
20
1165.343143626373
30
0.0
11
2048.208085379541
21
1167.638681002093
31
0.0
0
LINE
5
725
100
AcDbEntity
8
0-0
6
CONTINUOUS
62
7
100
AcDbLine
10
2048.254132279274
20
1163.042906258312
30
0.0
11
2048.218449228357
21
1165.343143626373
31
0.0
0
LINE
5
726
100
AcDbEntity
8
0-0
6
CONTINUOUS
62
7
100
AcDbLine
10
2048.313121877116
20
1160.738342506205
30
0.0
11
2048.254132279274
21
1163.042906258312
31
0.0
0
LINE
5
727
100
AcDbEntity
8
0-0
6
CONTINUOUS
62
7
100
AcDbLine
10
2048.393405366710
20
1158.429825978345
30
0.0
11
2048.313121877116
21
1160.738342506205
31
0.0
0
LINE
5
728
100
AcDbEntity
8
0-0
6
CONTINUOUS
62
7
100
AcDbLine
10
2048.492970092880
20
1156.117730283028
30
0.0
11
2048.393405366710
21
1158.429825978345
31
0.0
0
LINE
5
729
100
AcDbEntity
8
0-0
6
CONTINUOUS
62
7
100
AcDbLine
10
2048.609803400451
20
1153.802429028547
30
0.0
11
2048.492970092880
21
1156.117730283028
31
0.0
0
LINE
5
72a
100
AcDbEntity
8
0-0
6
CONTINUOUS
62
7
100
AcDbLine
10
2048.741892634248
20
1151.484295823196
30
0.0
11
2048.609803400451
21
1153.802429028547
31
0.0
0
LINE
5
72b
100
AcDbEntity
8
0-0
6
CONTINUOUS
62
7
100
AcDbLine
10
2048.887225139097
20
1149.163704275270
30
0.0
11
2048.741892634248
21
1151.484295823196
31
0.0
0
LINE
5
72c
100
AcDbEntity
8
0-0
6
CONTINUOUS
62
7
100
AcDbLine
10
2049.043788259822
20
1146.841027993062
30
0.0
11
2048.887225139097
21
1149.163704275270
31
0.0
0
LINE
5
72d
100
AcDbEntity
8
0-0
6
CONTINUOUS
62
7
100
AcDbLine
10
2049.209569341248
20
1144.516640584866
30
0.0
11
2049.043788259822
21
1146.841027993062
31
0.0
0
LINE
5
72e
100
AcDbEntity
8
0-0
6
CONTINUOUS
62
7
100
AcDbLine
10
2049.382555728200
20
1142.190915658978
30
0.0
11
2049.209569341248
21
1144.516640584866
31
0.0
0
LINE
5
72f
100
AcDbEntity
8
0-0
6
CONTINUOUS
62
7
100
AcDbLine
10
2049.560734765504
20
1139.864226823691
30
0.0
11
2049.382555728200
21
1142.190915658978
31
0.0
0
LINE
5
730
100
AcDbEntity
8
0-0
6
CONTINUOUS
62
7
100
AcDbLine
10
2049.742093797984
20
1137.536947687299
30
0.0
11
2049.560734765504
21
1139.864226823691
31
0.0
0
LINE
5
731
100
AcDbEntity
8
0-0
6
CONTINUOUS
62
7
100
AcDbLine
10
2049.847946019816
20
1136.187002533321
30
0.0
11
2049.742093797984
21
1137.536947687299
31
0.0
0
LINE
5
732
100
AcDbEntity
8
0-0
6
CONTINUOUS
62
7
100
AcDbLine
10
2048.138406885129
20
1227.495407544311
30
0.0
11
2048.858959927486
21
1228.477692673774
31
0.0
0
LINE
5
733
100
AcDbEntity
8
0-0
6
CONTINUOUS
62
7
100
AcDbLine
10
2047.431515759461
20
1226.502280251405
30
0.0
11
2048.138406885129
21
1227.495407544311
31
0.0
0
LINE
5
734
100
AcDbEntity
8
0-0
6
CONTINUOUS
62
7
100
AcDbLine
10
2046.738409261273
20
1225.498640268545
30
0.0
11
2047.431515759461
21
1226.502280251405
31
0.0
0
LINE
5
735
100
AcDbEntity
8
0-0
6
CONTINUOUS
62
7
100
AcDbLine
10
2046.059210101360
20
1224.484817069223
30
0.0
11
2046.738409261273
21
1225.498640268545
31
0.0
0
LINE
5
736
100
AcDbEntity
8
0-0
6
CONTINUOUS
62
7
100
AcDbLine
10
2045.394040990517
20
1223.461140126930
30
0.0
11
2046.059210101360
21
1224.484817069223
31
0.0
0
LINE
5
737
100
AcDbEntity
8
0-0
6
CONTINUOUS
62
7
100
AcDbLine
10
2044.743024639537
20
1222.427938915158
30
0.0
11
2045.394040990517
21
1223.461140126930
31
0.0
0
LINE
5
738
100
AcDbEntity
8
0-0
6
CONTINUOUS
62
7
100
AcDbLine
10
2044.106283759213
20
1221.385542907398
30
0.0
11
2044.743024639537
21
1222.427938915158
31
0.0
0
LINE
5
739
100
AcDbEntity
8
0-0
6
CONTINUOUS
62
7
100
AcDbLine
10
2043.483941060341
20
1220.334281577141
30
0.0
11
2044.106283759213
21
1221.385542907398
31
0.0
0
LINE
5
73a
100
AcDbEntity
8
0-0
6
CONTINUOUS
62
7
100
AcDbLine
10
2042.876119253713
20
1219.274484397879
30
0.0
11
2043.483941060341
21
1220.334281577141
31
0.0
0
LINE
5
73b
100
AcDbEntity
8
0-0
6
CONTINUOUS
62
7
100
AcDbLine
10
2042.282941050124
20
1218.206480843101
30
0.0
11
2042.876119253713
21
1219.274484397879
31
0.0
0
LINE
5
73c
100
AcDbEntity
8
0-0
6
CONTINUOUS
62
7
100
AcDbLine
10
2041.704529160368
20
1217.130600386301
30
0.0
11
2042.282941050124
21
1218.206480843101
31
0.0
0
LINE
5
73d
100
AcDbEntity
8
0-0
6
CONTINUOUS
62
7
100
AcDbLine
10
2041.141006295238
20
1216.047172500968
30
0.0
11
2041.704529160368
21
1217.130600386301
31
0.0
0
LINE
5
73e
100
AcDbEntity
8
0-0
6
CONTINUOUS
62
7
100
AcDbLine
10
2040.592495165529
20
1214.956526660595
30
0.0
11
2041.141006295238
21
1216.047172500968
31
0.0
0
LINE
5
73f
100
AcDbEntity
8
0-0
6
CONTINUOUS
62
7
100
AcDbLine
10
2040.059118482034
20
1213.858992338672
30
0.0
11
2040.592495165529
21
1214.956526660595
31
0.0
0
LINE
5
740
100
AcDbEntity
8
0-0
6
CONTINUOUS
62
7
100
AcDbLine
10
2039.540998955547
20
1212.754899008690
30
0.0
11
2040.059118482034
21
1213.858992338672
31
0.0
0
LINE
5
741
100
AcDbEntity
8
0-0
6
CONTINUOUS
62
7
100
AcDbLine
10
2039.038259296862
20
1211.644576144142
30
0.0
11
2039.540998955547
21
1212.754899008690
31
0.0
0
LINE
5
742
100
AcDbEntity
8
0-0
6
CONTINUOUS
62
7
100
AcDbLine
10
2038.551022216773
20
1210.528353218517
30
0.0
11
2039.038259296862
21
1211.644576144142
31
0.0
0
LINE
5
743
100
AcDbEntity
8
0-0
6
CONTINUOUS
62
7
100
AcDbLine
10
2038.079410426075
20
1209.406559705308
30
0.0
11
2038.551022216773
21
1210.528353218517
31
0.0
0
LINE
5
744
100
AcDbEntity
8
0-0
6
CONTINUOUS
62
7
100
AcDbLine
10
2037.623546635560
20
1208.279525078006
30
0.0
11
2038.079410426075
21
1209.406559705308
31
0.0
0
LINE
5
745
100
AcDbEntity
8
0-0
6
CONTINUOUS
62
7
100
AcDbLine
10
2037.183553556023
20
1207.147578810100
30
0.0
11
2037.623546635560
21
1208.279525078006
31
0.0
0
LINE
5
746
100
AcDbEntity
8
0-0
6
CONTINUOUS
62
7
100
AcDbLine
10
2036.759553898258
20
1206.011050375084
30
0.0
11
2037.183553556023
21
1207.147578810100
31
0.0
0
LINE
5
747
100
AcDbEntity
8
0-0
6
CONTINUOUS
62
7
100
AcDbLine
10
2036.351670373059
20
1204.870269246449
30
0.0
11
2036.759553898258
21
1206.011050375084
31
0.0
0
LINE
5
748
100
AcDbEntity
8
0-0
6
CONTINUOUS
62
7
100
AcDbLine
10
2035.960025691219
20
1203.725564897684
30
0.0
11
2036.351670373059
21
1204.870269246449
31
0.0
0
LINE
5
749
100
AcDbEntity
8
0-0
6
CONTINUOUS
62
7
100
AcDbLine
10
2035.584742563533
20
1202.577266802283
30
0.0
11
2035.960025691219
21
1203.725564897684
31
0.0
0
LINE
5
74a
100
AcDbEntity
8
0-0
6
CONTINUOUS
62
7
100
AcDbLine
10
2035.374623568021
20
1201.909737081929
30
0.0
11
2035.584742563533
21
1202.577266802283
31
0.0
0
LINE
5
74b
100
AcDbEntity
8
0-0
6
CONTINUOUS
62
7
100
AcDbLine
10
2034.994049413661
20
1200.650087042039
30
0.0
11
2035.374623568021
21
1201.909737081929
31
0.0
0
LINE
5
74c
100
AcDbEntity
8
0-0
6
CONTINUOUS
62
7
100
AcDbLine
10
2034.383106609967
20
1198.469882546725
30
0.0
11
2034.994049413661
21
1200.650087042039
31
0.0
0
LINE
5
74d
100
AcDbEntity
8
0-0
6
CONTINUOUS
62
7
100
AcDbLine
10
2033.827672835997
20
1196.279373934658
30
0.0
11
2034.383106609967
21
1198.469882546725
31
0.0
0
LINE
5
74e
100
AcDbEntity
8
0-0
6
CONTINUOUS
62
7
100
AcDbLine
10
2033.325735436579
20
1194.078934814133
30
0.0
11
2033.827672835997
21
1196.279373934658
31
0.0
0
LINE
5
74f
100
AcDbEntity
8
0-0
6
CONTINUOUS
62
7
100
AcDbLine
10
2032.875281756536
20
1191.868938793443
30
0.0
11
2033.325735436579
21
1194.078934814133
31
0.0
0
LINE
5
750
100
AcDbEntity
8
0-0
6
CONTINUOUS
62
7
100
AcDbLine
10
2032.474299140693
20
1189.649759480883
30
0.0
11
2032.875281756536
21
1191.868938793443
31
0.0
0
LINE
5
751
100
AcDbEntity
8
0-0
6
CONTINUOUS
62
7
100
AcDbLine
10
2032.120774933876
20
1187.421770484746
30
0.0
11
2032.474299140693
21
1189.649759480883
31
0.0
0
LINE
5
752
100
AcDbEntity
8
0-0
6
CONTINUOUS
62
7
100
AcDbLine
10
2031.812696480909
20
1185.185345413327
30
0.0
11
2032.120774933876
21
1187.421770484746
31
0.0
0
LINE
5
753
100
AcDbEntity
8
0-0
6
CONTINUOUS
62
7
100
AcDbLine
10
2031.548051126619
20
1182.940857874921
30
0.0
11
2031.812696480909
21
1185.185345413327
31
0.0
0
LINE
5
754
100
AcDbEntity
8
0-0
6
CONTINUOUS
62
7
100
AcDbLine
10
2031.324826215828
20
1180.688681477820
30
0.0
11
2031.548051126619
21
1182.940857874921
31
0.0
0
LINE
5
755
100
AcDbEntity
8
0-0
6
CONTINUOUS
62
7
100
AcDbLine
10
2031.141009093364
20
1178.429189830320
30
0.0
11
2031.324826215828
21
1180.688681477820
31
0.0
0
LINE
5
756
100
AcDbEntity
8
0-0
6
CONTINUOUS
62
7
100
AcDbLine
10
2030.994587104050
20
1176.162756540715
30
0.0
11
2031.141009093364
21
1178.429189830320
31
0.0
0
LINE
5
757
100
AcDbEntity
8
0-0
6
CONTINUOUS
62
7
100
AcDbLine
10
2030.883547592712
20
1173.889755217298
30
0.0
11
2030.994587104050
21
1176.162756540715
31
0.0
0
LINE
5
758
100
AcDbEntity
8
0-0
6
CONTINUOUS
62
7
100
AcDbLine
10
2030.805877904175
20
1171.610559468365
30
0.0
11
2030.883547592712
21
1173.889755217298
31
0.0
0
LINE
5
759
100
AcDbEntity
8
0-0
6
CONTINUOUS
62
7
100
AcDbLine
10
2030.759565383264
20
1169.325542902208
30
0.0
11
2030.805877904175
21
1171.610559468365
31
0.0
0
LINE
5
75a
100
AcDbEntity
8
0-0
6
CONTINUOUS
62
7
100
AcDbLine
10
2030.742597374804
20
1167.035079127122
30
0.0
11
2030.759565383264
21
1169.325542902208
31
0.0
0
LINE
5
75b
100
AcDbEntity
8
0-0
6
CONTINUOUS
62
7
100
AcDbLine
10
2030.752961223619
20
1164.739541751402
30
0.0
11
2030.742597374804
21
1167.035079127122
31
0.0
0
LINE
5
75c
100
AcDbEntity
8
0-0
6
CONTINUOUS
62
7
100
AcDbLine
10
2030.788644274536
20
1162.439304383341
30
0.0
11
2030.752961223619
21
1164.739541751402
31
0.0
0
LINE
5
75d
100
AcDbEntity
8
0-0
6
CONTINUOUS
62
7
100
AcDbLine
10
2030.847633872379
20
1160.134740631234
30
0.0
11
2030.788644274536
21
1162.439304383341
31
0.0
0
LINE
5
75e
100
AcDbEntity
8
0-0
6
CONTINUOUS
62
7
100
AcDbLine
10
2030.927917361972
20
1157.826224103375
30
0.0
11
2030.847633872379
21
1160.134740631234
31
0.0
0
LINE
5
75f
100
AcDbEntity
8
0-0
6
CONTINUOUS
62
7
100
AcDbLine
10
2031.027482088142
20
1155.514128408057
30
0.0
11
2030.927917361972
21
1157.826224103375
31
0.0
0
LINE
5
760
100
AcDbEntity
8
0-0
6
CONTINUOUS
62
7
100
AcDbLine
10
2031.144315395713
20
1153.198827153576
30
0.0
11
2031.027482088142
21
1155.514128408057
31
0.0
0
LINE
5
761
100
AcDbEntity
8
0-0
6
CONTINUOUS
62
7
100
AcDbLine
10
2031.276404629510
20
1150.880693948225
30
0.0
11
2031.144315395713
21
1153.198827153576
31
0.0
0
LINE
5
762
100
AcDbEntity
8
0-0
6
CONTINUOUS
62
7
100
AcDbLine
10
2031.421737134359
20
1148.560102400299
30
0.0
11
2031.276404629510
21
1150.880693948225
31
0.0
0
LINE
5
763
100
AcDbEntity
8
0-0
6
CONTINUOUS
62
7
100
AcDbLine
10
2031.578300255084
20
1146.237426118091
30
0.0
11
2031.421737134359
21
1148.560102400299
31
0.0
0
LINE
5
764
100
AcDbEntity
8
0-0
6
CONTINUOUS
62
7
100
AcDbLine
10
2031.744081336510
20
1143.913038709896
30
0.0
11
2031.578300255084
21
1146.237426118091
31
0.0
0
LINE
5
765
100
AcDbEntity
8
0-0
6
CONTINUOUS
62
7
100
AcDbLine
10
2031.917067723462
20
1141.587313784008
30
0.0
11
2031.744081336510
21
1143.913038709896
31
0.0
0
LINE
5
766
100
AcDbEntity
8
0-0
6
CONTINUOUS
62
7
100
AcDbLine
10
2032.095246760766
20
1139.260624948720
30
0.0
11
2031.917067723462
21
1141.587313784008
31
0.0
0
LINE
5
767
100
AcDbEntity
8
0-0
6
CONTINUOUS
62
7
100
AcDbLine
10
2032.276605793246
20
1136.933345812329
30
0.0
11
2032.095246760766
21
1139.260624948720
31
0.0
0
LINE
5
768
100
AcDbEntity
8
0-0
6
CONTINUOUS
62
7
100
AcDbLine
10
2032.382458015078
20
1135.583400658351
30
0.0
11
2032.276605793246
21
1136.933345812329
31
0.0
0
POLYLINE
5
769
100
AcDbEntity
8
0-0
6
CONTINUOUS
62
  7
100
AcDb2dPolyline
66
1
10
0.0
20
0.0
30
0.0
70
0
0
VERTEX
5
76a
100
AcDbEntity
8
0-0
6
CONTINUOUS
62
  7
100
AcDbVertex
100
AcDb2dVertex
10
2031.031367784526
20
1424.139028575282
30
0.0
0
VERTEX
5
76b
100
AcDbEntity
8
0-0
6
CONTINUOUS
62
  7
100
AcDbVertex
100
AcDb2dVertex
10
2031.540723847438
20
1431.653044118957
30
0.0
0
VERTEX
5
76c
100
AcDbEntity
8
0-0
6
CONTINUOUS
62
  7
100
AcDbVertex
100
AcDb2dVertex
10
2032.422417616802
20
1444.607961145825
30
0.0
0
VERTEX
5
76d
100
AcDbEntity
8
0-0
6
CONTINUOUS
62
  7
100
AcDbVertex
100
AcDb2dVertex
10
2033.313815999761
20
1457.562094321681
30
0.0
0
VERTEX
5
76e
100
AcDbEntity
8
0-0
6
CONTINUOUS
62
  7
100
AcDbVertex
100
AcDb2dVertex
10
2034.221061156821
20
1470.514947538291
30
0.0
0
VERTEX
5
76f
100
AcDbEntity
8
0-0
6
CONTINUOUS
62
  7
100
AcDbVertex
100
AcDb2dVertex
10
2035.150295248484
20
1483.466024687418
30
0.0
0
VERTEX
5
770
100
AcDbEntity
8
0-0
6
CONTINUOUS
62
  7
100
AcDbVertex
100
AcDb2dVertex
10
2036.107660435255
20
1496.414829660828
30
0.0
0
VERTEX
5
771
100
AcDbEntity
8
0-0
6
CONTINUOUS
62
  7
100
AcDbVertex
100
AcDb2dVertex
10
2036.678242241992
20
1503.923899942050
30
0.0
0
VERTEX
5
772
100
AcDbEntity
8
0-0
6
CONTINUOUS
62
  7
100
AcDbVertex
100
AcDb2dVertex
10
2037.084295257136
20
1509.172363553573
30
0.0
0
VERTEX
5
773
100
AcDbEntity
8
0-0
6
CONTINUOUS
62
  7
100
AcDbVertex
100
AcDb2dVertex
10
2037.795183719551
20
1518.220604883452
30
0.0
0
VERTEX
5
774
100
AcDbEntity
8
0-0
6
CONTINUOUS
62
  7
100
AcDbVertex
100
AcDb2dVertex
10
2038.513981124573
20
1527.268313584614
30
0.0
0
VERTEX
5
775
100
AcDbEntity
8
0-0
6
CONTINUOUS
62
  7
100
AcDbVertex
100
AcDb2dVertex
10
2039.233991869713
20
1536.316097672535
30
0.0
0
VERTEX
5
776
100
AcDbEntity
8
0-0
6
CONTINUOUS
62
  7
100
AcDbVertex
100
AcDb2dVertex
10
2039.948520352475
20
1545.364565162694
30
0.0
0
VERTEX
5
777
100
AcDbEntity
8
0-0
6
CONTINUOUS
62
  7
100
AcDbVertex
100
AcDb2dVertex
10
2040.650870970370
20
1554.414324070569
30
0.0
0
VERTEX
5
778
100
AcDbEntity
8
0-0
6
CONTINUOUS
62
  7
100
AcDbVertex
100
AcDb2dVertex
10
2041.050016015513
20
1559.664015554449
30
0.0
0
VERTEX
5
779
100
AcDbEntity
8
0-0
6
CONTINUOUS
62
  7
100
AcDbVertex
100
AcDb2dVertex
10
2041.789068747576
20
1569.633155351633
30
0.0
0
VERTEX
5
77a
100
AcDbEntity
8
0-0
6
CONTINUOUS
62
  7
100
AcDbVertex
100
AcDb2dVertex
10
2043.031237779360
20
1586.824540583687
30
0.0
0
VERTEX
5
77b
100
AcDbEntity
8
0-0
6
CONTINUOUS
62
  7
100
AcDbVertex
100
AcDb2dVertex
10
2044.282337926866
20
1604.015154323298
30
0.0
0
VERTEX
5
77c
100
AcDbEntity
8
0-0
6
CONTINUOUS
62
  7
100
AcDbVertex
100
AcDb2dVertex
10
2045.599942634335
20
1621.199370066242
30
0.0
0
VERTEX
5
77d
100
AcDbEntity
8
0-0
6
CONTINUOUS
62
  7
100
AcDbVertex
100
AcDb2dVertex
10
2047.041625346011
20
1638.371561308291
30
0.0
0
VERTEX
5
77e
100
AcDbEntity
8
0-0
6
CONTINUOUS
62
  7
100
AcDbVertex
100
AcDb2dVertex
10
2048.664959506136
20
1655.526101545220
30
0.0
0
VERTEX
5
77f
100
AcDbEntity
8
0-0
6
CONTINUOUS
62
  7
100
AcDbVertex
100
AcDb2dVertex
10
2049.712412943538
20
1665.465430056850
30
0.0
0
VERTEX
5
780
100
AcDbEntity
8
0-0
6
CONTINUOUS
62
  7
100
AcDbVertex
100
AcDb2dVertex
10
2049.795341492549
20
1666.217962047308
30
0.0
0
VERTEX
5
781
100
AcDbEntity
8
0-0
6
CONTINUOUS
62
  7
100
AcDbVertex
100
AcDb2dVertex
10
2049.939413033206
20
1667.515324753618
30
0.0
0
VERTEX
5
782
100
AcDbEntity
8
0-0
6
CONTINUOUS
62
  7
100
AcDbVertex
100
AcDb2dVertex
10
2050.084647567056
20
1668.812574235848
30
0.0
0
VERTEX
5
783
100
AcDbEntity
8
0-0
6
CONTINUOUS
62
  7
100
AcDbVertex
100
AcDb2dVertex
10
2050.230791165453
20
1670.109735215413
30
0.0
0
VERTEX
5
784
100
AcDbEntity
8
0-0
6
CONTINUOUS
62
  7
100
AcDbVertex
100
AcDb2dVertex
10
2050.377589899753
20
1671.406832413725
30
0.0
0
VERTEX
5
785
100
AcDbEntity
8
0-0
6
CONTINUOUS
62
  7
100
AcDbVertex
100
AcDb2dVertex
10
2050.524789841311
20
1672.703890552202
30
0.0
0
VERTEX
5
786
100
AcDbEntity
8
0-0
6
CONTINUOUS
62
  7
100
AcDbVertex
100
AcDb2dVertex
10
2050.610249579490
20
1673.456176116825
30
0.0
0
SEQEND
5
787
100
AcDbEntity
8
0-0
0
ARC
5
788
100
AcDbEntity
8
0-0
6
CONTINUOUS
62
7
100
AcDbCircle
10
3595.760944716533
20
1402.749209656164
30
0.0
40
1524.046500000000
100
AcDbArc
50
173.229356351969
51
179.098369454058
0
LINE
5
789
100
AcDbEntity
8
0-0
6
CONTINUOUS
62
7
100
AcDbLine
10
2017.742944716534
20
1373.547209656164
30
0.0
11
2026.391944716534
21
1323.546209656164
31
0.0
0
ARC
5
78a
100
AcDbEntity
8
0-0
6
CONTINUOUS
62
7
100
AcDbCircle
10
2534.512444716534
20
1394.965709656164
30
0.0
40
513.114000000000
100
AcDbArc
50
188.000807526054
51
204.816442892879
0
ARC
5
78b
100
AcDbEntity
8
0-0
6
CONTINUOUS
62
7
100
AcDbCircle
10
1866.526444716534
20
1086.367709656164
30
0.0
40
222.709500000000
100
AcDbArc
50
337.764739340296
51
384.749295887637
0
LINE
5
78c
100
AcDbEntity
8
0-0
6
CONTINUOUS
62
7
100
AcDbLine
10
2367.743944716533
20
1373.547209656164
30
0.0
11
2359.094944716534
21
1323.546209656164
31
0.0
0
LINE
5
78d
100
AcDbEntity
8
0-0
6
CONTINUOUS
62
7
100
AcDbLine
10
2026.391944716534
20
1323.546209656164
30
0.0
11
2359.094944716534
21
1323.546209656164
31
0.0
0
ARC
5
78e
100
AcDbEntity
8
0-0
6
CONTINUOUS
62
7
100
AcDbCircle
10
1850.974444716533
20
1394.965709656164
30
0.0
40
513.114000000000
100
AcDbArc
50
335.183557473406
51
351.999192840231
0
ARC
5
78f
100
AcDbEntity
8
0-0
6
CONTINUOUS
62
7
100
AcDbCircle
10
2524.349944716534
20
1086.249209656164
30
0.0
40
227.664000000000
100
AcDbArc
50
155.791545433878
51
201.694418692958
0
ARC
5
790
100
AcDbEntity
8
0-0
6
CONTINUOUS
62
7
100
AcDbCircle
10
788.768944716534
20
1402.752209656164
30
0.0
40
1524.003000000000
100
AcDbArc
50
0.909001106128
51
8.308127294338
0
LINE
5
791
100
AcDbEntity
8
0-0
6
CONTINUOUS
62
7
100
AcDbLine
10
2017.742944716534
20
1392.308022046940
30
0.0
11
2367.743944716533
21
1392.308022046940
31
0.0
0
LINE
5
792
100
AcDbEntity
8
0-0
6
CONTINUOUS
62
7
100
AcDbLine
10
2362.742944716534
20
1408.679022046940
30
0.0
11
2022.743944716533
21
1408.679022046940
31
0.0
0
LINE
5
793
100
AcDbEntity
8
0-0
6
CONTINUOUS
62
7
100
AcDbLine
10
2364.743944716533
20
1394.403522046940
30
0.0
11
2020.742944716534
21
1394.403522046940
31
0.0
0
LINE
5
794
100
AcDbEntity
8
0-0
6
CONTINUOUS
62
7
100
AcDbLine
10
2362.742944716534
20
1410.680022046940
30
0.0
11
2022.743944716533
21
1410.680022046940
31
0.0
0
LINE
5
795
100
AcDbEntity
8
0-0
6
CONTINUOUS
62
7
100
AcDbLine
10
2017.742944716534
20
1403.679522046940
30
0.0
11
2017.742944716534
21
1397.403522046940
31
0.0
0
LINE
5
796
100
AcDbEntity
8
0-0
6
CONTINUOUS
62
7
100
AcDbLine
10
2367.743944716533
20
1403.679522046940
30
0.0
11
2367.743944716533
21
1397.403522046940
31
0.0
0
ARC
5
797
100
AcDbEntity
8
0-0
6
CONTINUOUS
62
7
100
AcDbCircle
10
2022.743944716533
20
1415.679522046940
30
0.0
40
4.999500000000
100
AcDbArc
50
180.000000000000
51
270.000000000000
0
ARC
5
798
100
AcDbEntity
8
0-0
6
CONTINUOUS
62
7
100
AcDbCircle
10
2022.743944716533
20
1403.679522046940
30
0.0
40
4.999500000000
100
AcDbArc
50
90.000000000000
51
180.000000000000
0
ARC
5
799
100
AcDbEntity
8
0-0
6
CONTINUOUS
62
7
100
AcDbCircle
10
2020.742944716534
20
1397.403522046940
30
0.0
40
3.000000000000
100
AcDbArc
50
180.000000000000
51
270.000000000000
0
ARC
5
79a
100
AcDbEntity
8
0-0
6
CONTINUOUS
62
7
100
AcDbCircle
10
2362.742944716534
20
1415.679522046940
30
0.0
40
4.999500000000
100
AcDbArc
50
270.000000000000
51
360.000000000000
0
ARC
5
79b
100
AcDbEntity
8
0-0
6
CONTINUOUS
62
7
100
AcDbCircle
10
2362.742944716534
20
1403.679522046940
30
0.0
40
4.999500000000
100
AcDbArc
50
0.000000000000
51
90.000000000000
0
ARC
5
79c
100
AcDbEntity
8
0-0
6
CONTINUOUS
62
7
100
AcDbCircle
10
2364.743944716533
20
1397.403522046940
30
0.0
40
3.000000000000
100
AcDbArc
50
270.000000000000
51
360.000000000000
0
LINE
5
79d
100
AcDbEntity
8
0-0
6
CONTINUOUS
62
7
100
AcDbLine
10
2017.785217351799
20
1373.486993063921
30
0.0
11
2017.640083732387
21
1392.209229967948
31
0.0
0
LINE
5
79e
100
AcDbEntity
8
0-0
6
CONTINUOUS
62
7
100
AcDbLine
10
2367.783104850102
20
1373.615937136305
30
0.0
11
2367.917368313204
21
1392.278558507487
31
0.0
0
ARC
5
79f
100
AcDbEntity
8
0-0
6
CONTINUOUS
62
7
100
AcDbCircle
10
2022.777739926074
20
1418.782856738049
30
0.0
40
5.000000000000
100
AcDbArc
50
90.000000000000
51
180.000000000000
0
LINE
5
7a0
100
AcDbEntity
8
0-0
6
CONTINUOUS
62
7
100
AcDbLine
10
2017.742944716534
20
1419.336575939483
30
0.0
11
2017.742944716534
21
1415.679522046940
31
0.0
0
ARC
5
7a1
100
AcDbEntity
8
0-0
6
CONTINUOUS
62
7
100
AcDbCircle
10
2362.706354610683
20
1418.770410068034
30
0.0
40
5.000000000000
100
AcDbArc
50
0.000000000000
51
90.000000000000
0
LINE
5
7a2
100
AcDbEntity
8
0-0
6
CONTINUOUS
62
7
100
AcDbLine
10
2367.743944716533
20
1419.145544176030
30
0.0
11
2367.743944716533
21
1415.679522046940
31
0.0
0
POLYLINE
5
7a3
100
AcDbEntity
8
0-0
6
CONTINUOUS
62
  7
100
AcDb2dPolyline
66
1
10
0.0
20
0.0
30
0.0
70
0
0
VERTEX
5
7a4
100
AcDbEntity
8
0-0
6
CONTINUOUS
62
  7
100
AcDbVertex
100
AcDb2dVertex
10
2022.620494703732
20
1423.720657422899
30
0.0
0
VERTEX
5
7a5
100
AcDbEntity
8
0-0
6
CONTINUOUS
62
  7
100
AcDbVertex
100
AcDb2dVertex
10
2023.703275869012
20
1423.768752470979
30
0.0
0
VERTEX
5
7a6
100
AcDbEntity
8
0-0
6
CONTINUOUS
62
  7
100
AcDbVertex
100
AcDb2dVertex
10
2025.570148680367
20
1423.851463146205
30
0.0
0
VERTEX
5
7a7
100
AcDbEntity
8
0-0
6
CONTINUOUS
62
  7
100
AcDbVertex
100
AcDb2dVertex
10
2027.437045750853
20
1423.933585428476
30
0.0
0
VERTEX
5
7a8
100
AcDbEntity
8
0-0
6
CONTINUOUS
62
  7
100
AcDbVertex
100
AcDb2dVertex
10
2029.303982434350
20
1424.014746917186
30
0.0
0
VERTEX
5
7a9
100
AcDbEntity
8
0-0
6
CONTINUOUS
62
  7
100
AcDbVertex
100
AcDb2dVertex
10
2031.170974084736
20
1424.094575211732
30
0.0
0
VERTEX
5
7aa
100
AcDbEntity
8
0-0
6
CONTINUOUS
62
  7
100
AcDbVertex
100
AcDb2dVertex
10
2033.038036055893
20
1424.172697911509
30
0.0
0
VERTEX
5
7ab
100
AcDbEntity
8
0-0
6
CONTINUOUS
62
  7
100
AcDbVertex
100
AcDb2dVertex
10
2034.120970270369
20
1424.217080828653
30
0.0
0
VERTEX
5
7ac
100
AcDbEntity
8
0-0
6
CONTINUOUS
62
  7
100
AcDbVertex
100
AcDb2dVertex
10
2035.156955449487
20
1424.258833103620
30
0.0
0
VERTEX
5
7ad
100
AcDbEntity
8
0-0
6
CONTINUOUS
62
  7
100
AcDbVertex
100
AcDb2dVertex
10
2036.943200566447
20
1424.329254563198
30
0.0
0
VERTEX
5
7ae
100
AcDbEntity
8
0-0
6
CONTINUOUS
62
  7
100
AcDbVertex
100
AcDb2dVertex
10
2038.729519450805
20
1424.397835654911
30
0.0
0
VERTEX
5
7af
100
AcDbEntity
8
0-0
6
CONTINUOUS
62
  7
100
AcDbVertex
100
AcDb2dVertex
10
2040.515904010997
20
1424.464740245093
30
0.0
0
VERTEX
5
7b0
100
AcDbEntity
8
0-0
6
CONTINUOUS
62
  7
100
AcDbVertex
100
AcDb2dVertex
10
2042.302346155459
20
1424.530132200078
30
0.0
0
VERTEX
5
7b1
100
AcDbEntity
8
0-0
6
CONTINUOUS
62
  7
100
AcDbVertex
100
AcDb2dVertex
10
2044.088837792629
20
1424.594175386200
30
0.0
0
VERTEX
5
7b2
100
AcDbEntity
8
0-0
6
CONTINUOUS
62
  7
100
AcDbVertex
100
AcDb2dVertex
10
2045.125022431251
20
1424.630767000114
30
0.0
0
VERTEX
5
7b3
100
AcDbEntity
8
0-0
6
CONTINUOUS
62
  7
100
AcDbVertex
100
AcDb2dVertex
10
2046.480498852241
20
1424.678094668638
30
0.0
0
VERTEX
5
7b4
100
AcDbEntity
8
0-0
6
CONTINUOUS
62
  7
100
AcDbVertex
100
AcDb2dVertex
10
2048.817563600520
20
1424.758601180747
30
0.0
0
VERTEX
5
7b5
100
AcDbEntity
8
0-0
6
CONTINUOUS
62
  7
100
AcDbVertex
100
AcDb2dVertex
10
2051.154654532247
20
1424.838299400859
30
0.0
0
VERTEX
5
7b6
100
AcDbEntity
8
0-0
6
CONTINUOUS
62
  7
100
AcDbVertex
100
AcDb2dVertex
10
2053.491748463284
20
1424.917858103922
30
0.0
0
VERTEX
5
7b7
100
AcDbEntity
8
0-0
6
CONTINUOUS
62
  7
100
AcDbVertex
100
AcDb2dVertex
10
2055.828822209494
20
1424.997946064885
30
0.0
0
VERTEX
5
7b8
100
AcDbEntity
8
0-0
6
CONTINUOUS
62
  7
100
AcDbVertex
100
AcDb2dVertex
10
2058.165852586736
20
1425.079232058699
30
0.0
0
VERTEX
5
7b9
100
AcDbEntity
8
0-0
6
CONTINUOUS
62
  7
100
AcDbVertex
100
AcDb2dVertex
10
2059.521301198120
20
1425.127190405869
30
0.0
0
VERTEX
5
7ba
100
AcDbEntity
8
0-0
6
CONTINUOUS
62
  7
100
AcDbVertex
100
AcDb2dVertex
10
2061.437725229124
20
1425.196206803136
30
0.0
0
VERTEX
5
7bb
100
AcDbEntity
8
0-0
6
CONTINUOUS
62
  7
100
AcDbVertex
100
AcDb2dVertex
10
2064.741813064197
20
1425.317791641494
30
0.0
0
VERTEX
5
7bc
100
AcDbEntity
8
0-0
6
CONTINUOUS
62
  7
100
AcDbVertex
100
AcDb2dVertex
10
2068.045837678572
20
1425.441190018467
30
0.0
0
VERTEX
5
7bd
100
AcDbEntity
8
0-0
6
CONTINUOUS
62
  7
100
AcDbVertex
100
AcDb2dVertex
10
2071.349860279755
20
1425.564696967228
30
0.0
0
VERTEX
5
7be
100
AcDbEntity
8
0-0
6
CONTINUOUS
62
  7
100
AcDbVertex
100
AcDb2dVertex
10
2074.653942075246
20
1425.686607520952
30
0.0
0
VERTEX
5
7bf
100
AcDbEntity
8
0-0
6
CONTINUOUS
62
  7
100
AcDbVertex
100
AcDb2dVertex
10
2077.958144272551
20
1425.805216712814
30
0.0
0
VERTEX
5
7c0
100
AcDbEntity
8
0-0
6
CONTINUOUS
62
  7
100
AcDbVertex
100
AcDb2dVertex
10
2079.874660834037
20
1425.871825514500
30
0.0
0
VERTEX
5
7c1
100
AcDbEntity
8
0-0
6
CONTINUOUS
62
  7
100
AcDbVertex
100
AcDb2dVertex
10
2082.904368444809
20
1425.973100011364
30
0.0
0
VERTEX
5
7c2
100
AcDbEntity
8
0-0
6
CONTINUOUS
62
  7
100
AcDbVertex
100
AcDb2dVertex
10
2088.128399555733
20
1426.136012318342
30
0.0
0
VERTEX
5
7c3
100
AcDbEntity
8
0-0
6
CONTINUOUS
62
  7
100
AcDbVertex
100
AcDb2dVertex
10
2093.352886268066
20
1426.284321608282
30
0.0
0
VERTEX
5
7c4
100
AcDbEntity
8
0-0
6
CONTINUOUS
62
  7
100
AcDbVertex
100
AcDb2dVertex
10
2098.577773571313
20
1426.418267079076
30
0.0
0
VERTEX
5
7c5
100
AcDbEntity
8
0-0
6
CONTINUOUS
62
  7
100
AcDbVertex
100
AcDb2dVertex
10
2103.803006454973
20
1426.538087928619
30
0.0
0
VERTEX
5
7c6
100
AcDbEntity
8
0-0
6
CONTINUOUS
62
  7
100
AcDbVertex
100
AcDb2dVertex
10
2109.028529908549
20
1426.644023354807
30
0.0
0
VERTEX
5
7c7
100
AcDbEntity
8
0-0
6
CONTINUOUS
62
  7
100
AcDbVertex
100
AcDb2dVertex
10
2112.059444973761
20
1426.699197857423
30
0.0
0
VERTEX
5
7c8
100
AcDbEntity
8
0-0
6
CONTINUOUS
62
  7
100
AcDbVertex
100
AcDb2dVertex
10
2114.723516508803
20
1426.743963709137
30
0.0
0
VERTEX
5
7c9
100
AcDbEntity
8
0-0
6
CONTINUOUS
62
  7
100
AcDbVertex
100
AcDb2dVertex
10
2119.316855110786
20
1426.813415765665
30
0.0
0
VERTEX
5
7ca
100
AcDbEntity
8
0-0
6
CONTINUOUS
62
  7
100
AcDbVertex
100
AcDb2dVertex
10
2123.910316392419
20
1426.873858609537
30
0.0
0
VERTEX
5
7cb
100
AcDbEntity
8
0-0
6
CONTINUOUS
62
  7
100
AcDbVertex
100
AcDb2dVertex
10
2128.503878421848
20
1426.926194755360
30
0.0
0
VERTEX
5
7cc
100
AcDbEntity
8
0-0
6
CONTINUOUS
62
  7
100
AcDbVertex
100
AcDb2dVertex
10
2133.097519267217
20
1426.971326717745
30
0.0
0
VERTEX
5
7cd
100
AcDbEntity
8
0-0
6
CONTINUOUS
62
  7
100
AcDbVertex
100
AcDb2dVertex
10
2137.691216996667
20
1427.010157011301
30
0.0
0
VERTEX
5
7ce
100
AcDbEntity
8
0-0
6
CONTINUOUS
62
  7
100
AcDbVertex
100
AcDb2dVertex
10
2140.355579101744
20
1427.030146794592
30
0.0
0
VERTEX
5
7cf
100
AcDbEntity
8
0-0
6
CONTINUOUS
62
  7
100
AcDbVertex
100
AcDb2dVertex
10
2145.232164070044
20
1427.062518176855
30
0.0
0
VERTEX
5
7d0
100
AcDbEntity
8
0-0
6
CONTINUOUS
62
  7
100
AcDbVertex
100
AcDb2dVertex
10
2153.640121146761
20
1427.106935668001
30
0.0
0
VERTEX
5
7d1
100
AcDbEntity
8
0-0
6
CONTINUOUS
62
  7
100
AcDbVertex
100
AcDb2dVertex
10
2162.048133596712
20
1427.139209128764
30
0.0
0
VERTEX
5
7d2
100
AcDbEntity
8
0-0
6
CONTINUOUS
62
  7
100
AcDbVertex
100
AcDb2dVertex
10
2170.456189329675
20
1427.161990094164
30
0.0
0
VERTEX
5
7d3
100
AcDbEntity
8
0-0
6
CONTINUOUS
62
  7
100
AcDbVertex
100
AcDb2dVertex
10
2178.864276255421
20
1427.177930099219
30
0.0
0
VERTEX
5
7d4
100
AcDbEntity
8
0-0
6
CONTINUOUS
62
  7
100
AcDbVertex
100
AcDb2dVertex
10
2187.272382283724
20
1427.189680678945
30
0.0
0
VERTEX
5
7d5
100
AcDbEntity
8
0-0
6
CONTINUOUS
62
  7
100
AcDbVertex
100
AcDb2dVertex
10
2192.149087768755
20
1427.195621263177
30
0.0
0
SEQEND
5
7d6
100
AcDbEntity
8
0-0
0
POLYLINE
5
7d7
100
AcDbEntity
8
0-0
6
CONTINUOUS
62
  7
100
AcDb2dPolyline
66
1
10
0.0
20
0.0
30
0.0
70
0
0
VERTEX
5
7d8
100
AcDbEntity
8
0-0
6
CONTINUOUS
62
  7
100
AcDbVertex
100
AcDb2dVertex
10
2362.675294850404
20
1423.720657422899
30
0.0
0
VERTEX
5
7d9
100
AcDbEntity
8
0-0
6
CONTINUOUS
62
  7
100
AcDbVertex
100
AcDb2dVertex
10
2361.592513685124
20
1423.768752470979
30
0.0
0
VERTEX
5
7da
100
AcDbEntity
8
0-0
6
CONTINUOUS
62
  7
100
AcDbVertex
100
AcDb2dVertex
10
2359.725640873768
20
1423.851463146205
30
0.0
0
VERTEX
5
7db
100
AcDbEntity
8
0-0
6
CONTINUOUS
62
  7
100
AcDbVertex
100
AcDb2dVertex
10
2357.858743803282
20
1423.933585428476
30
0.0
0
VERTEX
5
7dc
100
AcDbEntity
8
0-0
6
CONTINUOUS
62
  7
100
AcDbVertex
100
AcDb2dVertex
10
2355.991807119786
20
1424.014746917186
30
0.0
0
VERTEX
5
7dd
100
AcDbEntity
8
0-0
6
CONTINUOUS
62
  7
100
AcDbVertex
100
AcDb2dVertex
10
2354.124815469399
20
1424.094575211732
30
0.0
0
VERTEX
5
7de
100
AcDbEntity
8
0-0
6
CONTINUOUS
62
  7
100
AcDbVertex
100
AcDb2dVertex
10
2352.257753498243
20
1424.172697911509
30
0.0
0
VERTEX
5
7df
100
AcDbEntity
8
0-0
6
CONTINUOUS
62
  7
100
AcDbVertex
100
AcDb2dVertex
10
2351.174819283767
20
1424.217080828653
30
0.0
0
VERTEX
5
7e0
100
AcDbEntity
8
0-0
6
CONTINUOUS
62
  7
100
AcDbVertex
100
AcDb2dVertex
10
2350.138834104648
20
1424.258833103620
30
0.0
0
VERTEX
5
7e1
100
AcDbEntity
8
0-0
6
CONTINUOUS
62
  7
100
AcDbVertex
100
AcDb2dVertex
10
2348.352588987688
20
1424.329254563198
30
0.0
0
VERTEX
5
7e2
100
AcDbEntity
8
0-0
6
CONTINUOUS
62
  7
100
AcDbVertex
100
AcDb2dVertex
10
2346.566270103331
20
1424.397835654911
30
0.0
0
VERTEX
5
7e3
100
AcDbEntity
8
0-0
6
CONTINUOUS
62
  7
100
AcDbVertex
100
AcDb2dVertex
10
2344.779885543139
20
1424.464740245093
30
0.0
0
VERTEX
5
7e4
100
AcDbEntity
8
0-0
6
CONTINUOUS
62
  7
100
AcDbVertex
100
AcDb2dVertex
10
2342.993443398676
20
1424.530132200078
30
0.0
0
VERTEX
5
7e5
100
AcDbEntity
8
0-0
6
CONTINUOUS
62
  7
100
AcDbVertex
100
AcDb2dVertex
10
2341.206951761506
20
1424.594175386200
30
0.0
0
VERTEX
5
7e6
100
AcDbEntity
8
0-0
6
CONTINUOUS
62
  7
100
AcDbVertex
100
AcDb2dVertex
10
2340.170767122884
20
1424.630767000114
30
0.0
0
VERTEX
5
7e7
100
AcDbEntity
8
0-0
6
CONTINUOUS
62
  7
100
AcDbVertex
100
AcDb2dVertex
10
2338.815290701895
20
1424.678094668638
30
0.0
0
VERTEX
5
7e8
100
AcDbEntity
8
0-0
6
CONTINUOUS
62
  7
100
AcDbVertex
100
AcDb2dVertex
10
2336.478225953616
20
1424.758601180747
30
0.0
0
VERTEX
5
7e9
100
AcDbEntity
8
0-0
6
CONTINUOUS
62
  7
100
AcDbVertex
100
AcDb2dVertex
10
2334.141135021888
20
1424.838299400859
30
0.0
0
VERTEX
5
7ea
100
AcDbEntity
8
0-0
6
CONTINUOUS
62
  7
100
AcDbVertex
100
AcDb2dVertex
10
2331.804041090851
20
1424.917858103922
30
0.0
0
VERTEX
5
7eb
100
AcDbEntity
8
0-0
6
CONTINUOUS
62
  7
100
AcDbVertex
100
AcDb2dVertex
10
2329.466967344642
20
1424.997946064885
30
0.0
0
VERTEX
5
7ec
100
AcDbEntity
8
0-0
6
CONTINUOUS
62
  7
100
AcDbVertex
100
AcDb2dVertex
10
2327.129936967399
20
1425.079232058699
30
0.0
0
VERTEX
5
7ed
100
AcDbEntity
8
0-0
6
CONTINUOUS
62
  7
100
AcDbVertex
100
AcDb2dVertex
10
2325.774488356016
20
1425.127190405869
30
0.0
0
VERTEX
5
7ee
100
AcDbEntity
8
0-0
6
CONTINUOUS
62
  7
100
AcDbVertex
100
AcDb2dVertex
10
2323.858064325012
20
1425.196206803136
30
0.0
0
VERTEX
5
7ef
100
AcDbEntity
8
0-0
6
CONTINUOUS
62
  7
100
AcDbVertex
100
AcDb2dVertex
10
2320.553976489939
20
1425.317791641494
30
0.0
0
VERTEX
5
7f0
100
AcDbEntity
8
0-0
6
CONTINUOUS
62
  7
100
AcDbVertex
100
AcDb2dVertex
10
2317.249951875564
20
1425.441190018467
30
0.0
0
VERTEX
5
7f1
100
AcDbEntity
8
0-0
6
CONTINUOUS
62
  7
100
AcDbVertex
100
AcDb2dVertex
10
2313.945929274381
20
1425.564696967228
30
0.0
0
VERTEX
5
7f2
100
AcDbEntity
8
0-0
6
CONTINUOUS
62
  7
100
AcDbVertex
100
AcDb2dVertex
10
2310.641847478889
20
1425.686607520952
30
0.0
0
VERTEX
5
7f3
100
AcDbEntity
8
0-0
6
CONTINUOUS
62
  7
100
AcDbVertex
100
AcDb2dVertex
10
2307.337645281585
20
1425.805216712814
30
0.0
0
VERTEX
5
7f4
100
AcDbEntity
8
0-0
6
CONTINUOUS
62
  7
100
AcDbVertex
100
AcDb2dVertex
10
2305.421128720098
20
1425.871825514500
30
0.0
0
VERTEX
5
7f5
100
AcDbEntity
8
0-0
6
CONTINUOUS
62
  7
100
AcDbVertex
100
AcDb2dVertex
10
2302.391421109326
20
1425.973100011364
30
0.0
0
VERTEX
5
7f6
100
AcDbEntity
8
0-0
6
CONTINUOUS
62
  7
100
AcDbVertex
100
AcDb2dVertex
10
2297.167389998403
20
1426.136012318342
30
0.0
0
VERTEX
5
7f7
100
AcDbEntity
8
0-0
6
CONTINUOUS
62
  7
100
AcDbVertex
100
AcDb2dVertex
10
2291.942903286069
20
1426.284321608282
30
0.0
0
VERTEX
5
7f8
100
AcDbEntity
8
0-0
6
CONTINUOUS
62
  7
100
AcDbVertex
100
AcDb2dVertex
10
2286.718015982823
20
1426.418267079076
30
0.0
0
VERTEX
5
7f9
100
AcDbEntity
8
0-0
6
CONTINUOUS
62
  7
100
AcDbVertex
100
AcDb2dVertex
10
2281.492783099163
20
1426.538087928619
30
0.0
0
VERTEX
5
7fa
100
AcDbEntity
8
0-0
6
CONTINUOUS
62
  7
100
AcDbVertex
100
AcDb2dVertex
10
2276.267259645587
20
1426.644023354807
30
0.0
0
VERTEX
5
7fb
100
AcDbEntity
8
0-0
6
CONTINUOUS
62
  7
100
AcDbVertex
100
AcDb2dVertex
10
2273.236344580374
20
1426.699197857423
30
0.0
0
VERTEX
5
7fc
100
AcDbEntity
8
0-0
6
CONTINUOUS
62
  7
100
AcDbVertex
100
AcDb2dVertex
10
2270.572273045333
20
1426.743963709137
30
0.0
0
VERTEX
5
7fd
100
AcDbEntity
8
0-0
6
CONTINUOUS
62
  7
100
AcDbVertex
100
AcDb2dVertex
10
2265.978934443350
20
1426.813415765665
30
0.0
0
VERTEX
5
7fe
100
AcDbEntity
8
0-0
6
CONTINUOUS
62
  7
100
AcDbVertex
100
AcDb2dVertex
10
2261.385473161717
20
1426.873858609537
30
0.0
0
VERTEX
5
7ff
100
AcDbEntity
8
0-0
6
CONTINUOUS
62
  7
100
AcDbVertex
100
AcDb2dVertex
10
2256.791911132288
20
1426.926194755360
30
0.0
0
VERTEX
5
800
100
AcDbEntity
8
0-0
6
CONTINUOUS
62
  7
100
AcDbVertex
100
AcDb2dVertex
10
2252.198270286919
20
1426.971326717745
30
0.0
0
VERTEX
5
801
100
AcDbEntity
8
0-0
6
CONTINUOUS
62
  7
100
AcDbVertex
100
AcDb2dVertex
10
2247.604572557468
20
1427.010157011301
30
0.0
0
VERTEX
5
802
100
AcDbEntity
8
0-0
6
CONTINUOUS
62
  7
100
AcDbVertex
100
AcDb2dVertex
10
2244.940210452391
20
1427.030146794592
30
0.0
0
VERTEX
5
803
100
AcDbEntity
8
0-0
6
CONTINUOUS
62
  7
100
AcDbVertex
100
AcDb2dVertex
10
2240.063625484090
20
1427.062518176855
30
0.0
0
VERTEX
5
804
100
AcDbEntity
8
0-0
6
CONTINUOUS
62
  7
100
AcDbVertex
100
AcDb2dVertex
10
2231.655668407375
20
1427.106935668001
30
0.0
0
VERTEX
5
805
100
AcDbEntity
8
0-0
6
CONTINUOUS
62
  7
100
AcDbVertex
100
AcDb2dVertex
10
2223.247655957423
20
1427.139209128764
30
0.0
0
VERTEX
5
806
100
AcDbEntity
8
0-0
6
CONTINUOUS
62
  7
100
AcDbVertex
100
AcDb2dVertex
10
2214.839600224461
20
1427.161990094164
30
0.0
0
VERTEX
5
807
100
AcDbEntity
8
0-0
6
CONTINUOUS
62
  7
100
AcDbVertex
100
AcDb2dVertex
10
2206.431513298715
20
1427.177930099219
30
0.0
0
VERTEX
5
808
100
AcDbEntity
8
0-0
6
CONTINUOUS
62
  7
100
AcDbVertex
100
AcDb2dVertex
10
2198.023407270411
20
1427.189680678945
30
0.0
0
VERTEX
5
809
100
AcDbEntity
8
0-0
6
CONTINUOUS
62
  7
100
AcDbVertex
100
AcDb2dVertex
10
2193.146701785381
20
1427.195621263177
30
0.0
0
SEQEND
5
80a
100
AcDbEntity
8
0-0
0
LINE
5
80b
100
AcDbEntity
8
0-0
6
CONTINUOUS
62
7
100
AcDbLine
10
2192.160884114366
20
1427.199249327155
30
0.0
11
2193.152617485438
21
1427.199249327155
31
0.0
0
POLYLINE
5
80c
100
AcDbEntity
8
0-0
6
CONTINUOUS
62
  7
100
AcDb2dPolyline
66
1
10
0.0
20
0.0
30
0.0
70
0
0
VERTEX
5
80d
100
AcDbEntity
8
0-0
6
CONTINUOUS
62
  7
100
AcDbVertex
100
AcDb2dVertex
10
2352.798159624723
20
1424.139028575282
30
0.0
0
VERTEX
5
80e
100
AcDbEntity
8
0-0
6
CONTINUOUS
62
  7
100
AcDbVertex
100
AcDb2dVertex
10
2352.288803561811
20
1431.653044118957
30
0.0
0
VERTEX
5
80f
100
AcDbEntity
8
0-0
6
CONTINUOUS
62
  7
100
AcDbVertex
100
AcDb2dVertex
10
2351.407109792447
20
1444.607961145825
30
0.0
0
VERTEX
5
810
100
AcDbEntity
8
0-0
6
CONTINUOUS
62
  7
100
AcDbVertex
100
AcDb2dVertex
10
2350.515711409488
20
1457.562094321681
30
0.0
0
VERTEX
5
811
100
AcDbEntity
8
0-0
6
CONTINUOUS
62
  7
100
AcDbVertex
100
AcDb2dVertex
10
2349.608466252428
20
1470.514947538291
30
0.0
0
VERTEX
5
812
100
AcDbEntity
8
0-0
6
CONTINUOUS
62
  7
100
AcDbVertex
100
AcDb2dVertex
10
2348.679232160765
20
1483.466024687418
30
0.0
0
VERTEX
5
813
100
AcDbEntity
8
0-0
6
CONTINUOUS
62
  7
100
AcDbVertex
100
AcDb2dVertex
10
2347.721866973994
20
1496.414829660828
30
0.0
0
VERTEX
5
814
100
AcDbEntity
8
0-0
6
CONTINUOUS
62
  7
100
AcDbVertex
100
AcDb2dVertex
10
2347.151285167257
20
1503.923899942050
30
0.0
0
VERTEX
5
815
100
AcDbEntity
8
0-0
6
CONTINUOUS
62
  7
100
AcDbVertex
100
AcDb2dVertex
10
2346.745232152113
20
1509.172363553573
30
0.0
0
VERTEX
5
816
100
AcDbEntity
8
0-0
6
CONTINUOUS
62
  7
100
AcDbVertex
100
AcDb2dVertex
10
2346.034343689698
20
1518.220604883452
30
0.0
0
VERTEX
5
817
100
AcDbEntity
8
0-0
6
CONTINUOUS
62
  7
100
AcDbVertex
100
AcDb2dVertex
10
2345.315546284675
20
1527.268313584614
30
0.0
0
VERTEX
5
818
100
AcDbEntity
8
0-0
6
CONTINUOUS
62
  7
100
AcDbVertex
100
AcDb2dVertex
10
2344.595535539536
20
1536.316097672535
30
0.0
0
VERTEX
5
819
100
AcDbEntity
8
0-0
6
CONTINUOUS
62
  7
100
AcDbVertex
100
AcDb2dVertex
10
2343.881007056773
20
1545.364565162694
30
0.0
0
VERTEX
5
81a
100
AcDbEntity
8
0-0
6
CONTINUOUS
62
  7
100
AcDbVertex
100
AcDb2dVertex
10
2343.178656438879
20
1554.414324070569
30
0.0
0
VERTEX
5
81b
100
AcDbEntity
8
0-0
6
CONTINUOUS
62
  7
100
AcDbVertex
100
AcDb2dVertex
10
2342.779511393735
20
1559.664015554449
30
0.0
0
VERTEX
5
81c
100
AcDbEntity
8
0-0
6
CONTINUOUS
62
  7
100
AcDbVertex
100
AcDb2dVertex
10
2342.040458661674
20
1569.633155351633
30
0.0
0
VERTEX
5
81d
100
AcDbEntity
8
0-0
6
CONTINUOUS
62
  7
100
AcDbVertex
100
AcDb2dVertex
10
2340.798289629889
20
1586.824540583687
30
0.0
0
VERTEX
5
81e
100
AcDbEntity
8
0-0
6
CONTINUOUS
62
  7
100
AcDbVertex
100
AcDb2dVertex
10
2339.547189482384
20
1604.015154323298
30
0.0
0
VERTEX
5
81f
100
AcDbEntity
8
0-0
6
CONTINUOUS
62
  7
100
AcDbVertex
100
AcDb2dVertex
10
2338.229584774914
20
1621.199370066242
30
0.0
0
VERTEX
5
820
100
AcDbEntity
8
0-0
6
CONTINUOUS
62
  7
100
AcDbVertex
100
AcDb2dVertex
10
2336.787902063238
20
1638.371561308291
30
0.0
0
VERTEX
5
821
100
AcDbEntity
8
0-0
6
CONTINUOUS
62
  7
100
AcDbVertex
100
AcDb2dVertex
10
2335.164567903113
20
1655.526101545220
30
0.0
0
VERTEX
5
822
100
AcDbEntity
8
0-0
6
CONTINUOUS
62
  7
100
AcDbVertex
100
AcDb2dVertex
10
2334.117114465711
20
1665.465430056850
30
0.0
0
VERTEX
5
823
100
AcDbEntity
8
0-0
6
CONTINUOUS
62
  7
100
AcDbVertex
100
AcDb2dVertex
10
2334.034185916700
20
1666.217962047308
30
0.0
0
VERTEX
5
824
100
AcDbEntity
8
0-0
6
CONTINUOUS
62
  7
100
AcDbVertex
100
AcDb2dVertex
10
2333.890114376043
20
1667.515324753618
30
0.0
0
VERTEX
5
825
100
AcDbEntity
8
0-0
6
CONTINUOUS
62
  7
100
AcDbVertex
100
AcDb2dVertex
10
2333.744879842194
20
1668.812574235848
30
0.0
0
VERTEX
5
826
100
AcDbEntity
8
0-0
6
CONTINUOUS
62
  7
100
AcDbVertex
100
AcDb2dVertex
10
2333.598736243796
20
1670.109735215413
30
0.0
0
VERTEX
5
827
100
AcDbEntity
8
0-0
6
CONTINUOUS
62
  7
100
AcDbVertex
100
AcDb2dVertex
10
2333.451937509496
20
1671.406832413725
30
0.0
0
VERTEX
5
828
100
AcDbEntity
8
0-0
6
CONTINUOUS
62
  7
100
AcDbVertex
100
AcDb2dVertex
10
2333.304737567938
20
1672.703890552202
30
0.0
0
VERTEX
5
829
100
AcDbEntity
8
0-0
6
CONTINUOUS
62
  7
100
AcDbVertex
100
AcDb2dVertex
10
2333.219277829759
20
1673.456176116825
30
0.0
0
SEQEND
5
82a
100
AcDbEntity
8
0-0
0
ELLIPSE
  5
82b
100
AcDbEntity
8
0-0
6
CONTINUOUS
62
7
100
AcDbEllipse
10
2193.632944716534
20
1730.125401819654
30
0.0
11
24.493500000000
21
0.000000000000
31
0.0
210
0.0
220
0.0
230
1.0
40
0.197880000000
41
3.141592653610
42
6.283185307190
0
ELLIPSE
  5
82c
100
AcDbEntity
8
0-0
6
CONTINUOUS
62
7
100
AcDbEllipse
10
2193.632944716534
20
1730.125401819654
30
0.0
11
24.493500000000
21
0.000000000000
31
0.0
210
0.0
220
0.0
230
1.0
40
0.106600000000
41
0.000000000000
42
3.141592653580
0
ARC
5
82d
100
AcDbEntity
8
0-0
6
CONTINUOUS
62
7
100
AcDbCircle
10
2192.741944716534
20
1585.790901819654
30
0.0
40
160.935000000000
100
AcDbArc
50
64.192794257080
51
115.806387945634
0
LINE
5
82e
100
AcDbEntity
8
0-0
6
CONTINUOUS
62
7
100
AcDbLine
10
2051.508030421218
20
1688.009901819653
30
0.0
11
2333.212647115738
21
1688.009901819653
31
0.0
0
LINE
5
82f
100
AcDbEntity
8
0-0
6
CONTINUOUS
62
7
100
AcDbLine
10
2050.606533605312
20
1673.246622231124
30
0.0
11
2051.890583051738
21
1687.627976031104
31
0.0
0
LINE
5
830
100
AcDbEntity
8
0-0
6
CONTINUOUS
62
7
100
AcDbLine
10
2333.226425318079
20
1672.936259568718
30
0.0
11
2331.327736089239
21
1688.125773399434
31
0.0
0
LINE
5
831
100
AcDbEntity
8
0-0
6
CONTINUOUS
62
7
100
AcDbLine
10
2072.401328512548
20
1001.664037617493
30
0.0
11
2312.430183283272
21
1001.664037617493
31
0.0
0
POLYLINE
5
832
100
AcDbEntity
8
0-0
6
CONTINUOUS
62
  7
100
AcDb2dPolyline
66
1
10
0.0
20
0.0
30
0.0
70
0
0
VERTEX
5
833
100
AcDbEntity
8
0-0
6
CONTINUOUS
62
  7
100
AcDbVertex
100
AcDb2dVertex
10
2066.501944716533
20
1634.260798063885
30
0.0
0
VERTEX
5
834
100
AcDbEntity
8
0-0
6
CONTINUOUS
62
  7
100
AcDbVertex
100
AcDb2dVertex
10
2063.419444716533
20
1635.745798063886
30
0.0
0
VERTEX
5
835
100
AcDbEntity
8
0-0
6
CONTINUOUS
62
  7
100
AcDbVertex
100
AcDb2dVertex
10
2097.106444716534
20
1636.315798063885
30
0.0
0
SEQEND
5
836
100
AcDbEntity
8
0-0
0
LINE
5
837
100
AcDbEntity
8
0-0
6
CONTINUOUS
62
7
100
AcDbLine
10
2093.129944716534
20
1638.603298063885
30
0.0
11
2065.105444716533
21
1637.907298063885
31
0.0
0
POLYLINE
5
838
100
AcDbEntity
8
0-0
6
CONTINUOUS
62
  7
100
AcDb2dPolyline
66
1
10
0.0
20
0.0
30
0.0
70
0
0
VERTEX
5
839
100
AcDbEntity
8
0-0
6
CONTINUOUS
62
  7
100
AcDbVertex
100
AcDb2dVertex
10
2084.147944716533
20
1645.870798063885
30
0.0
0
VERTEX
5
83a
100
AcDbEntity
8
0-0
6
CONTINUOUS
62
  7
100
AcDbVertex
100
AcDb2dVertex
10
2070.565444716533
20
1644.901798063885
30
0.0
0
VERTEX
5
83b
100
AcDbEntity
8
0-0
6
CONTINUOUS
62
  7
100
AcDbVertex
100
AcDb2dVertex
10
2063.419444716533
20
1635.745798063886
30
0.0
0
SEQEND
5
83c
100
AcDbEntity
8
0-0
0
LINE
5
83d
100
AcDbEntity
8
0-0
6
CONTINUOUS
62
7
100
AcDbLine
10
2066.501944716533
20
1634.260798063885
30
0.0
11
2096.764444716534
21
1634.260798063885
31
0.0
0
ARC
5
83e
100
AcDbEntity
8
0-0
6
CONTINUOUS
62
7
100
AcDbCircle
10
2092.079944716534
20
1687.027798063886
30
0.0
40
50.961000000000
100
AcDbArc
50
275.661914788045
51
299.836616948768
0
ARC
5
83f
100
AcDbEntity
8
0-0
6
CONTINUOUS
62
7
100
AcDbCircle
10
2108.873944716534
20
1656.525298063885
30
0.0
40
16.156500000000
100
AcDbArc
50
301.993253789310
51
327.982256288303
0
ARC
5
840
100
AcDbEntity
8
0-0
6
CONTINUOUS
62
7
100
AcDbCircle
10
2119.285444716534
20
1649.931298063885
30
0.0
40
3.832500000000
100
AcDbArc
50
329.026834588409
51
409.493519090843
0
ARC
5
841
100
AcDbEntity
8
0-0
6
CONTINUOUS
62
7
100
AcDbCircle
10
2100.479944716534
20
1629.354298063885
30
0.0
40
31.707000000000
100
AcDbArc
50
47.806623166014
51
80.964158979862
0
ARC
5
842
100
AcDbEntity
8
0-0
6
CONTINUOUS
62
7
100
AcDbCircle
10
2096.477944716534
20
1621.350298063886
30
0.0
40
40.330500000000
100
AcDbArc
50
77.131533900155
51
96.419525112039
0
ARC
5
843
100
AcDbEntity
8
0-0
6
CONTINUOUS
62
7
100
AcDbCircle
10
2092.652944716533
20
1660.221298063886
30
0.0
40
1.387500000000
100
AcDbArc
50
119.544834827612
51
208.413895092946
0
ARC
5
844
100
AcDbEntity
8
0-0
6
CONTINUOUS
62
7
100
AcDbCircle
10
2082.725944716533
20
1604.844298063886
30
0.0
40
55.404000000000
100
AcDbArc
50
66.108869616858
51
80.958600141477
0
ARC
5
845
100
AcDbEntity
8
0-0
6
CONTINUOUS
62
7
100
AcDbCircle
10
2101.957444716534
20
1647.391798063886
30
0.0
40
8.721000000000
100
AcDbArc
50
9.692505875857
51
68.423221948126
0
ARC
5
846
100
AcDbEntity
8
0-0
6
CONTINUOUS
62
7
100
AcDbCircle
10
2100.976444716534
20
1650.964798063885
30
0.0
40
9.805500000000
100
AcDbArc
50
307.428118912592
51
347.607250028551
0
ARC
5
847
100
AcDbEntity
8
0-0
6
CONTINUOUS
62
7
100
AcDbCircle
10
2088.089944716533
20
1676.929798063886
30
0.0
40
38.656500000000
100
AcDbArc
50
277.492401797477
51
299.178982489775
0
ARC
5
848
100
AcDbEntity
8
0-0
6
CONTINUOUS
62
7
100
AcDbCircle
10
2095.756444716533
20
1685.170798063886
30
0.0
40
50.920500000000
100
AcDbArc
50
271.133582918550
51
312.214701220933
0
ARC
5
849
100
AcDbEntity
8
0-0
6
CONTINUOUS
62
7
100
AcDbCircle
10
2126.252944716533
20
1650.603298063885
30
0.0
40
4.869000000000
100
AcDbArc
50
319.777838875056
51
398.857473747921
0
ARC
5
84a
100
AcDbEntity
8
0-0
6
CONTINUOUS
62
7
100
AcDbCircle
10
2097.568444716534
20
1620.324298063885
30
0.0
40
46.537500000000
100
AcDbArc
50
45.745450014634
51
77.535099676071
0
ARC
5
84b
100
AcDbEntity
8
0-0
6
CONTINUOUS
62
7
100
AcDbCircle
10
2098.961944716534
20
1627.057798063885
30
0.0
40
39.664500000000
100
AcDbArc
50
77.401202102841
51
97.758541309263
0
ARC
5
84c
100
AcDbEntity
8
0-0
6
CONTINUOUS
62
7
100
AcDbCircle
10
2132.833444716533
20
1647.096298063886
30
0.0
40
43.701000000000
100
AcDbArc
50
153.847092761835
51
174.125074038644
0
ARC
5
84d
100
AcDbEntity
8
0-0
6
CONTINUOUS
62
7
100
AcDbCircle
10
2090.530444716534
20
1582.929298063885
30
0.0
40
89.263500000000
100
AcDbArc
50
64.274871981067
51
92.479956096630
0
ARC
5
84e
100
AcDbEntity
8
0-0
6
CONTINUOUS
62
7
100
AcDbCircle
10
2123.597944716534
20
1652.134798063886
30
0.0
40
12.567000000000
100
AcDbArc
50
299.832786827408
51
423.138671350139
0
ARC
5
84f
100
AcDbEntity
8
0-0
6
CONTINUOUS
62
7
100
AcDbCircle
10
2092.520944716533
20
1698.645298063886
30
0.0
40
68.481000000000
100
AcDbArc
50
265.029108833440
51
303.031871259216
0
ARC
5
850
100
AcDbEntity
8
0-0
6
CONTINUOUS
62
7
100
AcDbCircle
10
2100.926944716533
20
1698.018298063885
30
0.0
40
54.249000000000
100
AcDbArc
50
255.453236592232
51
269.953296230356
0
ARC
5
851
100
AcDbEntity
8
0-0
6
CONTINUOUS
62
7
100
AcDbCircle
10
2083.720444716533
20
1651.497298063885
30
0.0
40
5.641500000000
100
AcDbArc
50
274.339073977056
51
360.726193808461
0
ARC
5
852
100
AcDbEntity
8
0-0
6
CONTINUOUS
62
7
100
AcDbCircle
10
2123.604957995805
20
1670.445114617267
30
0.0
40
73.911000000000
100
AcDbArc
50
108.310543076599
51
163.191718875296
0
ARC
5
853
100
AcDbEntity
8
0-0
6
CONTINUOUS
62
7
100
AcDbCircle
10
2261.881931437261
20
1670.445114617267
30
0.0
40
73.911000000000
100
AcDbArc
50
16.808281727196
51
71.689457525893
0
ARC
5
854
100
AcDbEntity
8
0-0
6
CONTINUOUS
62
7
100
AcDbCircle
10
2205.266457995805
20
1311.807776022073
30
0.0
40
441.958500000000
100
AcDbArc
50
92.907059785394
51
103.727914157372
0
LINE
5
855
100
AcDbEntity
8
0-0
6
CONTINUOUS
62
7
100
AcDbLine
10
2182.325624261089
20
1753.328859750879
30
0.0
11
2202.809892317062
21
1753.328859750879
31
0.0
0
ARC
5
856
100
AcDbEntity
8
0-0
6
CONTINUOUS
62
7
100
AcDbCircle
10
2180.220431437261
20
1311.807776022073
30
0.0
40
441.958500000000
100
AcDbArc
50
76.272085743181
51
87.092940115159
0
LINE
5
857
100
AcDbEntity
8
0-0
6
CONTINUOUS
62
7
100
AcDbLine
10
2053.818486757643
20
1689.339151300375
30
0.0
11
2332.921292582792
21
1689.339151300375
31
0.0
0
ARC
5
858
100
AcDbEntity
8
0-0
6
CONTINUOUS
62
7
100
AcDbCircle
10
3270.277905711515
20
1302.005187320446
30
0.0
40
49.590000000000
100
AcDbArc
50
132.592382025364
51
250.784788770823
0
ARC
5
859
100
AcDbEntity
8
0-0
6
CONTINUOUS
62
7
100
AcDbCircle
10
3294.475905711514
20
1211.874687320446
30
0.0
40
59.304000000000
100
AcDbArc
50
133.097194665156
51
213.014972766962
0
ARC
5
85a
100
AcDbEntity
8
0-0
6
CONTINUOUS
62
7
100
AcDbCircle
10
2588.781527416993
20
1466.144187320446
30
0.0
40
1048.834500000000
100
AcDbArc
50
341.397366097995
51
343.926757469019
0
ARC
5
85b
100
AcDbEntity
8
0-0
6
CONTINUOUS
62
7
100
AcDbCircle
10
3216.227027416993
20
1271.657187320446
30
0.0
40
392.449500000000
100
AcDbArc
50
330.703202335062
51
339.085502118476
0
ARC
5
85c
100
AcDbEntity
8
0-0
6
CONTINUOUS
62
7
100
AcDbCircle
10
3543.056027416994
20
1083.597687320446
30
0.0
40
15.930000000000
100
AcDbArc
50
207.140601124105
51
345.534421976395
0
ARC
5
85d
100
AcDbEntity
8
0-0
6
CONTINUOUS
62
7
100
AcDbCircle
10
3716.720027416994
20
1271.264187320446
30
0.0
40
270.708000000000
100
AcDbArc
50
213.552407538742
51
226.061390716967
0
ARC
5
85e
100
AcDbEntity
8
0-0
6
CONTINUOUS
62
7
100
AcDbCircle
10
3469.788527416994
20
1021.655187320446
30
0.0
40
37.137000000000
100
AcDbArc
50
8.548330808172
51
102.448591638256
0
ARC
5
85f
100
AcDbEntity
8
0-0
6
CONTINUOUS
62
7
100
AcDbCircle
10
3485.577527416994
20
1287.455187320446
30
0.0
40
230.766000000000
100
AcDbArc
50
241.726599922466
51
264.081685310477
0
ARC
5
860
100
AcDbEntity
8
0-0
6
CONTINUOUS
62
7
100
AcDbCircle
10
9691.755527416992
20
3898.368687320447
30
0.0
40
6914.101499999999
100
AcDbArc
50
203.214672181862
51
204.017497360582
0
ARC
5
861
100
AcDbEntity
8
0-0
6
CONTINUOUS
62
7
100
AcDbCircle
10
3354.608027416994
20
1184.963187320446
30
0.0
40
20.916000000000
100
AcDbArc
50
51.186363640730
51
214.928068336268
0
ARC
5
862
100
AcDbEntity
8
0-0
6
CONTINUOUS
62
7
100
AcDbCircle
10
3254.516027416993
20
991.707687320446
30
0.0
40
238.174500000000
100
AcDbArc
50
40.551529366581
51
61.621731215491
0
ARC
5
863
100
AcDbEntity
8
0-0
6
CONTINUOUS
62
7
100
AcDbCircle
10
3530.822027416994
20
1284.899187320446
30
0.0
40
168.015000000000
100
AcDbArc
50
235.428532083248
51
272.908303555254
0
ARC
5
864
100
AcDbEntity
8
0-0
6
CONTINUOUS
62
7
100
AcDbCircle
10
3722.651027416994
20
1378.358187320446
30
0.0
40
173.437500000000
100
AcDbArc
50
341.098916455461
51
356.303268525223
0
ARC
5
865
100
AcDbEntity
8
0-0
6
CONTINUOUS
62
7
100
AcDbCircle
10
3449.079527416993
20
1475.387187320446
30
0.0
40
463.699500000000
100
AcDbArc
50
313.679340537528
51
340.706281463412
0
ARC
5
866
100
AcDbEntity
8
0-0
6
CONTINUOUS
62
7
100
AcDbCircle
10
4009.491527416994
20
976.602687320446
30
0.0
40
290.502000000000
100
AcDbArc
50
145.765913560546
51
174.949688917364
0
ARC
5
867
100
AcDbEntity
8
0-0
6
CONTINUOUS
62
7
100
AcDbCircle
10
3602.831027416994
20
1412.520687320446
30
0.0
40
236.844000000000
100
AcDbArc
50
206.069460392779
51
274.073718977505
0
ARC
5
868
100
AcDbEntity
8
0-0
6
CONTINUOUS
62
7
100
AcDbCircle
10
3557.597027416993
20
1251.719187320446
30
0.0
40
126.372000000000
100
AcDbArc
50
221.102884325630
51
261.696749948942
0
ARC
5
869
100
AcDbEntity
8
0-0
6
CONTINUOUS
62
7
100
AcDbCircle
10
3468.869027416994
20
1179.141687320446
30
0.0
40
12.346500000000
100
AcDbArc
50
75.559333401138
51
238.252763856065
0
ARC
5
86a
100
AcDbEntity
8
0-0
6
CONTINUOUS
62
7
100
AcDbCircle
10
3434.339027416994
20
1067.552187320446
30
0.0
40
129.144000000000
100
AcDbArc
50
35.878605112092
51
73.069168224701
0
ARC
5
86b
100
AcDbEntity
8
0-0
6
CONTINUOUS
62
7
100
AcDbCircle
10
3517.757027416993
20
1121.273187320446
30
0.0
40
30.543000000000
100
AcDbArc
50
326.925406687718
51
405.988195224086
0
ARC
5
86c
100
AcDbEntity
8
0-0
6
CONTINUOUS
62
7
100
AcDbCircle
10
3540.995027416993
20
1127.577687320446
30
0.0
40
23.092500000000
100
AcDbArc
50
206.673599813373
51
275.854939804651
0
ARC
5
86d
100
AcDbEntity
8
0-0
6
CONTINUOUS
62
7
100
AcDbCircle
10
3177.891527416994
20
1674.647187320446
30
0.0
40
2.172000000000
100
AcDbArc
50
175.456000000000
51
254.238000000000
0
LINE
5
86e
100
AcDbEntity
8
0-0
6
CONTINUOUS
62
7
100
AcDbLine
10
3872.567027416993
20
1403.135200399172
30
0.0
11
3457.989527416994
21
1405.923700399172
31
0.0
0
LINE
5
86f
100
AcDbEntity
8
0-0
6
CONTINUOUS
62
7
100
AcDbLine
10
3881.862527416994
20
1391.226700399172
30
0.0
11
3445.295027416993
21
1392.168700399172
31
0.0
0
LINE
5
870
100
AcDbEntity
8
0-0
6
CONTINUOUS
62
7
100
AcDbLine
10
3883.007027416994
20
1404.705700399172
30
0.0
11
3457.692527416994
21
1407.816700399172
31
0.0
0
LINE
5
871
100
AcDbEntity
8
0-0
6
CONTINUOUS
62
7
100
AcDbLine
10
3415.521527416994
20
1396.130200399172
30
0.0
11
3415.521527416994
21
1391.130700399172
31
0.0
0
LINE
5
872
100
AcDbEntity
8
0-0
6
CONTINUOUS
62
7
100
AcDbLine
10
3435.932027416994
20
1391.130700399172
30
0.0
11
3415.521527416994
21
1391.130700399172
31
0.0
0
LINE
5
873
100
AcDbEntity
8
0-0
6
CONTINUOUS
62
7
100
AcDbLine
10
3430.521527416994
20
1396.130200399172
30
0.0
11
3415.521527416994
21
1396.130200399172
31
0.0
0
LINE
5
874
100
AcDbEntity
8
0-0
6
CONTINUOUS
62
7
100
AcDbLine
10
3430.521527416994
20
1396.130200399172
30
0.0
11
3437.721527416994
21
1403.331700399172
31
0.0
0
LINE
5
875
100
AcDbEntity
8
0-0
6
CONTINUOUS
62
7
100
AcDbLine
10
3435.932027416994
20
1391.130700399172
30
0.0
11
3442.494527416994
21
1397.693200399172
31
0.0
0
ARC
5
876
100
AcDbEntity
8
0-0
6
CONTINUOUS
62
7
100
AcDbCircle
10
3582.200027416994
20
-3609.698299600825
30
0.0
40
5034.549000000000
100
AcDbArc
50
86.978480672446
51
91.463021847322
0
ARC
5
877
100
AcDbEntity
8
0-0
6
CONTINUOUS
62
7
100
AcDbCircle
10
3823.125527416994
20
1185.947200399172
30
0.0
40
233.188500000000
100
AcDbArc
50
75.083861146234
51
83.981090244035
0
ARC
5
878
100
AcDbEntity
8
0-0
6
CONTINUOUS
62
7
100
AcDbCircle
10
3445.295027416993
20
1404.902200399172
30
0.0
40
12.735000000000
100
AcDbArc
50
239.171000000000
51
565.531000000000
0
ARC
5
879
100
AcDbEntity
8
0-0
6
CONTINUOUS
62
7
100
AcDbCircle
10
3445.295027416993
20
1404.902200399172
30
0.0
40
7.734000000000
100
AcDbArc
50
248.771000000000
51
551.719000000000
0
ARC
5
87a
100
AcDbEntity
8
0-0
6
CONTINUOUS
62
7
100
AcDbCircle
10
3452.079527416994
20
1407.155200399172
30
0.0
40
16.131000000000
100
AcDbArc
50
84.377000000000
51
114.018000000000
0
ARC
5
87b
100
AcDbEntity
8
0-0
6
CONTINUOUS
62
7
100
AcDbCircle
10
3461.477027416993
20
1394.925700399172
30
0.0
40
31.335000000000
100
AcDbArc
50
120.628000000000
51
140.812000000000
0
ARC
5
87c
100
AcDbEntity
8
0-0
6
CONTINUOUS
62
7
100
AcDbCircle
10
3882.407027416994
20
1408.007200399172
30
0.0
40
3.354000000000
100
AcDbArc
50
280.291000000000
51
437.216000000000
0
ARC
5
87d
100
AcDbEntity
8
0-0
6
CONTINUOUS
62
7
100
AcDbCircle
10
3872.558027416994
20
1387.424200399172
30
0.0
40
15.711000000000
100
AcDbArc
50
33.045000000000
51
89.965000000000
0
ARC
5
87e
100
AcDbEntity
8
0-0
6
CONTINUOUS
62
7
100
AcDbCircle
10
3880.757027416993
20
1396.071700399172
30
0.0
40
4.969500000000
100
AcDbArc
50
282.845000000000
51
359.069000000000
0
ARC
5
87f
100
AcDbEntity
8
0-0
6
CONTINUOUS
62
7
100
AcDbCircle
10
3890.726027416994
20
1384.130200399172
30
0.0
40
4.999500000000
100
AcDbArc
50
0.000000000000
51
90.000000000000
0
LINE
5
880
100
AcDbEntity
8
0-0
6
CONTINUOUS
62
7
100
AcDbLine
10
3886.736027416993
20
1339.130200399172
30
0.0
11
3175.727027416994
21
1339.130200399172
31
0.0
0
LINE
5
881
100
AcDbEntity
8
0-0
6
CONTINUOUS
62
7
100
AcDbLine
10
3890.726027416994
20
1389.131200399172
30
0.0
11
3175.727027416994
21
1389.131200399172
31
0.0
0
POLYLINE
5
882
100
AcDbEntity
8
0-0
6
CONTINUOUS
62
  7
100
AcDb2dPolyline
66
1
10
0.0
20
0.0
30
0.0
70
0
0
VERTEX
5
883
100
AcDbEntity
8
0-0
6
CONTINUOUS
62
  7
100
AcDbVertex
100
AcDb2dVertex
10
3385.727027416993
20
1391.130700399172
30
0.0
0
VERTEX
5
884
100
AcDbEntity
8
0-0
6
CONTINUOUS
62
  7
100
AcDbVertex
100
AcDb2dVertex
10
3175.727027416994
20
1391.130700399172
30
0.0
0
VERTEX
5
885
100
AcDbEntity
8
0-0
6
CONTINUOUS
62
  7
100
AcDbVertex
100
AcDb2dVertex
10
3175.727027416994
20
1689.131200399172
30
0.0
0
VERTEX
5
886
100
AcDbEntity
8
0-0
6
CONTINUOUS
62
  7
100
AcDbVertex
100
AcDb2dVertex
10
3342.002027416994
20
1689.362200399172
30
0.0
0
SEQEND
5
887
100
AcDbEntity
8
0-0
0
ARC
5
888
100
AcDbEntity
8
0-0
6
CONTINUOUS
62
7
100
AcDbCircle
10
2420.774027416994
20
1401.977200399172
30
0.0
40
965.014500000000
100
AcDbArc
50
359.355989676343
51
377.325762423262
0
LINE
5
889
100
AcDbEntity
8
0-0
6
CONTINUOUS
62
7
100
AcDbLine
10
3895.486821074544
20
1366.561718631951
30
0.0
11
3896.085341090125
21
1384.517319099373
31
0.0
0
LINE
5
88a
100
AcDbEntity
8
0-0
6
CONTINUOUS
62
7
100
AcDbLine
10
3175.728632507280
20
1388.884848539399
30
0.0
11
3175.148572375143
21
1339.579737307782
31
0.0
0
POLYLINE
5
88b
100
AcDbEntity
8
0-0
6
CONTINUOUS
62
  7
100
AcDb2dPolyline
66
1
10
0.0
20
0.0
30
0.0
70
0
0
VERTEX
5
88c
100
AcDbEntity
8
0-0
6
CONTINUOUS
62
  7
100
AcDbVertex
100
AcDb2dVertex
10
3284.974905711515
20
1002.176187320446
30
0.0
0
VERTEX
5
88d
100
AcDbEntity
8
0-0
6
CONTINUOUS
62
  7
100
AcDbVertex
100
AcDb2dVertex
10
3295.831905711515
20
1027.176687320446
30
0.0
0
VERTEX
5
88e
100
AcDbEntity
8
0-0
6
CONTINUOUS
62
  7
100
AcDbVertex
100
AcDb2dVertex
10
3584.974905711515
20
1027.176687320446
30
0.0
0
SEQEND
5
88f
100
AcDbEntity
8
0-0
0
ARC
5
890
100
AcDbEntity
8
0-0
6
CONTINUOUS
62
7
100
AcDbCircle
10
3541.536405711515
20
1062.840687320446
30
0.0
40
56.205000000000
100
AcDbArc
50
320.612796789376
51
346.593880555610
0
ARC
5
891
100
AcDbEntity
8
0-0
6
CONTINUOUS
62
7
100
AcDbCircle
10
3958.507905711515
20
965.844687320446
30
0.0
40
371.901000000000
100
AcDbArc
50
149.855866378909
51
166.951628870394
0
ARC
5
892
100
AcDbEntity
8
0-0
6
CONTINUOUS
62
7
100
AcDbCircle
10
3582.147405711514
20
1189.787187320446
30
0.0
40
66.184500000000
100
AcDbArc
50
325.819866486254
51
395.304025282770
0
ARC
5
893
100
AcDbEntity
8
0-0
6
CONTINUOUS
62
7
100
AcDbCircle
10
2724.235905711515
20
682.088187320446
30
0.0
40
720.009000000000
100
AcDbArc
50
35.931683560287
51
43.703511200525
0
ARC
5
894
100
AcDbEntity
8
0-0
6
CONTINUOUS
62
7
100
AcDbCircle
10
3551.449905711515
20
1029.072687320446
30
0.0
40
255.624000000000
100
AcDbArc
50
162.813591086045
51
180.425026841214
0
LINE
5
895
100
AcDbEntity
8
0-0
6
CONTINUOUS
62
7
100
AcDbLine
10
3285.336679246455
20
1001.066013994959
30
0.0
11
3719.672176418676
21
1001.066013994959
31
0.0
0
POLYLINE
5
896
100
AcDbEntity
8
0-0
6
CONTINUOUS
62
  7
100
AcDb2dPolyline
66
1
10
0.0
20
0.0
30
0.0
70
0
0
VERTEX
5
897
100
AcDbEntity
8
0-0
6
CONTINUOUS
62
  7
100
AcDbVertex
100
AcDb2dVertex
10
3228.249739479496
20
1137.737823970557
30
0.0
0
VERTEX
5
898
100
AcDbEntity
8
0-0
6
CONTINUOUS
62
  7
100
AcDbVertex
100
AcDb2dVertex
10
3227.521268208949
20
1142.385588020529
30
0.0
0
VERTEX
5
899
100
AcDbEntity
8
0-0
6
CONTINUOUS
62
  7
100
AcDbVertex
100
AcDb2dVertex
10
3226.267954327279
20
1150.398544330294
30
0.0
0
VERTEX
5
89a
100
AcDbEntity
8
0-0
6
CONTINUOUS
62
  7
100
AcDbVertex
100
AcDb2dVertex
10
3225.022060077695
20
1158.410306242034
30
0.0
0
VERTEX
5
89b
100
AcDbEntity
8
0-0
6
CONTINUOUS
62
  7
100
AcDbVertex
100
AcDb2dVertex
10
3223.788281429869
20
1166.420117807630
30
0.0
0
VERTEX
5
89c
100
AcDbEntity
8
0-0
6
CONTINUOUS
62
  7
100
AcDbVertex
100
AcDb2dVertex
10
3222.571314353478
20
1174.427223078965
30
0.0
0
VERTEX
5
89d
100
AcDbEntity
8
0-0
6
CONTINUOUS
62
  7
100
AcDbVertex
100
AcDb2dVertex
10
3221.375854818193
20
1182.430866107920
30
0.0
0
VERTEX
5
89e
100
AcDbEntity
8
0-0
6
CONTINUOUS
62
  7
100
AcDbVertex
100
AcDb2dVertex
10
3220.694193499306
20
1187.071094782389
30
0.0
0
VERTEX
5
89f
100
AcDbEntity
8
0-0
6
CONTINUOUS
62
  7
100
AcDbVertex
100
AcDb2dVertex
10
3219.696449575760
20
1193.982817730807
30
0.0
0
VERTEX
5
8a0
100
AcDbEntity
8
0-0
6
CONTINUOUS
62
  7
100
AcDbVertex
100
AcDb2dVertex
10
3218.029290289431
20
1205.899488025192
30
0.0
0
VERTEX
5
8a1
100
AcDbEntity
8
0-0
6
CONTINUOUS
62
  7
100
AcDbVertex
100
AcDb2dVertex
10
3216.432887159285
20
1217.828247941135
30
0.0
0
VERTEX
5
8a2
100
AcDbEntity
8
0-0
6
CONTINUOUS
62
  7
100
AcDbVertex
100
AcDb2dVertex
10
3214.911373988191
20
1229.783292666767
30
0.0
0
VERTEX
5
8a3
100
AcDbEntity
8
0-0
6
CONTINUOUS
62
  7
100
AcDbVertex
100
AcDb2dVertex
10
3213.468884579017
20
1241.778817390218
30
0.0
0
VERTEX
5
8a4
100
AcDbEntity
8
0-0
6
CONTINUOUS
62
  7
100
AcDbVertex
100
AcDb2dVertex
10
3212.109552734633
20
1253.829017299617
30
0.0
0
VERTEX
5
8a5
100
AcDbEntity
8
0-0
6
CONTINUOUS
62
  7
100
AcDbVertex
100
AcDb2dVertex
10
3211.360871994365
20
1260.848779059543
30
0.0
0
VERTEX
5
8a6
100
AcDbEntity
8
0-0
6
CONTINUOUS
62
  7
100
AcDbVertex
100
AcDb2dVertex
10
3210.850582358309
20
1265.855873578297
30
0.0
0
VERTEX
5
8a7
100
AcDbEntity
8
0-0
6
CONTINUOUS
62
  7
100
AcDbVertex
100
AcDb2dVertex
10
3210.074962972017
20
1274.505459306579
30
0.0
0
VERTEX
5
8a8
100
AcDbEntity
8
0-0
6
CONTINUOUS
62
  7
100
AcDbVertex
100
AcDb2dVertex
10
3209.534575129512
20
1283.154751808404
30
0.0
0
VERTEX
5
8a9
100
AcDbEntity
8
0-0
6
CONTINUOUS
62
  7
100
AcDbVertex
100
AcDb2dVertex
10
3209.349587492177
20
1291.778882386202
30
0.0
0
VERTEX
5
8aa
100
AcDbEntity
8
0-0
6
CONTINUOUS
62
  7
100
AcDbVertex
100
AcDb2dVertex
10
3209.640168721398
20
1300.352982342406
30
0.0
0
VERTEX
5
8ab
100
AcDbEntity
8
0-0
6
CONTINUOUS
62
  7
100
AcDbVertex
100
AcDb2dVertex
10
3210.526487478556
20
1308.852182979447
30
0.0
0
VERTEX
5
8ac
100
AcDbEntity
8
0-0
6
CONTINUOUS
62
  7
100
AcDbVertex
100
AcDb2dVertex
10
3211.360871994365
20
1313.737600920877
30
0.0
0
VERTEX
5
8ad
100
AcDbEntity
8
0-0
6
CONTINUOUS
62
  7
100
AcDbVertex
100
AcDb2dVertex
10
3211.837084770681
20
1316.005366894666
30
0.0
0
VERTEX
5
8ae
100
AcDbEntity
8
0-0
6
CONTINUOUS
62
  7
100
AcDbVertex
100
AcDb2dVertex
10
3212.760623667744
20
1319.900697575437
30
0.0
0
VERTEX
5
8af
100
AcDbEntity
8
0-0
6
CONTINUOUS
62
  7
100
AcDbVertex
100
AcDb2dVertex
10
3213.764412324961
20
1323.785157192401
30
0.0
0
VERTEX
5
8b0
100
AcDbEntity
8
0-0
6
CONTINUOUS
62
  7
100
AcDbVertex
100
AcDb2dVertex
10
3214.790921929182
20
1327.667610203819
30
0.0
0
VERTEX
5
8b1
100
AcDbEntity
8
0-0
6
CONTINUOUS
62
  7
100
AcDbVertex
100
AcDb2dVertex
10
3215.782623667259
20
1331.556921067950
30
0.0
0
VERTEX
5
8b2
100
AcDbEntity
8
0-0
6
CONTINUOUS
62
  7
100
AcDbVertex
100
AcDb2dVertex
10
3216.681988726042
20
1335.461954243056
30
0.0
0
VERTEX
5
8b3
100
AcDbEntity
8
0-0
6
CONTINUOUS
62
  7
100
AcDbVertex
100
AcDb2dVertex
10
3217.138642449805
20
1337.737570505012
30
0.0
0
VERTEX
5
8b4
100
AcDbEntity
8
0-0
6
CONTINUOUS
62
  7
100
AcDbVertex
100
AcDb2dVertex
10
3217.341403405112
20
1338.896862540008
30
0.0
0
SEQEND
5
8b5
100
AcDbEntity
8
0-0
0
ARC
5
8b6
100
AcDbEntity
8
0-0
6
CONTINUOUS
62
7
100
AcDbCircle
10
3192.303527416993
20
1374.955651433765
30
0.0
40
382.200000000000
100
AcDbArc
50
77.066311191930
51
92.485819667895
0
ARC
5
8b7
100
AcDbEntity
8
0-0
6
CONTINUOUS
62
7
100
AcDbCircle
10
3267.075527416994
20
1772.982151433765
30
0.0
40
25.740000000000
100
AcDbArc
50
232.358568634988
51
286.035421865177
0
ARC
5
8b8
100
AcDbEntity
8
0-0
6
CONTINUOUS
62
7
100
AcDbCircle
10
3274.518527416994
20
1823.793151433765
30
0.0
40
82.159500000000
100
AcDbArc
50
236.371688302857
51
273.174667868028
0
ARC
5
8b9
100
AcDbEntity
8
0-0
6
CONTINUOUS
62
7
100
AcDbCircle
10
3228.780527416994
20
1619.010151433765
30
0.0
40
137.500500000000
100
AcDbArc
50
36.026379750144
51
69.092571585039
0
LINE
5
8ba
100
AcDbEntity
8
0-0
6
CONTINUOUS
62
7
100
AcDbLine
10
3175.727027416994
20
1699.437151433765
30
0.0
11
3175.727027416994
21
1756.795651433765
31
0.0
0
LINE
5
8bb
100
AcDbEntity
8
0-0
6
CONTINUOUS
62
7
100
AcDbLine
10
3339.890027416994
20
1691.137993042873
30
0.0
11
3177.302027416994
21
1691.137993042873
31
0.0
0
LINE
5
8bc
100
AcDbEntity
8
0-0
6
CONTINUOUS
62
7
100
AcDbLine
10
3231.863920692852
20
1337.737570505012
30
0.0
11
3232.050718125334
21
1338.805590604373
31
0.0
0
LINE
5
8bd
100
AcDbEntity
8
0-0
6
CONTINUOUS
62
7
100
AcDbLine
10
3231.407266969089
20
1335.461954243056
30
0.0
11
3231.863920692852
21
1337.737570505012
31
0.0
0
LINE
5
8be
100
AcDbEntity
8
0-0
6
CONTINUOUS
62
7
100
AcDbLine
10
3230.837491861666
20
1332.987997004996
30
0.0
11
3231.407266969089
21
1335.461954243056
31
0.0
0
POLYLINE
5
8bf
100
AcDbEntity
8
0-0
6
CONTINUOUS
62
  7
100
AcDb2dPolyline
66
1
10
0.0
20
0.0
30
0.0
70
0
0
VERTEX
5
8c0
100
AcDbEntity
8
0-0
6
CONTINUOUS
62
  7
100
AcDbVertex
100
AcDb2dVertex
10
3242.975017722544
20
1137.737823970557
30
0.0
0
VERTEX
5
8c1
100
AcDbEntity
8
0-0
6
CONTINUOUS
62
  7
100
AcDbVertex
100
AcDb2dVertex
10
3242.246546451996
20
1142.385588020529
30
0.0
0
VERTEX
5
8c2
100
AcDbEntity
8
0-0
6
CONTINUOUS
62
  7
100
AcDbVertex
100
AcDb2dVertex
10
3240.993232570327
20
1150.398544330294
30
0.0
0
VERTEX
5
8c3
100
AcDbEntity
8
0-0
6
CONTINUOUS
62
  7
100
AcDbVertex
100
AcDb2dVertex
10
3239.747338320742
20
1158.410306242034
30
0.0
0
VERTEX
5
8c4
100
AcDbEntity
8
0-0
6
CONTINUOUS
62
  7
100
AcDbVertex
100
AcDb2dVertex
10
3238.513559672917
20
1166.420117807630
30
0.0
0
VERTEX
5
8c5
100
AcDbEntity
8
0-0
6
CONTINUOUS
62
  7
100
AcDbVertex
100
AcDb2dVertex
10
3237.296592596525
20
1174.427223078965
30
0.0
0
VERTEX
5
8c6
100
AcDbEntity
8
0-0
6
CONTINUOUS
62
  7
100
AcDbVertex
100
AcDb2dVertex
10
3236.101133061241
20
1182.430866107920
30
0.0
0
VERTEX
5
8c7
100
AcDbEntity
8
0-0
6
CONTINUOUS
62
  7
100
AcDbVertex
100
AcDb2dVertex
10
3235.419471742353
20
1187.071094782389
30
0.0
0
VERTEX
5
8c8
100
AcDbEntity
8
0-0
6
CONTINUOUS
62
  7
100
AcDbVertex
100
AcDb2dVertex
10
3234.421727818807
20
1193.982817730807
30
0.0
0
VERTEX
5
8c9
100
AcDbEntity
8
0-0
6
CONTINUOUS
62
  7
100
AcDbVertex
100
AcDb2dVertex
10
3232.754568532479
20
1205.899488025192
30
0.0
0
VERTEX
5
8ca
100
AcDbEntity
8
0-0
6
CONTINUOUS
62
  7
100
AcDbVertex
100
AcDb2dVertex
10
3231.158165402333
20
1217.828247941135
30
0.0
0
VERTEX
5
8cb
100
AcDbEntity
8
0-0
6
CONTINUOUS
62
  7
100
AcDbVertex
100
AcDb2dVertex
10
3229.636652231238
20
1229.783292666767
30
0.0
0
VERTEX
5
8cc
100
AcDbEntity
8
0-0
6
CONTINUOUS
62
  7
100
AcDbVertex
100
AcDb2dVertex
10
3228.194162822065
20
1241.778817390218
30
0.0
0
VERTEX
5
8cd
100
AcDbEntity
8
0-0
6
CONTINUOUS
62
  7
100
AcDbVertex
100
AcDb2dVertex
10
3226.834830977680
20
1253.829017299617
30
0.0
0
VERTEX
5
8ce
100
AcDbEntity
8
0-0
6
CONTINUOUS
62
  7
100
AcDbVertex
100
AcDb2dVertex
10
3226.086150237412
20
1260.848779059543
30
0.0
0
VERTEX
5
8cf
100
AcDbEntity
8
0-0
6
CONTINUOUS
62
  7
100
AcDbVertex
100
AcDb2dVertex
10
3225.575860601356
20
1265.855873578297
30
0.0
0
VERTEX
5
8d0
100
AcDbEntity
8
0-0
6
CONTINUOUS
62
  7
100
AcDbVertex
100
AcDb2dVertex
10
3224.800241215065
20
1274.505459306579
30
0.0
0
VERTEX
5
8d1
100
AcDbEntity
8
0-0
6
CONTINUOUS
62
  7
100
AcDbVertex
100
AcDb2dVertex
10
3224.280772047188
20
1282.819933514238
30
0.0
0
SEQEND
5
8d2
100
AcDbEntity
8
0-0
0
LINE
5
8d3
100
AcDbEntity
8
0-0
6
CONTINUOUS
62
7
100
AcDbLine
10
3251.551739735652
20
1114.994471375954
30
0.0
11
3251.551739735652
21
1089.994471375954
31
0.0
0
LINE
5
8d4
100
AcDbEntity
8
0-0
6
CONTINUOUS
62
7
100
AcDbLine
10
3187.743981534296
20
1118.454239391094
30
0.0
11
3187.743981534296
21
1086.454239391094
31
0.0
0
ARC
5
8d5
100
AcDbEntity
8
0-0
6
CONTINUOUS
62
7
100
AcDbCircle
10
3175.743981534296
20
1086.454239391094
30
0.0
40
12.000000000000
100
AcDbArc
50
270.000000000000
51
360.000000000000
0
ARC
5
8d6
100
AcDbEntity
8
0-0
6
CONTINUOUS
62
7
100
AcDbCircle
10
3175.743981534296
20
1118.454239391094
30
0.0
40
12.000000000000
100
AcDbArc
50
0.000000000000
51
90.000000000000
0
LINE
5
8d7
100
AcDbEntity
8
0-0
6
CONTINUOUS
62
7
100
AcDbLine
10
3176.026684704251
20
1130.205945593653
30
0.0
11
3176.026684704251
21
1074.600257608792
31
0.0
0
LINE
5
8d8
100
AcDbEntity
8
0-0
6
CONTINUOUS
62
7
100
AcDbLine
10
3222.259273952522
20
1089.994471375953
30
0.0
11
3222.259273952522
21
1114.994471375953
31
0.0
0
LINE
5
8d9
100
AcDbEntity
8
0-0
6
CONTINUOUS
62
7
100
AcDbLine
10
3214.259273952521
20
1114.994471375953
30
0.0
11
3214.259273952521
21
1089.994471375953
31
0.0
0
ARC
5
8da
100
AcDbEntity
8
0-0
6
CONTINUOUS
62
7
100
AcDbCircle
10
3218.298951879607
20
1102.445211629027
30
0.0
40
13.134414676531
100
AcDbArc
50
72.702435514475
51
107.723236616886
0
ARC
5
8db
100
AcDbEntity
8
0-0
6
CONTINUOUS
62
7
100
AcDbCircle
10
3218.298951879607
20
1102.445211629027
30
0.0
40
13.134414676531
100
AcDbArc
50
251.982390785310
51
287.478114533726
0
CIRCLE
5
8dc
100
AcDbEntity
8
0-0
6
CONTINUOUS
62
7
100
AcDbCircle
10
3218.286234173972
20
1102.461669836321
30
0.0
40
3.389457447208
0
ARC
5
8dd
100
AcDbEntity
8
0-0
6
CONTINUOUS
62
7
100
AcDbCircle
10
3218.282970633237
20
1089.793075948785
30
0.0
40
3.389457447208
100
AcDbArc
50
0.021929785002
51
180.028490417393
0
ARC
5
8de
100
AcDbEntity
8
0-0
6
CONTINUOUS
62
7
100
AcDbCircle
10
3218.296734885892
20
1115.102436791563
30
0.0
40
3.389457447208
100
AcDbArc
50
180.232247779006
51
359.660169619824
0
LINE
5
8df
100
AcDbEntity
8
0-0
6
CONTINUOUS
62
7
100
AcDbLine
10
3188.221275049312
20
1094.454239391095
30
0.0
11
3214.120852612130
21
1094.454239391095
31
0.0
0
LINE
5
8e0
100
AcDbEntity
8
0-0
6
CONTINUOUS
62
7
100
AcDbLine
10
3187.973045668656
20
1110.454239391095
30
0.0
11
3214.186732276281
21
1110.454239391095
31
0.0
0
LINE
5
8e1
100
AcDbEntity
8
0-0
6
CONTINUOUS
62
7
100
AcDbLine
10
3226.615687613547
20
1137.460626344153
30
0.0
11
3246.615687613547
21
1137.460626344154
31
0.0
0
LINE
5
8e2
100
AcDbEntity
8
0-0
6
CONTINUOUS
62
7
100
AcDbLine
10
3227.730616926805
20
1123.460626344153
30
0.0
11
3245.500758300284
21
1123.460626344154
31
0.0
0
LINE
5
8e3
100
AcDbEntity
8
0-0
6
CONTINUOUS
62
7
100
AcDbLine
10
3226.615687613547
20
1125.460626344153
30
0.0
11
3246.615687613547
21
1125.460626344154
31
0.0
0
ARC
5
8e4
100
AcDbEntity
8
0-0
6
CONTINUOUS
62
7
100
AcDbCircle
10
3219.088501896088
20
1131.460626344153
30
0.0
40
9.625929816131
100
AcDbArc
50
321.441277284353
51
398.558722715647
0
ARC
5
8e5
100
AcDbEntity
8
0-0
6
CONTINUOUS
62
7
100
AcDbCircle
10
3234.273470540298
20
1131.460626344153
30
0.0
40
6.440961171922
100
AcDbArc
50
291.324157753203
51
428.675842246797
0
ARC
5
8e6
100
AcDbEntity
8
0-0
6
CONTINUOUS
62
7
100
AcDbCircle
10
3238.957904686791
20
1131.460626344153
30
0.0
40
6.440961171922
100
AcDbArc
50
111.324157753203
51
248.675842246797
0
ARC
5
8e7
100
AcDbEntity
8
0-0
6
CONTINUOUS
62
7
100
AcDbCircle
10
3234.142873331003
20
1131.460626344153
30
0.0
40
9.625929816131
100
AcDbArc
50
141.441277284353
51
218.558722715647
0
ARC
5
8e8
100
AcDbEntity
8
0-0
6
CONTINUOUS
62
7
100
AcDbCircle
10
3254.142873331003
20
1131.460626344153
30
0.0
40
9.625929816131
100
AcDbArc
50
141.441277284353
51
218.558722715647
0
ARC
5
8e9
100
AcDbEntity
8
0-0
6
CONTINUOUS
62
7
100
AcDbCircle
10
3239.088501896088
20
1131.460626344153
30
0.0
40
9.625929816131
100
AcDbArc
50
321.441277284353
51
398.558722715647
0
POLYLINE
5
8ea
100
AcDbEntity
8
0-0
6
CONTINUOUS
62
  7
100
AcDb2dPolyline
66
1
10
0.0
20
0.0
30
0.0
70
0
0
VERTEX
5
8eb
100
AcDbEntity
8
0-0
6
CONTINUOUS
62
  7
100
AcDbVertex
100
AcDb2dVertex
10
3222.293816019120
20
1114.908802130356
30
0.0
0
VERTEX
5
8ec
100
AcDbEntity
8
0-0
6
CONTINUOUS
62
  7
100
AcDbVertex
100
AcDb2dVertex
10
3222.443158766334
20
1115.061577568161
30
0.0
0
VERTEX
5
8ed
100
AcDbEntity
8
0-0
6
CONTINUOUS
62
  7
100
AcDbVertex
100
AcDb2dVertex
10
3222.700364189176
20
1115.325075667163
30
0.0
0
VERTEX
5
8ee
100
AcDbEntity
8
0-0
6
CONTINUOUS
62
  7
100
AcDbVertex
100
AcDb2dVertex
10
3222.956786077701
20
1115.588829798808
30
0.0
0
VERTEX
5
8ef
100
AcDbEntity
8
0-0
6
CONTINUOUS
62
  7
100
AcDbVertex
100
AcDb2dVertex
10
3223.211928524114
20
1115.853002009072
30
0.0
0
VERTEX
5
8f0
100
AcDbEntity
8
0-0
6
CONTINUOUS
62
  7
100
AcDbVertex
100
AcDb2dVertex
10
3223.465295620620
20
1116.117754343934
30
0.0
0
VERTEX
5
8f1
100
AcDbEntity
8
0-0
6
CONTINUOUS
62
  7
100
AcDbVertex
100
AcDb2dVertex
10
3223.716391459423
20
1116.383248849369
30
0.0
0
VERTEX
5
8f2
100
AcDbEntity
8
0-0
6
CONTINUOUS
62
  7
100
AcDbVertex
100
AcDb2dVertex
10
3223.964720132728
20
1116.649647571354
30
0.0
0
VERTEX
5
8f3
100
AcDbEntity
8
0-0
6
CONTINUOUS
62
  7
100
AcDbVertex
100
AcDb2dVertex
10
3224.209785732740
20
1116.917112555866
30
0.0
0
VERTEX
5
8f4
100
AcDbEntity
8
0-0
6
CONTINUOUS
62
  7
100
AcDbVertex
100
AcDb2dVertex
10
3224.451092351664
20
1117.185805848883
30
0.0
0
VERTEX
5
8f5
100
AcDbEntity
8
0-0
6
CONTINUOUS
62
  7
100
AcDbVertex
100
AcDb2dVertex
10
3224.688144081702
20
1117.455889496380
30
0.0
0
VERTEX
5
8f6
100
AcDbEntity
8
0-0
6
CONTINUOUS
62
  7
100
AcDbVertex
100
AcDb2dVertex
10
3224.920445015062
20
1117.727525544334
30
0.0
0
VERTEX
5
8f7
100
AcDbEntity
8
0-0
6
CONTINUOUS
62
  7
100
AcDbVertex
100
AcDb2dVertex
10
3225.147499243946
20
1118.000876038722
30
0.0
0
VERTEX
5
8f8
100
AcDbEntity
8
0-0
6
CONTINUOUS
62
  7
100
AcDbVertex
100
AcDb2dVertex
10
3225.368810860561
20
1118.276103025521
30
0.0
0
VERTEX
5
8f9
100
AcDbEntity
8
0-0
6
CONTINUOUS
62
  7
100
AcDbVertex
100
AcDb2dVertex
10
3225.583883957110
20
1118.553368550707
30
0.0
0
VERTEX
5
8fa
100
AcDbEntity
8
0-0
6
CONTINUOUS
62
  7
100
AcDbVertex
100
AcDb2dVertex
10
3225.792222625798
20
1118.832834660258
30
0.0
0
VERTEX
5
8fb
100
AcDbEntity
8
0-0
6
CONTINUOUS
62
  7
100
AcDbVertex
100
AcDb2dVertex
10
3225.993330958830
20
1119.114663400149
30
0.0
0
VERTEX
5
8fc
100
AcDbEntity
8
0-0
6
CONTINUOUS
62
  7
100
AcDbVertex
100
AcDb2dVertex
10
3226.186713048410
20
1119.399016816359
30
0.0
0
VERTEX
5
8fd
100
AcDbEntity
8
0-0
6
CONTINUOUS
62
  7
100
AcDbVertex
100
AcDb2dVertex
10
3226.371872986744
20
1119.686056954863
30
0.0
0
VERTEX
5
8fe
100
AcDbEntity
8
0-0
6
CONTINUOUS
62
  7
100
AcDbVertex
100
AcDb2dVertex
10
3226.548314866035
20
1119.975945861638
30
0.0
0
VERTEX
5
8ff
100
AcDbEntity
8
0-0
6
CONTINUOUS
62
  7
100
AcDbVertex
100
AcDb2dVertex
10
3226.715542778488
20
1120.268845582662
30
0.0
0
VERTEX
5
900
100
AcDbEntity
8
0-0
6
CONTINUOUS
62
  7
100
AcDbVertex
100
AcDb2dVertex
10
3226.873060816309
20
1120.564918163910
30
0.0
0
VERTEX
5
901
100
AcDbEntity
8
0-0
6
CONTINUOUS
62
  7
100
AcDbVertex
100
AcDb2dVertex
10
3227.020373071701
20
1120.864325651360
30
0.0
0
VERTEX
5
902
100
AcDbEntity
8
0-0
6
CONTINUOUS
62
  7
100
AcDbVertex
100
AcDb2dVertex
10
3227.156983636870
20
1121.167230090987
30
0.0
0
VERTEX
5
903
100
AcDbEntity
8
0-0
6
CONTINUOUS
62
  7
100
AcDbVertex
100
AcDb2dVertex
10
3227.282396604020
20
1121.473793528771
30
0.0
0
VERTEX
5
904
100
AcDbEntity
8
0-0
6
CONTINUOUS
62
  7
100
AcDbVertex
100
AcDb2dVertex
10
3227.396116065355
20
1121.784178010686
30
0.0
0
VERTEX
5
905
100
AcDbEntity
8
0-0
6
CONTINUOUS
62
  7
100
AcDbVertex
100
AcDb2dVertex
10
3227.497646113080
20
1122.098545582709
30
0.0
0
VERTEX
5
906
100
AcDbEntity
8
0-0
6
CONTINUOUS
62
  7
100
AcDbVertex
100
AcDb2dVertex
10
3227.586490839401
20
1122.417058290818
30
0.0
0
VERTEX
5
907
100
AcDbEntity
8
0-0
6
CONTINUOUS
62
  7
100
AcDbVertex
100
AcDb2dVertex
10
3227.662154336521
20
1122.739878180989
30
0.0
0
VERTEX
5
908
100
AcDbEntity
8
0-0
6
CONTINUOUS
62
  7
100
AcDbVertex
100
AcDb2dVertex
10
3227.724140696645
20
1123.067167299198
30
0.0
0
VERTEX
5
909
100
AcDbEntity
8
0-0
6
CONTINUOUS
62
  7
100
AcDbVertex
100
AcDb2dVertex
10
3227.753630507887
20
1123.259106642588
30
0.0
0
VERTEX
5
90a
100
AcDbEntity
8
0-0
6
CONTINUOUS
62
  7
100
AcDbVertex
100
AcDb2dVertex
10
3227.759057140416
20
1123.298486958947
30
0.0
0
VERTEX
5
90b
100
AcDbEntity
8
0-0
6
CONTINUOUS
62
  7
100
AcDbVertex
100
AcDb2dVertex
10
3227.767948998954
20
1123.366535807858
30
0.0
0
VERTEX
5
90c
100
AcDbEntity
8
0-0
6
CONTINUOUS
62
  7
100
AcDbVertex
100
AcDb2dVertex
10
3227.776270779934
20
1123.434770938928
30
0.0
0
VERTEX
5
90d
100
AcDbEntity
8
0-0
6
CONTINUOUS
62
  7
100
AcDbVertex
100
AcDb2dVertex
10
3227.784043153317
20
1123.503185597909
30
0.0
0
VERTEX
5
90e
100
AcDbEntity
8
0-0
6
CONTINUOUS
62
  7
100
AcDbVertex
100
AcDb2dVertex
10
3227.791286789067
20
1123.571773030553
30
0.0
0
VERTEX
5
90f
100
AcDbEntity
8
0-0
6
CONTINUOUS
62
  7
100
AcDbVertex
100
AcDb2dVertex
10
3227.798022357146
20
1123.640526482613
30
0.0
0
VERTEX
5
910
100
AcDbEntity
8
0-0
6
CONTINUOUS
62
  7
100
AcDbVertex
100
AcDb2dVertex
10
3227.804270527516
20
1123.709439199839
30
0.0
0
VERTEX
5
911
100
AcDbEntity
8
0-0
6
CONTINUOUS
62
  7
100
AcDbVertex
100
AcDb2dVertex
10
3227.810051970138
20
1123.778504427984
30
0.0
0
VERTEX
5
912
100
AcDbEntity
8
0-0
6
CONTINUOUS
62
  7
100
AcDbVertex
100
AcDb2dVertex
10
3227.815387354975
20
1123.847715412800
30
0.0
0
VERTEX
5
913
100
AcDbEntity
8
0-0
6
CONTINUOUS
62
  7
100
AcDbVertex
100
AcDb2dVertex
10
3227.820297351990
20
1123.917065400040
30
0.0
0
VERTEX
5
914
100
AcDbEntity
8
0-0
6
CONTINUOUS
62
  7
100
AcDbVertex
100
AcDb2dVertex
10
3227.824802631145
20
1123.986547635454
30
0.0
0
VERTEX
5
915
100
AcDbEntity
8
0-0
6
CONTINUOUS
62
  7
100
AcDbVertex
100
AcDb2dVertex
10
3227.828923862401
20
1124.056155364796
30
0.0
0
VERTEX
5
916
100
AcDbEntity
8
0-0
6
CONTINUOUS
62
  7
100
AcDbVertex
100
AcDb2dVertex
10
3227.832681715722
20
1124.125881833817
30
0.0
0
VERTEX
5
917
100
AcDbEntity
8
0-0
6
CONTINUOUS
62
  7
100
AcDbVertex
100
AcDb2dVertex
10
3227.836096861069
20
1124.195720288269
30
0.0
0
VERTEX
5
918
100
AcDbEntity
8
0-0
6
CONTINUOUS
62
  7
100
AcDbVertex
100
AcDb2dVertex
10
3227.839189968404
20
1124.265663973905
30
0.0
0
VERTEX
5
919
100
AcDbEntity
8
0-0
6
CONTINUOUS
62
  7
100
AcDbVertex
100
AcDb2dVertex
10
3227.841981707691
20
1124.335706136476
30
0.0
0
VERTEX
5
91a
100
AcDbEntity
8
0-0
6
CONTINUOUS
62
  7
100
AcDbVertex
100
AcDb2dVertex
10
3227.844492748890
20
1124.405840021734
30
0.0
0
VERTEX
5
91b
100
AcDbEntity
8
0-0
6
CONTINUOUS
62
  7
100
AcDbVertex
100
AcDb2dVertex
10
3227.846743761964
20
1124.476058875432
30
0.0
0
VERTEX
5
91c
100
AcDbEntity
8
0-0
6
CONTINUOUS
62
  7
100
AcDbVertex
100
AcDb2dVertex
10
3227.848755416876
20
1124.546355943321
30
0.0
0
VERTEX
5
91d
100
AcDbEntity
8
0-0
6
CONTINUOUS
62
  7
100
AcDbVertex
100
AcDb2dVertex
10
3227.850548383588
20
1124.616724471154
30
0.0
0
VERTEX
5
91e
100
AcDbEntity
8
0-0
6
CONTINUOUS
62
  7
100
AcDbVertex
100
AcDb2dVertex
10
3227.852143332061
20
1124.687157704682
30
0.0
0
VERTEX
5
91f
100
AcDbEntity
8
0-0
6
CONTINUOUS
62
  7
100
AcDbVertex
100
AcDb2dVertex
10
3227.853560932259
20
1124.757648889658
30
0.0
0
VERTEX
5
920
100
AcDbEntity
8
0-0
6
CONTINUOUS
62
  7
100
AcDbVertex
100
AcDb2dVertex
10
3227.854821854143
20
1124.828191271833
30
0.0
0
VERTEX
5
921
100
AcDbEntity
8
0-0
6
CONTINUOUS
62
  7
100
AcDbVertex
100
AcDb2dVertex
10
3227.855946767675
20
1124.898778096960
30
0.0
0
VERTEX
5
922
100
AcDbEntity
8
0-0
6
CONTINUOUS
62
  7
100
AcDbVertex
100
AcDb2dVertex
10
3227.856956342818
20
1124.969402610791
30
0.0
0
VERTEX
5
923
100
AcDbEntity
8
0-0
6
CONTINUOUS
62
  7
100
AcDbVertex
100
AcDb2dVertex
10
3227.857871249535
20
1125.040058059077
30
0.0
0
VERTEX
5
924
100
AcDbEntity
8
0-0
6
CONTINUOUS
62
  7
100
AcDbVertex
100
AcDb2dVertex
10
3227.858712157786
20
1125.110737687571
30
0.0
0
VERTEX
5
925
100
AcDbEntity
8
0-0
6
CONTINUOUS
62
  7
100
AcDbVertex
100
AcDb2dVertex
10
3227.859499737535
20
1125.181434742025
30
0.0
0
VERTEX
5
926
100
AcDbEntity
8
0-0
6
CONTINUOUS
62
  7
100
AcDbVertex
100
AcDb2dVertex
10
3227.860254658744
20
1125.252142468190
30
0.0
0
VERTEX
5
927
100
AcDbEntity
8
0-0
6
CONTINUOUS
62
  7
100
AcDbVertex
100
AcDb2dVertex
10
3227.860685693941
20
1125.293155177620
30
0.0
0
SEQEND
5
928
100
AcDbEntity
8
0-0
0
ARC
5
929
100
AcDbEntity
8
0-0
6
CONTINUOUS
62
7
100
AcDbCircle
10
3255.591417662738
20
1102.445211629028
30
0.0
40
13.134414676531
100
AcDbArc
50
72.702435514475
51
107.723236616886
0
ARC
5
92a
100
AcDbEntity
8
0-0
6
CONTINUOUS
62
7
100
AcDbCircle
10
3255.591417662738
20
1102.445211629028
30
0.0
40
13.134414676531
100
AcDbArc
50
251.982390785310
51
287.478114533726
0
CIRCLE
5
92b
100
AcDbEntity
8
0-0
6
CONTINUOUS
62
7
100
AcDbCircle
10
3255.578699957101
20
1102.461669836321
30
0.0
40
3.389457447208
0
ARC
5
92c
100
AcDbEntity
8
0-0
6
CONTINUOUS
62
7
100
AcDbCircle
10
3255.575436416368
20
1089.793075948785
30
0.0
40
3.389457447208
100
AcDbArc
50
0.021929785002
51
180.028490417393
0
ARC
5
92d
100
AcDbEntity
8
0-0
6
CONTINUOUS
62
7
100
AcDbCircle
10
3255.589200669022
20
1115.102436791563
30
0.0
40
3.389457447208
100
AcDbArc
50
180.232247779006
51
359.660169619824
0
LINE
5
92e
100
AcDbEntity
8
0-0
6
CONTINUOUS
62
7
100
AcDbLine
10
3259.278123528172
20
1090.097057825567
30
0.0
11
3259.278123528172
21
1114.964933423951
31
0.0
0
LINE
5
92f
100
AcDbEntity
8
0-0
6
CONTINUOUS
62
7
100
AcDbLine
10
3222.326060620272
20
1090.254213798712
30
0.0
11
3251.475137830753
21
1090.254213798712
31
0.0
0
POLYLINE
5
930
100
AcDbEntity
8
0-0
6
CONTINUOUS
62
  7
100
AcDb2dPolyline
66
1
10
0.0
20
0.0
30
0.0
70
0
0
VERTEX
5
931
100
AcDbEntity
8
0-0
6
CONTINUOUS
62
  7
100
AcDbVertex
100
AcDb2dVertex
10
3245.351488305380
20
1125.372019693163
30
0.0
0
VERTEX
5
932
100
AcDbEntity
8
0-0
6
CONTINUOUS
62
  7
100
AcDbVertex
100
AcDb2dVertex
10
3245.573321566697
20
1124.686614216949
30
0.0
0
VERTEX
5
933
100
AcDbEntity
8
0-0
6
CONTINUOUS
62
  7
100
AcDbVertex
100
AcDb2dVertex
10
3245.965089874237
20
1123.510906299463
30
0.0
0
VERTEX
5
934
100
AcDbEntity
8
0-0
6
CONTINUOUS
62
  7
100
AcDbVertex
100
AcDb2dVertex
10
3246.382683646602
20
1122.351936332514
30
0.0
0
VERTEX
5
935
100
AcDbEntity
8
0-0
6
CONTINUOUS
62
  7
100
AcDbVertex
100
AcDb2dVertex
10
3246.842448114699
20
1121.220297955683
30
0.0
0
VERTEX
5
936
100
AcDbEntity
8
0-0
6
CONTINUOUS
62
  7
100
AcDbVertex
100
AcDb2dVertex
10
3247.360728509428
20
1120.126584808549
30
0.0
0
VERTEX
5
937
100
AcDbEntity
8
0-0
6
CONTINUOUS
62
  7
100
AcDbVertex
100
AcDb2dVertex
10
3247.953870061693
20
1119.081390530694
30
0.0
0
VERTEX
5
938
100
AcDbEntity
8
0-0
6
CONTINUOUS
62
  7
100
AcDbVertex
100
AcDb2dVertex
10
3248.338634415318
20
1118.501583640305
30
0.0
0
VERTEX
5
939
100
AcDbEntity
8
0-0
6
CONTINUOUS
62
  7
100
AcDbVertex
100
AcDb2dVertex
10
3248.594049185448
20
1118.152274404254
30
0.0
0
VERTEX
5
93a
100
AcDbEntity
8
0-0
6
CONTINUOUS
62
  7
100
AcDbVertex
100
AcDb2dVertex
10
3249.061501317568
20
1117.567569329929
30
0.0
0
VERTEX
5
93b
100
AcDbEntity
8
0-0
6
CONTINUOUS
62
  7
100
AcDbVertex
100
AcDb2dVertex
10
3249.557814865748
20
1117.001569861010
30
0.0
0
VERTEX
5
93c
100
AcDbEntity
8
0-0
6
CONTINUOUS
62
  7
100
AcDbVertex
100
AcDb2dVertex
10
3250.076688210763
20
1116.450191804176
30
0.0
0
VERTEX
5
93d
100
AcDbEntity
8
0-0
6
CONTINUOUS
62
  7
100
AcDbVertex
100
AcDb2dVertex
10
3250.611819733384
20
1115.909350966108
30
0.0
0
VERTEX
5
93e
100
AcDbEntity
8
0-0
6
CONTINUOUS
62
  7
100
AcDbVertex
100
AcDb2dVertex
10
3251.156907814384
20
1115.374963153485
30
0.0
0
VERTEX
5
93f
100
AcDbEntity
8
0-0
6
CONTINUOUS
62
  7
100
AcDbVertex
100
AcDb2dVertex
10
3251.475137830753
20
1115.066365613876
30
0.0
0
SEQEND
5
940
100
AcDbEntity
8
0-0
0
POLYLINE
5
941
100
AcDbEntity
8
0-0
6
CONTINUOUS
62
  7
100
AcDb2dPolyline
66
1
10
0.0
20
0.0
30
0.0
70
0
0
VERTEX
5
942
100
AcDbEntity
8
0-0
6
CONTINUOUS
62
  7
100
AcDbVertex
100
AcDb2dVertex
10
3259.274370329328
20
1089.925424603603
30
0.0
0
VERTEX
5
943
100
AcDbEntity
8
0-0
6
CONTINUOUS
62
  7
100
AcDbVertex
100
AcDb2dVertex
10
3259.549518101133
20
1090.397493697701
30
0.0
0
VERTEX
5
944
100
AcDbEntity
8
0-0
6
CONTINUOUS
62
  7
100
AcDbVertex
100
AcDb2dVertex
10
3260.026657348577
20
1091.209398802880
30
0.0
0
VERTEX
5
945
100
AcDbEntity
8
0-0
6
CONTINUOUS
62
  7
100
AcDbVertex
100
AcDb2dVertex
10
3260.511425866676
20
1092.015728557990
30
0.0
0
VERTEX
5
946
100
AcDbEntity
8
0-0
6
CONTINUOUS
62
  7
100
AcDbVertex
100
AcDb2dVertex
10
3261.008652307743
20
1092.812954260455
30
0.0
0
VERTEX
5
947
100
AcDbEntity
8
0-0
6
CONTINUOUS
62
  7
100
AcDbVertex
100
AcDb2dVertex
10
3261.523165324091
20
1093.597547207701
30
0.0
0
VERTEX
5
948
100
AcDbEntity
8
0-0
6
CONTINUOUS
62
  7
100
AcDbVertex
100
AcDb2dVertex
10
3262.059793568033
20
1094.365978697152
30
0.0
0
SEQEND
5
949
100
AcDbEntity
8
0-0
0
POLYLINE
5
94a
100
AcDbEntity
8
0-0
6
CONTINUOUS
62
  7
100
AcDb2dPolyline
66
1
10
0.0
20
0.0
30
0.0
70
0
0
VERTEX
5
94b
100
AcDbEntity
8
0-0
6
CONTINUOUS
62
  7
100
AcDbVertex
100
AcDb2dVertex
10
3259.327968666528
20
1115.063044750206
30
0.0
0
VERTEX
5
94c
100
AcDbEntity
8
0-0
6
CONTINUOUS
62
  7
100
AcDbVertex
100
AcDb2dVertex
10
3259.586655577681
20
1114.571479207787
30
0.0
0
VERTEX
5
94d
100
AcDbEntity
8
0-0
6
CONTINUOUS
62
  7
100
AcDbVertex
100
AcDb2dVertex
10
3260.036410282683
20
1113.726641156412
30
0.0
0
VERTEX
5
94e
100
AcDbEntity
8
0-0
6
CONTINUOUS
62
  7
100
AcDbVertex
100
AcDb2dVertex
10
3260.496561624405
20
1112.889271843645
30
0.0
0
VERTEX
5
94f
100
AcDbEntity
8
0-0
6
CONTINUOUS
62
  7
100
AcDbVertex
100
AcDb2dVertex
10
3260.973689752673
20
1112.064098319238
30
0.0
0
VERTEX
5
950
100
AcDbEntity
8
0-0
6
CONTINUOUS
62
  7
100
AcDbVertex
100
AcDb2dVertex
10
3261.474374817308
20
1111.255847632942
30
0.0
0
VERTEX
5
951
100
AcDbEntity
8
0-0
6
CONTINUOUS
62
  7
100
AcDbVertex
100
AcDb2dVertex
10
3262.005196968134
20
1110.469246834509
30
0.0
0
SEQEND
5
952
100
AcDbEntity
8
0-0
0
ARC
5
953
100
AcDbEntity
8
0-0
6
CONTINUOUS
62
7
100
AcDbCircle
10
5129.940757535997
20
2813.878817891749
30
0.0
40
49.590000000000
100
AcDbArc
50
289.215211229177
51
407.407617974636
0
ARC
5
954
100
AcDbEntity
8
0-0
6
CONTINUOUS
62
7
100
AcDbCircle
10
5811.437135830519
20
2978.017817891750
30
0.0
40
1048.834500000000
100
AcDbArc
50
196.073242530981
51
198.602633902005
0
ARC
5
955
100
AcDbEntity
8
0-0
6
CONTINUOUS
62
7
100
AcDbCircle
10
5183.991635830518
20
2783.530817891749
30
0.0
40
392.449500000000
100
AcDbArc
50
200.914497881524
51
209.296797664938
0
ARC
5
956
100
AcDbEntity
8
0-0
6
CONTINUOUS
62
7
100
AcDbCircle
10
4857.162635830518
20
2595.471317891750
30
0.0
40
15.930000000000
100
AcDbArc
50
194.465578023605
51
332.859398875895
0
ARC
5
957
100
AcDbEntity
8
0-0
6
CONTINUOUS
62
7
100
AcDbCircle
10
4683.498635830519
20
2783.137817891749
30
0.0
40
270.708000000000
100
AcDbArc
50
313.938609283033
51
326.447592461258
0
ARC
5
958
100
AcDbEntity
8
0-0
6
CONTINUOUS
62
7
100
AcDbCircle
10
4930.430135830519
20
2533.528817891750
30
0.0
40
37.137000000000
100
AcDbArc
50
77.551408361744
51
171.451669191828
0
ARC
5
959
100
AcDbEntity
8
0-0
6
CONTINUOUS
62
7
100
AcDbCircle
10
4914.641135830518
20
2799.328817891749
30
0.0
40
230.766000000000
100
AcDbArc
50
275.918314689523
51
298.273400077534
0
ARC
5
95a
100
AcDbEntity
8
0-0
6
CONTINUOUS
62
7
100
AcDbCircle
10
-1291.536864169483
20
5410.242317891750
30
0.0
40
6914.101499999999
100
AcDbArc
50
335.982502639418
51
336.785327818138
0
ARC
5
95b
100
AcDbEntity
8
0-0
6
CONTINUOUS
62
7
100
AcDbCircle
10
5045.610635830519
20
2696.836817891750
30
0.0
40
20.916000000000
100
AcDbArc
50
325.071931663732
51
488.813636359270
0
ARC
5
95c
100
AcDbEntity
8
0-0
6
CONTINUOUS
62
7
100
AcDbCircle
10
5145.702635830518
20
2503.581317891750
30
0.0
40
238.174500000000
100
AcDbArc
50
118.378268784508
51
139.448470633419
0
ARC
5
95d
100
AcDbEntity
8
0-0
6
CONTINUOUS
62
7
100
AcDbCircle
10
4869.396635830519
20
2796.772817891750
30
0.0
40
168.015000000000
100
AcDbArc
50
267.091696444746
51
304.571467916752
0
ARC
5
95e
100
AcDbEntity
8
0-0
6
CONTINUOUS
62
7
100
AcDbCircle
10
4677.567635830519
20
2890.231817891749
30
0.0
40
173.437500000000
100
AcDbArc
50
183.696731474777
51
198.901083544539
0
ARC
5
95f
100
AcDbEntity
8
0-0
6
CONTINUOUS
62
7
100
AcDbCircle
10
4951.139135830519
20
2987.260817891749
30
0.0
40
463.699500000000
100
AcDbArc
50
199.293718536588
51
226.320659462472
0
ARC
5
960
100
AcDbEntity
8
0-0
6
CONTINUOUS
62
7
100
AcDbCircle
10
4390.727135830520
20
2488.476317891750
30
0.0
40
290.502000000000
100
AcDbArc
50
5.050311082636
51
34.234086439454
0
ARC
5
961
100
AcDbEntity
8
0-0
6
CONTINUOUS
62
7
100
AcDbCircle
10
4797.387635830519
20
2924.394317891749
30
0.0
40
236.844000000000
100
AcDbArc
50
265.926281022495
51
333.930539607221
0
ARC
5
962
100
AcDbEntity
8
0-0
6
CONTINUOUS
62
7
100
AcDbCircle
10
4842.621635830519
20
2763.592817891749
30
0.0
40
126.372000000000
100
AcDbArc
50
278.303250051058
51
318.897115674370
0
ARC
5
963
100
AcDbEntity
8
0-0
6
CONTINUOUS
62
7
100
AcDbCircle
10
4931.349635830519
20
2691.015317891749
30
0.0
40
12.346500000000
100
AcDbArc
50
301.747236143935
51
464.440666598862
0
ARC
5
964
100
AcDbEntity
8
0-0
6
CONTINUOUS
62
7
100
AcDbCircle
10
4965.879635830519
20
2579.425817891750
30
0.0
40
129.144000000000
100
AcDbArc
50
106.930831775299
51
144.121394887908
0
ARC
5
965
100
AcDbEntity
8
0-0
6
CONTINUOUS
62
7
100
AcDbCircle
10
4882.461635830519
20
2633.146817891749
30
0.0
40
30.543000000000
100
AcDbArc
50
134.011804775914
51
213.074593312282
0
ARC
5
966
100
AcDbEntity
8
0-0
6
CONTINUOUS
62
7
100
AcDbCircle
10
4859.223635830519
20
2639.451317891750
30
0.0
40
23.092500000000
100
AcDbArc
50
264.145060195349
51
333.326400186627
0
ARC
5
967
100
AcDbEntity
8
0-0
6
CONTINUOUS
62
7
100
AcDbCircle
10
5222.327135830519
20
3186.520817891749
30
0.0
40
2.172000000000
100
AcDbArc
50
285.762000000000
51
364.544000000000
0
LINE
5
968
100
AcDbEntity
8
0-0
6
CONTINUOUS
62
7
100
AcDbLine
10
4527.651635830520
20
2915.008830970476
30
0.0
11
4942.229135830519
21
2917.797330970476
31
0.0
0
LINE
5
969
100
AcDbEntity
8
0-0
6
CONTINUOUS
62
7
100
AcDbLine
10
4518.356135830519
20
2903.100330970476
30
0.0
11
4954.923635830519
21
2904.042330970476
31
0.0
0
LINE
5
96a
100
AcDbEntity
8
0-0
6
CONTINUOUS
62
7
100
AcDbLine
10
4517.211635830518
20
2916.579330970476
30
0.0
11
4942.526135830519
21
2919.690330970476
31
0.0
0
LINE
5
96b
100
AcDbEntity
8
0-0
6
CONTINUOUS
62
7
100
AcDbLine
10
4984.697135830519
20
2908.003830970476
30
0.0
11
4984.697135830519
21
2903.004330970476
31
0.0
0
LINE
5
96c
100
AcDbEntity
8
0-0
6
CONTINUOUS
62
7
100
AcDbLine
10
4964.286635830518
20
2903.004330970476
30
0.0
11
4984.697135830519
21
2903.004330970476
31
0.0
0
LINE
5
96d
100
AcDbEntity
8
0-0
6
CONTINUOUS
62
7
100
AcDbLine
10
4969.697135830519
20
2908.003830970476
30
0.0
11
4984.697135830519
21
2908.003830970476
31
0.0
0
LINE
5
96e
100
AcDbEntity
8
0-0
6
CONTINUOUS
62
7
100
AcDbLine
10
4969.697135830519
20
2908.003830970476
30
0.0
11
4962.497135830518
21
2915.205330970476
31
0.0
0
LINE
5
96f
100
AcDbEntity
8
0-0
6
CONTINUOUS
62
7
100
AcDbLine
10
4964.286635830518
20
2903.004330970476
30
0.0
11
4957.724135830518
21
2909.566830970476
31
0.0
0
ARC
5
970
100
AcDbEntity
8
0-0
6
CONTINUOUS
62
7
100
AcDbCircle
10
4818.018635830518
20
-2097.824669029525
30
0.0
40
5034.549000000000
100
AcDbArc
50
88.536978152678
51
93.021519327554
0
ARC
5
971
100
AcDbEntity
8
0-0
6
CONTINUOUS
62
7
100
AcDbCircle
10
4577.093135830519
20
2697.820830970476
30
0.0
40
233.188500000000
100
AcDbArc
50
96.018909755965
51
104.916138853766
0
ARC
5
972
100
AcDbEntity
8
0-0
6
CONTINUOUS
62
7
100
AcDbCircle
10
4954.923635830519
20
2916.775830970476
30
0.0
40
12.735000000000
100
AcDbArc
50
334.469000000000
51
660.829000000000
0
ARC
5
973
100
AcDbEntity
8
0-0
6
CONTINUOUS
62
7
100
AcDbCircle
10
4954.923635830519
20
2916.775830970476
30
0.0
40
7.734000000000
100
AcDbArc
50
348.281000000000
51
651.229000000000
0
ARC
5
974
100
AcDbEntity
8
0-0
6
CONTINUOUS
62
7
100
AcDbCircle
10
4948.139135830519
20
2919.028830970476
30
0.0
40
16.131000000000
100
AcDbArc
50
65.982000000000
51
95.623000000000
0
ARC
5
975
100
AcDbEntity
8
0-0
6
CONTINUOUS
62
7
100
AcDbCircle
10
4938.741635830519
20
2906.799330970476
30
0.0
40
31.335000000000
100
AcDbArc
50
39.188000000000
51
59.372000000000
0
ARC
5
976
100
AcDbEntity
8
0-0
6
CONTINUOUS
62
7
100
AcDbCircle
10
4517.811635830518
20
2919.880830970476
30
0.0
40
3.354000000000
100
AcDbArc
50
102.784000000000
51
259.709000000000
0
ARC
5
977
100
AcDbEntity
8
0-0
6
CONTINUOUS
62
7
100
AcDbCircle
10
4527.660635830518
20
2899.297830970476
30
0.0
40
15.711000000000
100
AcDbArc
50
90.035000000000
51
146.955000000000
0
ARC
5
978
100
AcDbEntity
8
0-0
6
CONTINUOUS
62
7
100
AcDbCircle
10
4519.461635830519
20
2907.945330970476
30
0.0
40
4.969500000000
100
AcDbArc
50
180.931000000000
51
257.155000000000
0
ARC
5
979
100
AcDbEntity
8
0-0
6
CONTINUOUS
62
7
100
AcDbCircle
10
4509.492635830519
20
2896.003830970476
30
0.0
40
4.999500000000
100
AcDbArc
50
90.000000000000
51
180.000000000000
0
LINE
5
97a
100
AcDbEntity
8
0-0
6
CONTINUOUS
62
7
100
AcDbLine
10
4513.482635830519
20
2851.003830970476
30
0.0
11
5224.491635830518
21
2851.003830970476
31
0.0
0
LINE
5
97b
100
AcDbEntity
8
0-0
6
CONTINUOUS
62
7
100
AcDbLine
10
4509.492635830519
20
2901.004830970476
30
0.0
11
5224.491635830518
21
2901.004830970476
31
0.0
0
POLYLINE
5
97c
100
AcDbEntity
8
0-0
6
CONTINUOUS
62
  7
100
AcDb2dPolyline
66
1
10
0.0
20
0.0
30
0.0
70
0
0
VERTEX
5
97d
100
AcDbEntity
8
0-0
6
CONTINUOUS
62
  7
100
AcDbVertex
100
AcDb2dVertex
10
5014.491635830519
20
2903.004330970476
30
0.0
0
VERTEX
5
97e
100
AcDbEntity
8
0-0
6
CONTINUOUS
62
  7
100
AcDbVertex
100
AcDb2dVertex
10
5224.491635830518
20
2903.004330970476
30
0.0
0
VERTEX
5
97f
100
AcDbEntity
8
0-0
6
CONTINUOUS
62
  7
100
AcDbVertex
100
AcDb2dVertex
10
5224.491635830518
20
3201.004830970476
30
0.0
0
VERTEX
5
980
100
AcDbEntity
8
0-0
6
CONTINUOUS
62
  7
100
AcDbVertex
100
AcDb2dVertex
10
5058.216635830519
20
3201.235830970476
30
0.0
0
SEQEND
5
981
100
AcDbEntity
8
0-0
0
ARC
5
982
100
AcDbEntity
8
0-0
6
CONTINUOUS
62
7
100
AcDbCircle
10
5979.444635830518
20
2913.850830970476
30
0.0
40
965.014500000000
100
AcDbArc
50
162.674237576738
51
180.644010323657
0
LINE
5
983
100
AcDbEntity
8
0-0
6
CONTINUOUS
62
7
100
AcDbLine
10
4504.731842172969
20
2878.435349203255
30
0.0
11
4504.133322157387
21
2896.390949670677
31
0.0
0
LINE
5
984
100
AcDbEntity
8
0-0
6
CONTINUOUS
62
7
100
AcDbLine
10
5224.490030740233
20
2900.758479110703
30
0.0
11
5225.070090872368
21
2851.453367879085
31
0.0
0
POLYLINE
5
985
100
AcDbEntity
8
0-0
6
CONTINUOUS
62
  7
100
AcDb2dPolyline
66
1
10
0.0
20
0.0
30
0.0
70
0
0
VERTEX
5
986
100
AcDbEntity
8
0-0
6
CONTINUOUS
62
  7
100
AcDbVertex
100
AcDb2dVertex
10
5115.243757535998
20
2514.049817891750
30
0.0
0
VERTEX
5
987
100
AcDbEntity
8
0-0
6
CONTINUOUS
62
  7
100
AcDbVertex
100
AcDb2dVertex
10
5104.386757535998
20
2539.050317891750
30
0.0
0
VERTEX
5
988
100
AcDbEntity
8
0-0
6
CONTINUOUS
62
  7
100
AcDbVertex
100
AcDb2dVertex
10
4815.243757535998
20
2539.050317891750
30
0.0
0
SEQEND
5
989
100
AcDbEntity
8
0-0
0
ARC
5
98a
100
AcDbEntity
8
0-0
6
CONTINUOUS
62
7
100
AcDbCircle
10
4858.682257535998
20
2574.714317891750
30
0.0
40
56.205000000000
100
AcDbArc
50
193.406119444390
51
219.387203210624
0
ARC
5
98b
100
AcDbEntity
8
0-0
6
CONTINUOUS
62
7
100
AcDbCircle
10
4441.710757535997
20
2477.718317891750
30
0.0
40
371.901000000000
100
AcDbArc
50
13.048371129606
51
30.144133621091
0
ARC
5
98c
100
AcDbEntity
8
0-0
6
CONTINUOUS
62
7
100
AcDbCircle
10
4818.071257535998
20
2701.660817891750
30
0.0
40
66.184500000000
100
AcDbArc
50
144.695974717230
51
214.180133513746
0
ARC
5
98d
100
AcDbEntity
8
0-0
6
CONTINUOUS
62
7
100
AcDbCircle
10
5675.982757535998
20
2193.961817891750
30
0.0
40
720.009000000000
100
AcDbArc
50
136.296488799475
51
144.068316439713
0
ARC
5
98e
100
AcDbEntity
8
0-0
6
CONTINUOUS
62
7
100
AcDbCircle
10
4848.768757535998
20
2540.946317891750
30
0.0
40
255.624000000000
100
AcDbArc
50
359.574973158786
51
377.186408913955
0
LINE
5
98f
100
AcDbEntity
8
0-0
6
CONTINUOUS
62
7
100
AcDbLine
10
5114.881984001057
20
2512.939644566263
30
0.0
11
4680.546486828836
21
2512.939644566263
31
0.0
0
ARC
5
990
100
AcDbEntity
8
0-0
6
CONTINUOUS
62
7
100
AcDbCircle
10
5207.915135830519
20
2886.829282005068
30
0.0
40
382.200000000000
100
AcDbArc
50
87.514180332105
51
102.933688808070
0
ARC
5
991
100
AcDbEntity
8
0-0
6
CONTINUOUS
62
7
100
AcDbCircle
10
5133.143135830518
20
3284.855782005068
30
0.0
40
25.740000000000
100
AcDbArc
50
253.964578134823
51
307.641431365012
0
ARC
5
992
100
AcDbEntity
8
0-0
6
CONTINUOUS
62
7
100
AcDbCircle
10
5125.700135830519
20
3335.666782005069
30
0.0
40
82.159500000000
100
AcDbArc
50
266.825332131972
51
303.628311697143
0
ARC
5
993
100
AcDbEntity
8
0-0
6
CONTINUOUS
62
7
100
AcDbCircle
10
5171.438135830518
20
3130.883782005069
30
0.0
40
137.500500000000
100
AcDbArc
50
110.907428414961
51
143.973620249856
0
LINE
5
994
100
AcDbEntity
8
0-0
6
CONTINUOUS
62
7
100
AcDbLine
10
5224.491635830518
20
3211.310782005069
30
0.0
11
5224.491635830518
21
3268.669282005069
31
0.0
0
LINE
5
995
100
AcDbEntity
8
0-0
6
CONTINUOUS
62
7
100
AcDbLine
10
5060.328635830519
20
3203.011623614177
30
0.0
11
5222.916635830518
21
3203.011623614177
31
0.0
0
ARC
5
996
100
AcDbEntity
8
0-0
6
CONTINUOUS
62
7
100
AcDbCircle
10
5129.940757535997
20
1302.005187320446
30
0.0
40
49.590000000000
100
AcDbArc
50
289.215211229177
51
407.407617974636
0
ARC
5
997
100
AcDbEntity
8
0-0
6
CONTINUOUS
62
7
100
AcDbCircle
10
5105.742757535998
20
1211.874687320446
30
0.0
40
59.304000000000
100
AcDbArc
50
326.985027233038
51
406.902805334844
0
ARC
5
998
100
AcDbEntity
8
0-0
6
CONTINUOUS
62
7
100
AcDbCircle
10
5811.437135830519
20
1466.144187320446
30
0.0
40
1048.834500000000
100
AcDbArc
50
196.073242530981
51
198.602633902005
0
ARC
5
999
100
AcDbEntity
8
0-0
6
CONTINUOUS
62
7
100
AcDbCircle
10
5183.991635830518
20
1271.657187320446
30
0.0
40
392.449500000000
100
AcDbArc
50
200.914497881524
51
209.296797664938
0
ARC
5
99a
100
AcDbEntity
8
0-0
6
CONTINUOUS
62
7
100
AcDbCircle
10
4857.162635830518
20
1083.597687320446
30
0.0
40
15.930000000000
100
AcDbArc
50
194.465578023605
51
332.859398875895
0
ARC
5
99b
100
AcDbEntity
8
0-0
6
CONTINUOUS
62
7
100
AcDbCircle
10
4683.498635830519
20
1271.264187320446
30
0.0
40
270.708000000000
100
AcDbArc
50
313.938609283033
51
326.447592461258
0
ARC
5
99c
100
AcDbEntity
8
0-0
6
CONTINUOUS
62
7
100
AcDbCircle
10
4930.430135830519
20
1021.655187320446
30
0.0
40
37.137000000000
100
AcDbArc
50
77.551408361744
51
171.451669191828
0
ARC
5
99d
100
AcDbEntity
8
0-0
6
CONTINUOUS
62
7
100
AcDbCircle
10
4914.641135830518
20
1287.455187320446
30
0.0
40
230.766000000000
100
AcDbArc
50
275.918314689523
51
298.273400077534
0
ARC
5
99e
100
AcDbEntity
8
0-0
6
CONTINUOUS
62
7
100
AcDbCircle
10
-1291.536864169483
20
3898.368687320447
30
0.0
40
6914.101499999999
100
AcDbArc
50
335.982502639418
51
336.785327818138
0
ARC
5
99f
100
AcDbEntity
8
0-0
6
CONTINUOUS
62
7
100
AcDbCircle
10
5045.610635830519
20
1184.963187320446
30
0.0
40
20.916000000000
100
AcDbArc
50
325.071931663732
51
488.813636359270
0
ARC
5
9a0
100
AcDbEntity
8
0-0
6
CONTINUOUS
62
7
100
AcDbCircle
10
5145.702635830518
20
991.707687320446
30
0.0
40
238.174500000000
100
AcDbArc
50
118.378268784508
51
139.448470633419
0
ARC
5
9a1
100
AcDbEntity
8
0-0
6
CONTINUOUS
62
7
100
AcDbCircle
10
4869.396635830519
20
1284.899187320446
30
0.0
40
168.015000000000
100
AcDbArc
50
267.091696444746
51
304.571467916752
0
ARC
5
9a2
100
AcDbEntity
8
0-0
6
CONTINUOUS
62
7
100
AcDbCircle
10
4677.567635830519
20
1378.358187320446
30
0.0
40
173.437500000000
100
AcDbArc
50
183.696731474777
51
198.901083544539
0
ARC
5
9a3
100
AcDbEntity
8
0-0
6
CONTINUOUS
62
7
100
AcDbCircle
10
4951.139135830519
20
1475.387187320446
30
0.0
40
463.699500000000
100
AcDbArc
50
199.293718536588
51
226.320659462472
0
ARC
5
9a4
100
AcDbEntity
8
0-0
6
CONTINUOUS
62
7
100
AcDbCircle
10
4390.727135830520
20
976.602687320446
30
0.0
40
290.502000000000
100
AcDbArc
50
5.050311082636
51
34.234086439454
0
ARC
5
9a5
100
AcDbEntity
8
0-0
6
CONTINUOUS
62
7
100
AcDbCircle
10
4797.387635830519
20
1412.520687320446
30
0.0
40
236.844000000000
100
AcDbArc
50
265.926281022495
51
333.930539607221
0
ARC
5
9a6
100
AcDbEntity
8
0-0
6
CONTINUOUS
62
7
100
AcDbCircle
10
4842.621635830519
20
1251.719187320446
30
0.0
40
126.372000000000
100
AcDbArc
50
278.303250051058
51
318.897115674370
0
ARC
5
9a7
100
AcDbEntity
8
0-0
6
CONTINUOUS
62
7
100
AcDbCircle
10
4931.349635830519
20
1179.141687320446
30
0.0
40
12.346500000000
100
AcDbArc
50
301.747236143935
51
464.440666598862
0
ARC
5
9a8
100
AcDbEntity
8
0-0
6
CONTINUOUS
62
7
100
AcDbCircle
10
4965.879635830519
20
1067.552187320446
30
0.0
40
129.144000000000
100
AcDbArc
50
106.930831775299
51
144.121394887908
0
ARC
5
9a9
100
AcDbEntity
8
0-0
6
CONTINUOUS
62
7
100
AcDbCircle
10
4882.461635830519
20
1121.273187320446
30
0.0
40
30.543000000000
100
AcDbArc
50
134.011804775914
51
213.074593312282
0
ARC
5
9aa
100
AcDbEntity
8
0-0
6
CONTINUOUS
62
7
100
AcDbCircle
10
4859.223635830519
20
1127.577687320446
30
0.0
40
23.092500000000
100
AcDbArc
50
264.145060195349
51
333.326400186627
0
ARC
5
9ab
100
AcDbEntity
8
0-0
6
CONTINUOUS
62
7
100
AcDbCircle
10
5222.327135830519
20
1674.647187320446
30
0.0
40
2.172000000000
100
AcDbArc
50
285.762000000000
51
364.544000000000
0
LINE
5
9ac
100
AcDbEntity
8
0-0
6
CONTINUOUS
62
7
100
AcDbLine
10
4527.651635830520
20
1403.135200399172
30
0.0
11
4942.229135830519
21
1405.923700399172
31
0.0
0
LINE
5
9ad
100
AcDbEntity
8
0-0
6
CONTINUOUS
62
7
100
AcDbLine
10
4518.356135830519
20
1391.226700399172
30
0.0
11
4954.923635830519
21
1392.168700399172
31
0.0
0
LINE
5
9ae
100
AcDbEntity
8
0-0
6
CONTINUOUS
62
7
100
AcDbLine
10
4517.211635830518
20
1404.705700399172
30
0.0
11
4942.526135830519
21
1407.816700399172
31
0.0
0
LINE
5
9af
100
AcDbEntity
8
0-0
6
CONTINUOUS
62
7
100
AcDbLine
10
4984.697135830519
20
1396.130200399172
30
0.0
11
4984.697135830519
21
1391.130700399172
31
0.0
0
LINE
5
9b0
100
AcDbEntity
8
0-0
6
CONTINUOUS
62
7
100
AcDbLine
10
4964.286635830518
20
1391.130700399172
30
0.0
11
4984.697135830519
21
1391.130700399172
31
0.0
0
LINE
5
9b1
100
AcDbEntity
8
0-0
6
CONTINUOUS
62
7
100
AcDbLine
10
4969.697135830519
20
1396.130200399172
30
0.0
11
4984.697135830519
21
1396.130200399172
31
0.0
0
LINE
5
9b2
100
AcDbEntity
8
0-0
6
CONTINUOUS
62
7
100
AcDbLine
10
4969.697135830519
20
1396.130200399172
30
0.0
11
4962.497135830518
21
1403.331700399172
31
0.0
0
LINE
5
9b3
100
AcDbEntity
8
0-0
6
CONTINUOUS
62
7
100
AcDbLine
10
4964.286635830518
20
1391.130700399172
30
0.0
11
4957.724135830518
21
1397.693200399172
31
0.0
0
ARC
5
9b4
100
AcDbEntity
8
0-0
6
CONTINUOUS
62
7
100
AcDbCircle
10
4818.018635830518
20
-3609.698299600825
30
0.0
40
5034.549000000000
100
AcDbArc
50
88.536978152678
51
93.021519327554
0
ARC
5
9b5
100
AcDbEntity
8
0-0
6
CONTINUOUS
62
7
100
AcDbCircle
10
4577.093135830519
20
1185.947200399172
30
0.0
40
233.188500000000
100
AcDbArc
50
96.018909755965
51
104.916138853766
0
ARC
5
9b6
100
AcDbEntity
8
0-0
6
CONTINUOUS
62
7
100
AcDbCircle
10
4954.923635830519
20
1404.902200399172
30
0.0
40
12.735000000000
100
AcDbArc
50
334.469000000000
51
660.829000000000
0
ARC
5
9b7
100
AcDbEntity
8
0-0
6
CONTINUOUS
62
7
100
AcDbCircle
10
4954.923635830519
20
1404.902200399172
30
0.0
40
7.734000000000
100
AcDbArc
50
348.281000000000
51
651.229000000000
0
ARC
5
9b8
100
AcDbEntity
8
0-0
6
CONTINUOUS
62
7
100
AcDbCircle
10
4948.139135830519
20
1407.155200399172
30
0.0
40
16.131000000000
100
AcDbArc
50
65.982000000000
51
95.623000000000
0
ARC
5
9b9
100
AcDbEntity
8
0-0
6
CONTINUOUS
62
7
100
AcDbCircle
10
4938.741635830519
20
1394.925700399172
30
0.0
40
31.335000000000
100
AcDbArc
50
39.188000000000
51
59.372000000000
0
ARC
5
9ba
100
AcDbEntity
8
0-0
6
CONTINUOUS
62
7
100
AcDbCircle
10
4517.811635830518
20
1408.007200399172
30
0.0
40
3.354000000000
100
AcDbArc
50
102.784000000000
51
259.709000000000
0
ARC
5
9bb
100
AcDbEntity
8
0-0
6
CONTINUOUS
62
7
100
AcDbCircle
10
4527.660635830518
20
1387.424200399172
30
0.0
40
15.711000000000
100
AcDbArc
50
90.035000000000
51
146.955000000000
0
ARC
5
9bc
100
AcDbEntity
8
0-0
6
CONTINUOUS
62
7
100
AcDbCircle
10
4519.461635830519
20
1396.071700399172
30
0.0
40
4.969500000000
100
AcDbArc
50
180.931000000000
51
257.155000000000
0
ARC
5
9bd
100
AcDbEntity
8
0-0
6
CONTINUOUS
62
7
100
AcDbCircle
10
4509.492635830519
20
1384.130200399172
30
0.0
40
4.999500000000
100
AcDbArc
50
90.000000000000
51
180.000000000000
0
LINE
5
9be
100
AcDbEntity
8
0-0
6
CONTINUOUS
62
7
100
AcDbLine
10
4513.482635830519
20
1339.130200399172
30
0.0
11
5224.491635830518
21
1339.130200399172
31
0.0
0
LINE
5
9bf
100
AcDbEntity
8
0-0
6
CONTINUOUS
62
7
100
AcDbLine
10
4509.492635830519
20
1389.131200399172
30
0.0
11
5224.491635830518
21
1389.131200399172
31
0.0
0
POLYLINE
5
9c0
100
AcDbEntity
8
0-0
6
CONTINUOUS
62
  7
100
AcDb2dPolyline
66
1
10
0.0
20
0.0
30
0.0
70
0
0
VERTEX
5
9c1
100
AcDbEntity
8
0-0
6
CONTINUOUS
62
  7
100
AcDbVertex
100
AcDb2dVertex
10
5014.491635830519
20
1391.130700399172
30
0.0
0
VERTEX
5
9c2
100
AcDbEntity
8
0-0
6
CONTINUOUS
62
  7
100
AcDbVertex
100
AcDb2dVertex
10
5224.491635830518
20
1391.130700399172
30
0.0
0
VERTEX
5
9c3
100
AcDbEntity
8
0-0
6
CONTINUOUS
62
  7
100
AcDbVertex
100
AcDb2dVertex
10
5224.491635830518
20
1689.131200399172
30
0.0
0
VERTEX
5
9c4
100
AcDbEntity
8
0-0
6
CONTINUOUS
62
  7
100
AcDbVertex
100
AcDb2dVertex
10
5058.216635830519
20
1689.362200399172
30
0.0
0
SEQEND
5
9c5
100
AcDbEntity
8
0-0
0
ARC
5
9c6
100
AcDbEntity
8
0-0
6
CONTINUOUS
62
7
100
AcDbCircle
10
5979.444635830518
20
1401.977200399172
30
0.0
40
965.014500000000
100
AcDbArc
50
162.674237576738
51
180.644010323657
0
LINE
5
9c7
100
AcDbEntity
8
0-0
6
CONTINUOUS
62
7
100
AcDbLine
10
4504.731842172969
20
1366.561718631951
30
0.0
11
4504.133322157387
21
1384.517319099373
31
0.0
0
LINE
5
9c8
100
AcDbEntity
8
0-0
6
CONTINUOUS
62
7
100
AcDbLine
10
5224.490030740233
20
1388.884848539399
30
0.0
11
5225.070090872368
21
1339.579737307782
31
0.0
0
POLYLINE
5
9c9
100
AcDbEntity
8
0-0
6
CONTINUOUS
62
  7
100
AcDb2dPolyline
66
1
10
0.0
20
0.0
30
0.0
70
0
0
VERTEX
5
9ca
100
AcDbEntity
8
0-0
6
CONTINUOUS
62
  7
100
AcDbVertex
100
AcDb2dVertex
10
5115.243757535998
20
1002.176187320446
30
0.0
0
VERTEX
5
9cb
100
AcDbEntity
8
0-0
6
CONTINUOUS
62
  7
100
AcDbVertex
100
AcDb2dVertex
10
5104.386757535998
20
1027.176687320446
30
0.0
0
VERTEX
5
9cc
100
AcDbEntity
8
0-0
6
CONTINUOUS
62
  7
100
AcDbVertex
100
AcDb2dVertex
10
4815.243757535998
20
1027.176687320446
30
0.0
0
SEQEND
5
9cd
100
AcDbEntity
8
0-0
0
ARC
5
9ce
100
AcDbEntity
8
0-0
6
CONTINUOUS
62
7
100
AcDbCircle
10
4858.682257535998
20
1062.840687320446
30
0.0
40
56.205000000000
100
AcDbArc
50
193.406119444390
51
219.387203210624
0
ARC
5
9cf
100
AcDbEntity
8
0-0
6
CONTINUOUS
62
7
100
AcDbCircle
10
4441.710757535997
20
965.844687320446
30
0.0
40
371.901000000000
100
AcDbArc
50
13.048371129606
51
30.144133621091
0
ARC
5
9d0
100
AcDbEntity
8
0-0
6
CONTINUOUS
62
7
100
AcDbCircle
10
4818.071257535998
20
1189.787187320446
30
0.0
40
66.184500000000
100
AcDbArc
50
144.695974717230
51
214.180133513746
0
ARC
5
9d1
100
AcDbEntity
8
0-0
6
CONTINUOUS
62
7
100
AcDbCircle
10
5675.982757535998
20
682.088187320446
30
0.0
40
720.009000000000
100
AcDbArc
50
136.296488799475
51
144.068316439713
0
ARC
5
9d2
100
AcDbEntity
8
0-0
6
CONTINUOUS
62
7
100
AcDbCircle
10
4848.768757535998
20
1029.072687320446
30
0.0
40
255.624000000000
100
AcDbArc
50
359.574973158786
51
377.186408913955
0
LINE
5
9d3
100
AcDbEntity
8
0-0
6
CONTINUOUS
62
7
100
AcDbLine
10
5114.881984001057
20
1001.066013994959
30
0.0
11
4680.546486828836
21
1001.066013994959
31
0.0
0
ARC
5
9d4
100
AcDbEntity
8
0-0
6
CONTINUOUS
62
7
100
AcDbCircle
10
5207.915135830519
20
1374.955651433765
30
0.0
40
382.200000000000
100
AcDbArc
50
87.514180332105
51
102.933688808070
0
ARC
5
9d5
100
AcDbEntity
8
0-0
6
CONTINUOUS
62
7
100
AcDbCircle
10
5133.143135830518
20
1772.982151433765
30
0.0
40
25.740000000000
100
AcDbArc
50
253.964578134823
51
307.641431365012
0
ARC
5
9d6
100
AcDbEntity
8
0-0
6
CONTINUOUS
62
7
100
AcDbCircle
10
5125.700135830519
20
1823.793151433765
30
0.0
40
82.159500000000
100
AcDbArc
50
266.825332131972
51
303.628311697143
0
ARC
5
9d7
100
AcDbEntity
8
0-0
6
CONTINUOUS
62
7
100
AcDbCircle
10
5171.438135830518
20
1619.010151433765
30
0.0
40
137.500500000000
100
AcDbArc
50
110.907428414961
51
143.973620249856
0
LINE
5
9d8
100
AcDbEntity
8
0-0
6
CONTINUOUS
62
7
100
AcDbLine
10
5224.491635830518
20
1699.437151433765
30
0.0
11
5224.491635830518
21
1756.795651433765
31
0.0
0
LINE
5
9d9
100
AcDbEntity
8
0-0
6
CONTINUOUS
62
7
100
AcDbLine
10
5060.328635830519
20
1691.137993042873
30
0.0
11
5222.916635830518
21
1691.137993042873
31
0.0
0
LINE
5
9da
100
AcDbEntity
8
0-0
6
CONTINUOUS
62
7
100
AcDbLine
10
5168.354742554660
20
1337.737570505012
30
0.0
11
5168.167945122177
21
1338.805590604373
31
0.0
0
LINE
5
9db
100
AcDbEntity
8
0-0
6
CONTINUOUS
62
7
100
AcDbLine
10
5168.811396278423
20
1335.461954243056
30
0.0
11
5168.354742554660
21
1337.737570505012
31
0.0
0
LINE
5
9dc
100
AcDbEntity
8
0-0
6
CONTINUOUS
62
7
100
AcDbLine
10
5169.381171385846
20
1332.987997004996
30
0.0
11
5168.811396278423
21
1335.461954243056
31
0.0
0
ARC
5
9dd
100
AcDbEntity
8
0-0
6
CONTINUOUS
62
7
100
AcDbCircle
10
3294.475905711514
20
2723.748317891750
30
0.0
40
59.304000000000
100
AcDbArc
50
133.097194665156
51
194.715328063319
0
ARC
5
9de
100
AcDbEntity
8
0-0
6
CONTINUOUS
62
7
100
AcDbCircle
10
3294.475905711514
20
2723.748317891750
30
0.0
40
59.304000000000
100
AcDbArc
50
204.293877086048
51
213.014972766962
0
LINE
5
9df
100
AcDbEntity
8
0-0
6
CONTINUOUS
62
7
100
AcDbLine
10
3264.717893932800
20
1106.454239391095
30
0.0
11
3274.518245561330
21
1106.454239391095
31
0.0
0
ARC
5
9e0
100
AcDbEntity
8
0-0
6
CONTINUOUS
62
7
100
AcDbCircle
10
3277.446011823841
20
1080.563286304564
30
0.0
40
3.000000000000
100
AcDbArc
50
180.000000000000
51
270.000000000000
0
LINE
5
9e1
100
AcDbEntity
8
0-0
6
CONTINUOUS
62
7
100
AcDbLine
10
3280.446011823841
20
1077.563286304564
30
0.0
11
3277.446011823841
21
1077.563286304564
31
0.0
0
ARC
5
9e2
100
AcDbEntity
8
0-0
6
CONTINUOUS
62
7
100
AcDbCircle
10
3280.446011823841
20
1080.563286304564
30
0.0
40
3.000000000000
100
AcDbArc
50
270.000000000000
51
360.000000000000
0
POLYLINE
5
9e3
100
AcDbEntity
8
0-0
6
CONTINUOUS
62
  7
100
AcDb2dPolyline
66
1
10
0.0
20
0.0
30
0.0
70
0
0
VERTEX
5
9e4
100
AcDbEntity
8
0-0
6
CONTINUOUS
62
  7
100
AcDbVertex
100
AcDb2dVertex
10
3262.309727155743
20
1094.365978697152
30
0.0
0
VERTEX
5
9e5
100
AcDbEntity
8
0-0
6
CONTINUOUS
62
  7
100
AcDbVertex
100
AcDb2dVertex
10
3262.633007474614
20
1094.802873288765
30
0.0
0
VERTEX
5
9e6
100
AcDbEntity
8
0-0
6
CONTINUOUS
62
  7
100
AcDbVertex
100
AcDb2dVertex
10
3262.824620128211
20
1095.052601354159
30
0.0
0
VERTEX
5
9e7
100
AcDbEntity
8
0-0
6
CONTINUOUS
62
  7
100
AcDbVertex
100
AcDb2dVertex
10
3263.161943776173
20
1095.478082916023
30
0.0
0
VERTEX
5
9e8
100
AcDbEntity
8
0-0
6
CONTINUOUS
62
  7
100
AcDbVertex
100
AcDb2dVertex
10
3263.506681580298
20
1095.898146330078
30
0.0
0
VERTEX
5
9e9
100
AcDbEntity
8
0-0
6
CONTINUOUS
62
  7
100
AcDbVertex
100
AcDb2dVertex
10
3263.857214729198
20
1096.313974598029
30
0.0
0
VERTEX
5
9ea
100
AcDbEntity
8
0-0
6
CONTINUOUS
62
  7
100
AcDbVertex
100
AcDb2dVertex
10
3264.211924411482
20
1096.726750721582
30
0.0
0
VERTEX
5
9eb
100
AcDbEntity
8
0-0
6
CONTINUOUS
62
  7
100
AcDbVertex
100
AcDb2dVertex
10
3264.569191815762
20
1097.137657702441
30
0.0
0
VERTEX
5
9ec
100
AcDbEntity
8
0-0
6
CONTINUOUS
62
  7
100
AcDbVertex
100
AcDb2dVertex
10
3264.776940962597
20
1097.375593474344
30
0.0
0
SEQEND
5
9ed
100
AcDbEntity
8
0-0
0
LINE
5
9ee
100
AcDbEntity
8
0-0
6
CONTINUOUS
62
7
100
AcDbLine
10
3264.807025838578
20
1107.454239391095
30
0.0
11
3264.807025838578
21
1097.454239391095
31
0.0
0
POLYLINE
5
9ef
100
AcDbEntity
8
0-0
6
CONTINUOUS
62
  7
100
AcDb2dPolyline
66
1
10
0.0
20
0.0
30
0.0
70
0
0
VERTEX
5
9f0
100
AcDbEntity
8
0-0
6
CONTINUOUS
62
  7
100
AcDbVertex
100
AcDb2dVertex
10
3262.255130555844
20
1110.469246834509
30
0.0
0
VERTEX
5
9f1
100
AcDbEntity
8
0-0
6
CONTINUOUS
62
  7
100
AcDbVertex
100
AcDb2dVertex
10
3262.579409137414
20
1110.024801053446
30
0.0
0
VERTEX
5
9f2
100
AcDbEntity
8
0-0
6
CONTINUOUS
62
  7
100
AcDbVertex
100
AcDb2dVertex
10
3262.776869699530
20
1109.767103817434
30
0.0
0
VERTEX
5
9f3
100
AcDbEntity
8
0-0
6
CONTINUOUS
62
  7
100
AcDbVertex
100
AcDb2dVertex
10
3263.127157018235
20
1109.329865716047
30
0.0
0
VERTEX
5
9f4
100
AcDbEntity
8
0-0
6
CONTINUOUS
62
  7
100
AcDbVertex
100
AcDb2dVertex
10
3263.487928881210
20
1108.900159504315
30
0.0
0
VERTEX
5
9f5
100
AcDbEntity
8
0-0
6
CONTINUOUS
62
  7
100
AcDbVertex
100
AcDb2dVertex
10
3263.856896086649
20
1108.476340664845
30
0.0
0
VERTEX
5
9f6
100
AcDbEntity
8
0-0
6
CONTINUOUS
62
  7
100
AcDbVertex
100
AcDb2dVertex
10
3264.231769432745
20
1108.056764680248
30
0.0
0
VERTEX
5
9f7
100
AcDbEntity
8
0-0
6
CONTINUOUS
62
  7
100
AcDbVertex
100
AcDb2dVertex
10
3264.610259717694
20
1107.639787033129
30
0.0
0
VERTEX
5
9f8
100
AcDbEntity
8
0-0
6
CONTINUOUS
62
  7
100
AcDbVertex
100
AcDb2dVertex
10
3264.830539299796
20
1107.398482530666
30
0.0
0
SEQEND
5
9f9
100
AcDbEntity
8
0-0
0
LINE
5
9fa
100
AcDbEntity
8
0-0
6
CONTINUOUS
62
7
100
AcDbLine
10
3264.785152085169
20
1098.454239391095
30
0.0
11
3274.518245561330
21
1098.454239391095
31
0.0
0
LINE
5
9fb
100
AcDbEntity
8
0-0
6
CONTINUOUS
62
7
100
AcDbLine
10
3274.446011823841
20
1120.486705063481
30
0.0
11
3274.446011823841
21
1080.563286304564
31
0.0
0
LINE
5
9fc
100
AcDbEntity
8
0-0
6
CONTINUOUS
62
7
100
AcDbLine
10
3283.446011823841
20
1102.266621727712
30
0.0
11
3283.446011823841
21
1080.563286304564
31
0.0
0
ARC
5
9fd
100
AcDbEntity
8
0-0
6
CONTINUOUS
62
7
100
AcDbCircle
10
3283.475377022753
20
1098.134239391095
30
0.0
40
3.240000000000
100
AcDbArc
50
270.000000000000
51
313.840922890940
0
ARC
5
9fe
100
AcDbEntity
8
0-0
6
CONTINUOUS
62
7
100
AcDbCircle
10
3283.475377022753
20
1106.879361091601
30
0.0
40
3.240000000000
100
AcDbArc
50
0.000000000000
51
90.000000000000
0
LINE
5
9ff
100
AcDbEntity
8
0-0
6
CONTINUOUS
62
7
100
AcDbLine
10
3286.715377022754
20
1106.879361091601
30
0.0
11
3286.715377022754
21
1098.239361091601
31
0.0
0
ARC
5
a00
100
AcDbEntity
8
0-0
6
CONTINUOUS
62
7
100
AcDbCircle
10
3277.446011823841
20
1124.668408005070
30
0.0
40
3.000000000000
100
AcDbArc
50
90.000000000000
51
180.000000000000
0
LINE
5
a01
100
AcDbEntity
8
0-0
6
CONTINUOUS
62
7
100
AcDbLine
10
3280.446011823841
20
1127.668408005070
30
0.0
11
3277.446011823841
21
1127.668408005070
31
0.0
0
ARC
5
a02
100
AcDbEntity
8
0-0
6
CONTINUOUS
62
7
100
AcDbCircle
10
3280.446011823841
20
1124.668408005070
30
0.0
40
3.000000000000
100
AcDbArc
50
0.000000000000
51
90.000000000000
0
LINE
5
a03
100
AcDbEntity
8
0-0
6
CONTINUOUS
62
7
100
AcDbLine
10
3274.446011823841
20
1124.668408005070
30
0.0
11
3274.446011823841
21
1122.097618775207
31
0.0
0
LINE
5
a04
100
AcDbEntity
8
0-0
6
CONTINUOUS
62
7
100
AcDbLine
10
3283.446011823841
20
1124.668408005070
30
0.0
11
3283.446011823841
21
1104.630431445049
31
0.0
0
ARC
5
a05
100
AcDbEntity
8
0-0
6
CONTINUOUS
62
7
100
AcDbCircle
10
3283.475377022753
20
1098.239361091601
30
0.0
40
3.240000000000
100
AcDbArc
50
324.492520083112
51
360.000000000000
0
ENDSEC
 0
SECTION
  2
OBJECTS
 0
DICTIONARY
  5
C
100
AcDbDictionary
  3
ACAD_GROUP
350
D
  3
ACAD_MLINESTYLE
350
E
 0
DICTIONARY
  5
D
100
AcDbDictionary
 0
DICTIONARY
  5
E
100
AcDbDictionary
  3
STANDARD
350
13
0
MLINESTYLE
  5
13
100
AcDbMlineStyle
  2
STANDARD
 70
    0
3

62
256
51
90.0
52
90.0
71
0
0
ENDSEC
0
EOF
