0
SECTION
2
HEADER
9
$ACADVER
1
AC1012
9
$DWGCODEPAGE
3
dos932
9
$EXTMIN
10
0.000
20
0.000
30
0.0
9
$EXTMAX
10
5940.000
20
4200.000
30
0.0
9
$LIMMIN
10
0.000
20
0.000
9
$LIMMAX
10
5940.000
20
4200.000
9
$DIMSCALE
40
20.000000
9
$LTSCALE
40
20.000
9
$PDMODE
70
0
9
$PDSIZE
40
40.0
9
$HANDSEED
5
61f20
9
$UNITMODE
70
0
9
$VISRETAIN
70
0
9
$PLINEGEN
70
0
9
$PSLTSCALE
70
1
9
$TREEDEPTH
70
3020
9
$CMLSTYLE
2
STANDARD
9
$CMLJUST
70
0
9
$CMLSCALE
40
1.0
0
ENDSEC
0
SECTION
2
TABLES
0
TABLE
2
VPORT
5
190
100
AcDbSymbolTable
70
2
0
VPORT
5
191
100
AcDbSymbolTableRecord
100
AcDbViewportTableRecord
2
*ACTIVE
70
0
10
0.0
20
0.0
11
1.0
21
1.0
12
2970.000
22
2100.000
13
0.0
23
0.0
14
1.0
24
1.0
15
0.0
25
0.0
16
0.0
26
0.0
36
1.0
17
0.0
27
0.0
37
0.0
40
4304.348
41
2.0
42
50.0
43
0.0
44
0.0
50
0.0
51
0.0
71
0
72
1000
73
1
74
1
75
0
76
0
77
0
78
0
0
ENDTAB
0
TABLE
2
LTYPE
5
1f4
100
AcDbSymbolTable
70
9
0
LTYPE
5
1f5
100
AcDbSymbolTableRecord
100
AcDbLinetypeTableRecord
2
BYBLOCK
70
 64
3

72
 65
73
  0
40
0.0
0
LTYPE
5
1f6
100
AcDbSymbolTableRecord
100
AcDbLinetypeTableRecord
2
BYLAYER
70
 64
3

72
 65
73
  0
40
0.0
0
LTYPE
5
1f7
100
AcDbSymbolTableRecord
100
AcDbLinetypeTableRecord
2
CONTINUOUS
70
64
3
SolidLine
72
65
73
0
40
0.0
0
LTYPE
5
1f8
100
AcDbSymbolTableRecord
100
AcDbLinetypeTableRecord
2
DOT
70
64
3
--  --  --  --  --  --  --  --     
72
65
73
2
40
3.000
49
1.000
74
0
49
-2.000
74
0
0
LTYPE
5
1f9
100
AcDbSymbolTableRecord
100
AcDbLinetypeTableRecord
2
DASHED
70
64
3
----    ----    ----    ----    
72
65
73
2
40
5.000
49
2.000
74
0
49
-3.000
74
0
0
LTYPE
5
1fa
100
AcDbSymbolTableRecord
100
AcDbLinetypeTableRecord
2
DASHED2
70
64
3
------  ------  ------  ------ 
72
65
73
2
40
10.000
49
4.000
74
0
49
-6.000
74
0
0
LTYPE
5
1fb
100
AcDbSymbolTableRecord
100
AcDbLinetypeTableRecord
2
CENTER
70
64
3
----- - ----- - ----- - ----- - 
72
65
73
4
40
10.000
49
6.000
74
0
49
-3.000
74
0
49
1.000
74
0
49
-3.000
74
0
0
LTYPE
5
1fc
100
AcDbSymbolTableRecord
100
AcDbLinetypeTableRecord
2
CENTER2
70
64
3
----------  --  ----------  -- 
72
65
73
4
40
17.000
49
12.000
74
0
49
-5.000
74
0
49
2.000
74
0
49
-5.000
74
0
0
LTYPE
5
1fd
100
AcDbSymbolTableRecord
100
AcDbLinetypeTableRecord
2
PHANTOM
70
64
3
--- - - --- - - --- - - --- - -
72
65
73
6
40
13.000
49
5.000
74
0
49
-3.000
74
0
49
1.000
74
0
49
-3.000
74
0
49
1.000
74
0
49
-3.000
74
0
0
LTYPE
5
1fe
100
AcDbSymbolTableRecord
100
AcDbLinetypeTableRecord
2
PHANTOM2
70
64
3
--------  -  -  --------  -  -
72
65
73
6
40
20.000
49
6.000
74
0
49
-5.000
74
0
49
2.000
74
0
49
-5.000
74
0
49
2.000
74
0
49
-5.000
74
0
0
LTYPE
5
1ff
100
AcDbSymbolTableRecord
100
AcDbLinetypeTableRecord
2
HIDDEN
70
64
3
-   -   -   -   -   -   -   -   
72
65
73
2
40
3.000
49
0.500
74
0
49
-2.500
74
0
0
ENDTAB
0
TABLE
2
STYLE
5
200
100
AcDbSymbolTable
70
1
0
STYLE
5
201
100
AcDbSymbolTableRecord
100
AcDbTextStyleTableRecord
2
STANDARD
70
0
40
0.0
41
1.0
50
0.0
71
0
42
0.0
3
txt.shx
4
extfont.shx
0
STYLE
5
202
100
AcDbSymbolTableRecord
100
AcDbTextStyleTableRecord
2
TATEGAKI
70
4
40
0.0
41
1.0
50
0.0
71
0
42
0.0
3
txt.shx
4
extfont.shx
0
STYLE
5
203
100
AcDbSymbolTableRecord
100
AcDbTextStyleTableRecord
2
DIM
70
0
40
0.0
41
0.75
50
0.0
71
0
42
0.0
3
txt.shx
4
extfont.shx
0
STYLE
5
204
100
AcDbSymbolTableRecord
100
AcDbTextStyleTableRecord
2
_Gothic_
70
0
40
1.0
41
1.0
50
0.0
71
0
42
10.0
3

4

1001
ACAD
1000
MS Gothic
1071
32817
0
STYLE
5
205
100
AcDbSymbolTableRecord
100
AcDbTextStyleTableRecord
2
_TateGothic_
70
4
40
0.0
41
1.0
50
0.0
71
0
42
0.0
3
@MS Gothic
4

0
ENDTAB
0
TABLE
2
VIEW
5
206
100
AcDbSymbolTable
70
0
0
ENDTAB
0
TABLE
2
UCS
5
207
100
AcDbSymbolTable
70
0
0
ENDTAB
0
TABLE
2
APPID
5
208
100
AcDbSymbolTable
70
1
0
APPID
5
209
100
AcDbSymbolTableRecord
100
AcDbRegAppTableRecord
2
ACAD
70
0
0
ENDTAB
0
TABLE
2
DIMSTYLE
5
403
100
AcDbSymbolTable
70
1
0
DIMSTYLE
105
404
330
402
100
AcDbSymbolTableRecord
100
AcDbDimStyleTableRecord
2
JAC_DIM
70
0
41
40.000
42
0.000
44
0.0
73
0
74
0
77
1
78
8
79
2
140
0.000
170
0
171
2
172
0
173
0
174
0
175
0
176
0
177
0
178
0
270
2
271
0
272
0
273
2
274
2
340
201
275
0
280
0
281
0
282
0
283
0
284
0
285
0
286
0
287
3
288
0
0
ENDTAB
0
TABLE
2
BLOCK_RECORD
5
405
100
AcDbSymbolTable
70
0
0
BLOCK_RECORD
5
406
100
AcDbSymbolTableRecord
100
AcDbBlockTableRecord
2
*MODEL_SPACE
0
BLOCK_RECORD
5
407
100
AcDbSymbolTableRecord
100
AcDbBlockTableRecord
2
*PAPER_SPACE
0
BLOCK_RECORD
5
408
100
AcDbSymbolTableRecord
100
AcDbBlockTableRecord
2
_JACCONVERT_
0
ENDTAB
0
TABLE
2
LAYER
5
409
100
AcDbSymbolTable
70
10
0
LAYER
5
40a
100
AcDbSymbolTableRecord
100
AcDbLayerTableRecord
2
0
70
0
62
7
6
CONTINUOUS
0
LAYER
5
40b
100
AcDbSymbolTableRecord
100
AcDbLayerTableRecord
2
0-0
70
0
62
7
6
CONTINUOUS
0
LAYER
5
40c
100
AcDbSymbolTableRecord
100
AcDbLayerTableRecord
2
F-F_J_ADD
70
0
62
-7
6
CONTINUOUS
0
ENDTAB
0
ENDSEC
0
SECTION
2
BLOCKS
0
BLOCK
5
40d
100
AcDbEntity
67
1
8
0
100
AcDbBlockBegin
2
*MODEL_SPACE
70
0
10
0.0
20
0.0
30
0.0
3
*MODEL_SPACE
1

0
ENDBLK
5
40e
100
AcDbEntity
8
0
100
AcDbBlockEnd
0
BLOCK
5
40f
100
AcDbEntity
67
1
8
0
100
AcDbBlockBegin
2
*PAPER_SPACE
70
0
10
0.0
20
0.0
30
0.0
3
*PAPER_SPACE
1

0
ENDBLK
5
410
100
AcDbEntity
67
1
8
0
100
AcDbBlockEnd
0
BLOCK
5
411
100
AcDbEntity
8
0
100
AcDbBlockBegin
2
_JACCONVERT_
70
2
10
0.0
20
0.0
30
0.0
3
_JACCONVERT_
1
_JACCONVERT_
0
ATTDEF
5
412
100
AcDbEntity
8
0
62
0
100
AcDbText
10
0.0
20
0.0
30
0.0
40
1.0
1
User:HARUOWAKUDA
100
AcDbAttributeDefinition
3

2
USER
70
8
0
ATTDEF
5
413
100
AcDbEntity
8
0
62
0
100
AcDbText
10
0.0
20
2.0
30
0.0
40
1.0
1
Date:06/09/14 11:36
100
AcDbAttributeDefinition
3

2
REVDATE
70
8
0
ATTDEF
5
414
100
AcDbEntity
8
0
62
0
100
AcDbText
10
0.0
20
4.0
30
0.0
40
1.0
1
File:d_009r_cad_20060914.dxf
100
AcDbAttributeDefinition
3

2
FNAME
70
8
0
ATTDEF
5
415
100
AcDbEntity
8
0
62
0
100
AcDbText
10
0.0
20
6.0
30
0.0
40
1.0
1
JacConvert Version2.75 Copyright (c) 2001-2006 K.Nakahara
100
AcDbAttributeDefinition
3

2
VER
70
8
0
ENDBLK
5
416
100
AcDbEntity
67
1
8
0
100
AcDbBlockEnd
0
ENDSEC
0
SECTION
2
ENTITIES
0
POLYLINE
5
417
100
AcDbEntity
8
0-0
6
CONTINUOUS
62
  7
100
AcDb2dPolyline
66
1
10
0.0
20
0.0
30
0.0
70
0
0
VERTEX
5
418
100
AcDbEntity
8
0-0
6
CONTINUOUS
62
  7
100
AcDbVertex
100
AcDb2dVertex
10
787.790928333070
20
3104.473374536548
30
0.0
0
VERTEX
5
419
100
AcDbEntity
8
0-0
6
CONTINUOUS
62
  7
100
AcDbVertex
100
AcDb2dVertex
10
790.723766802385
20
3104.078776782140
30
0.0
0
VERTEX
5
41a
100
AcDbEntity
8
0-0
6
CONTINUOUS
62
  7
100
AcDbVertex
100
AcDb2dVertex
10
795.778307750933
20
3103.434317080801
30
0.0
0
VERTEX
5
41b
100
AcDbEntity
8
0-0
6
CONTINUOUS
62
  7
100
AcDbVertex
100
AcDb2dVertex
10
800.827078971713
20
3102.889527530949
30
0.0
0
VERTEX
5
41c
100
AcDbEntity
8
0-0
6
CONTINUOUS
62
  7
100
AcDbVertex
100
AcDb2dVertex
10
805.866428738288
20
3102.507490506942
30
0.0
0
VERTEX
5
41d
100
AcDbEntity
8
0-0
6
CONTINUOUS
62
  7
100
AcDbVertex
100
AcDb2dVertex
10
810.892705324223
20
3102.351288383140
30
0.0
0
VERTEX
5
41e
100
AcDbEntity
8
0-0
6
CONTINUOUS
62
  7
100
AcDbVertex
100
AcDb2dVertex
10
815.902257003083
20
3102.484003533900
30
0.0
0
VERTEX
5
41f
100
AcDbEntity
8
0-0
6
CONTINUOUS
62
  7
100
AcDbVertex
100
AcDb2dVertex
10
818.798694654293
20
3102.718217952327
30
0.0
0
VERTEX
5
420
100
AcDbEntity
8
0-0
6
CONTINUOUS
62
  7
100
AcDbVertex
100
AcDb2dVertex
10
820.070146888679
20
3102.861304441483
30
0.0
0
VERTEX
5
421
100
AcDbEntity
8
0-0
6
CONTINUOUS
62
  7
100
AcDbVertex
100
AcDb2dVertex
10
822.259270766411
20
3103.160436453259
30
0.0
0
VERTEX
5
422
100
AcDbEntity
8
0-0
6
CONTINUOUS
62
  7
100
AcDbVertex
100
AcDb2dVertex
10
824.445160054236
20
3103.515444942904
30
0.0
0
VERTEX
5
423
100
AcDbEntity
8
0-0
6
CONTINUOUS
62
  7
100
AcDbVertex
100
AcDb2dVertex
10
826.628520994493
20
3103.914129806081
30
0.0
0
VERTEX
5
424
100
AcDbEntity
8
0-0
6
CONTINUOUS
62
  7
100
AcDbVertex
100
AcDb2dVertex
10
828.810059829519
20
3104.344290938451
30
0.0
0
VERTEX
5
425
100
AcDbEntity
8
0-0
6
CONTINUOUS
62
  7
100
AcDbVertex
100
AcDb2dVertex
10
830.990482801651
20
3104.793728235676
30
0.0
0
VERTEX
5
426
100
AcDbEntity
8
0-0
6
CONTINUOUS
62
  7
100
AcDbVertex
100
AcDb2dVertex
10
832.254895133315
20
3105.058426731288
30
0.0
0
SEQEND
5
427
100
AcDbEntity
8
0-0
0
POLYLINE
5
428
100
AcDbEntity
8
0-0
6
CONTINUOUS
62
  7
100
AcDb2dPolyline
66
1
10
0.0
20
0.0
30
0.0
70
0
0
VERTEX
5
429
100
AcDbEntity
8
0-0
6
CONTINUOUS
62
  7
100
AcDbVertex
100
AcDb2dVertex
10
787.790928333070
20
3087.394498377441
30
0.0
0
VERTEX
5
42a
100
AcDbEntity
8
0-0
6
CONTINUOUS
62
  7
100
AcDbVertex
100
AcDb2dVertex
10
790.723766802385
20
3086.999900623034
30
0.0
0
VERTEX
5
42b
100
AcDbEntity
8
0-0
6
CONTINUOUS
62
  7
100
AcDbVertex
100
AcDb2dVertex
10
795.778307750933
20
3086.355440921694
30
0.0
0
VERTEX
5
42c
100
AcDbEntity
8
0-0
6
CONTINUOUS
62
  7
100
AcDbVertex
100
AcDb2dVertex
10
800.827078971713
20
3085.810651371842
30
0.0
0
VERTEX
5
42d
100
AcDbEntity
8
0-0
6
CONTINUOUS
62
  7
100
AcDbVertex
100
AcDb2dVertex
10
805.866428738288
20
3085.428614347836
30
0.0
0
VERTEX
5
42e
100
AcDbEntity
8
0-0
6
CONTINUOUS
62
  7
100
AcDbVertex
100
AcDb2dVertex
10
810.892705324223
20
3085.272412224033
30
0.0
0
VERTEX
5
42f
100
AcDbEntity
8
0-0
6
CONTINUOUS
62
  7
100
AcDbVertex
100
AcDb2dVertex
10
815.902257003083
20
3085.405127374793
30
0.0
0
VERTEX
5
430
100
AcDbEntity
8
0-0
6
CONTINUOUS
62
  7
100
AcDbVertex
100
AcDb2dVertex
10
818.798694654293
20
3085.639341793220
30
0.0
0
VERTEX
5
431
100
AcDbEntity
8
0-0
6
CONTINUOUS
62
  7
100
AcDbVertex
100
AcDb2dVertex
10
819.038472719022
20
3085.666325898899
30
0.0
0
SEQEND
5
432
100
AcDbEntity
8
0-0
0
ARC
5
433
100
AcDbEntity
8
0-0
6
CONTINUOUS
62
7
100
AcDbCircle
10
785.544874087633
20
3098.206256347617
30
0.0
40
9.625929816131
100
AcDbArc
50
51.441277284353
51
128.558722715647
0
ARC
5
434
100
AcDbEntity
8
0-0
6
CONTINUOUS
62
7
100
AcDbCircle
10
785.544874087633
20
3078.206256347617
30
0.0
40
9.625929816131
100
AcDbArc
50
51.441277284353
51
128.558722715647
0
ARC
5
435
100
AcDbEntity
8
0-0
6
CONTINUOUS
62
7
100
AcDbCircle
10
785.544874087633
20
3093.260627782528
30
0.0
40
9.625929816131
100
AcDbArc
50
231.441277284353
51
308.558722715647
0
ARC
5
436
100
AcDbEntity
8
0-0
6
CONTINUOUS
62
7
100
AcDbCircle
10
785.544874087633
20
3113.260627782528
30
0.0
40
9.625929816131
100
AcDbArc
50
231.441277284353
51
308.558722715647
0
LINE
5
437
100
AcDbEntity
8
0-0
6
CONTINUOUS
62
7
100
AcDbLine
10
791.544874087633
20
3105.733442065072
30
0.0
11
791.544874087633
21
3085.733442065072
31
0.0
0
CIRCLE
5
438
100
AcDbEntity
8
0-0
6
CONTINUOUS
62
7
100
AcDbCircle
10
761.254919320954
20
3095.468619278252
30
0.0
40
5.560000000000
0
ELLIPSE
  5
439
100
AcDbEntity
8
0-0
6
CONTINUOUS
62
7
100
AcDbEllipse
10
761.292650067496
20
3095.751877657850
30
0.0
11
24.534999686935
21
0.000000000000
31
0.0
210
0.0
220
0.0
230
1.0
40
0.500000000000
41
0.000000000000
42
6.283185307180
0
LINE
5
43a
100
AcDbEntity
8
0-0
6
CONTINUOUS
62
7
100
AcDbLine
10
779.421454509357
20
3105.875396411310
30
0.0
11
775.394542297822
21
3105.875396411310
31
0.0
0
LINE
5
43b
100
AcDbEntity
8
0-0
6
CONTINUOUS
62
7
100
AcDbLine
10
779.421454509357
20
3085.740835353630
30
0.0
11
775.219459158189
21
3085.740835353630
31
0.0
0
LINE
5
43c
100
AcDbEntity
8
0-0
6
CONTINUOUS
62
7
100
AcDbLine
10
779.511580892144
20
3105.825719553400
30
0.0
11
779.511580892144
21
3103.910878859627
31
0.0
0
LINE
5
43d
100
AcDbEntity
8
0-0
6
CONTINUOUS
62
7
100
AcDbLine
10
779.511580892144
20
3087.632439891561
30
0.0
11
779.511580892144
21
3085.838548905048
31
0.0
0
ARC
5
43e
100
AcDbEntity
8
0-0
6
CONTINUOUS
62
7
100
AcDbCircle
10
785.544874087633
20
3098.075659138321
30
0.0
40
6.440961171922
100
AcDbArc
50
259.784091500290
51
338.675842246797
0
ARC
5
43f
100
AcDbEntity
8
0-0
6
CONTINUOUS
62
7
100
AcDbCircle
10
785.544874087633
20
3093.391224991824
30
0.0
40
6.440961171922
100
AcDbArc
50
21.324157753203
51
99.333630495641
0
LINE
5
440
100
AcDbEntity
8
0-0
6
CONTINUOUS
62
7
100
AcDbLine
10
908.953706139469
20
2910.372214526138
30
0.0
11
908.953706139469
21
2903.172214526137
31
0.0
0
LINE
5
441
100
AcDbEntity
8
0-0
6
CONTINUOUS
62
7
100
AcDbLine
10
943.513706139469
20
2910.372214526138
30
0.0
11
943.513706139469
21
2903.172214526137
31
0.0
0
LINE
5
442
100
AcDbEntity
8
0-0
6
CONTINUOUS
62
7
100
AcDbLine
10
1048.953206139469
20
2910.372214526138
30
0.0
11
1048.953206139469
21
2903.172214526137
31
0.0
0
LINE
5
443
100
AcDbEntity
8
0-0
6
CONTINUOUS
62
7
100
AcDbLine
10
1083.513206139469
20
2910.372214526138
30
0.0
11
1083.513206139469
21
2903.172214526137
31
0.0
0
ARC
5
444
100
AcDbEntity
8
0-0
6
CONTINUOUS
62
7
100
AcDbCircle
10
1663.999706139470
20
2669.083714526138
30
0.0
40
853.663500000000
100
AcDbArc
50
159.150909076913
51
177.373264575059
0
ARC
5
445
100
AcDbEntity
8
0-0
6
CONTINUOUS
62
7
100
AcDbCircle
10
1125.868706139469
20
2693.361214526138
30
0.0
40
314.985000000000
100
AcDbArc
50
177.298790896274
51
224.130425451108
0
ARC
5
446
100
AcDbEntity
8
0-0
6
CONTINUOUS
62
7
100
AcDbCircle
10
1002.517706139469
20
2575.242214526138
30
0.0
40
144.207000000000
100
AcDbArc
50
224.570289277118
51
267.502610378413
0
ARC
5
447
100
AcDbEntity
8
0-0
6
CONTINUOUS
62
7
100
AcDbCircle
10
345.144206139469
20
2672.548714526138
30
0.0
40
836.848500000000
100
AcDbArc
50
2.442064343392
51
21.033762004636
0
ARC
5
448
100
AcDbEntity
8
0-0
6
CONTINUOUS
62
7
100
AcDbCircle
10
866.599706139469
20
2693.361214526138
30
0.0
40
314.985000000000
100
AcDbArc
50
315.869574334825
51
362.701208889659
0
ARC
5
449
100
AcDbEntity
8
0-0
6
CONTINUOUS
62
7
100
AcDbCircle
10
989.950706139469
20
2575.242214526138
30
0.0
40
144.207000000000
100
AcDbArc
50
272.497389842070
51
315.429710943365
0
LINE
5
44a
100
AcDbEntity
8
0-0
6
CONTINUOUS
62
7
100
AcDbLine
10
1181.233706139469
20
3051.172714526138
30
0.0
11
1178.423148042851
21
3066.800992649121
31
0.0
0
POLYLINE
5
44b
100
AcDbEntity
8
0-0
6
CONTINUOUS
62
  7
100
AcDb2dPolyline
66
1
10
0.0
20
0.0
30
0.0
70
0
0
VERTEX
5
44c
100
AcDbEntity
8
0-0
6
CONTINUOUS
62
  7
100
AcDbVertex
100
AcDb2dVertex
10
814.045264236087
20
3066.800992649121
30
0.0
0
VERTEX
5
44d
100
AcDbEntity
8
0-0
6
CONTINUOUS
62
  7
100
AcDbVertex
100
AcDb2dVertex
10
811.234706139468
20
3051.172714526138
30
0.0
0
VERTEX
5
44e
100
AcDbEntity
8
0-0
6
CONTINUOUS
62
  7
100
AcDbVertex
100
AcDb2dVertex
10
814.045264236087
20
3035.544436403154
30
0.0
0
VERTEX
5
44f
100
AcDbEntity
8
0-0
6
CONTINUOUS
62
  7
100
AcDbVertex
100
AcDb2dVertex
10
822.391541140386
20
3020.391015602646
30
0.0
0
VERTEX
5
450
100
AcDbEntity
8
0-0
6
CONTINUOUS
62
  7
100
AcDbVertex
100
AcDb2dVertex
10
836.019939452049
20
3006.172881147638
30
0.0
0
VERTEX
5
451
100
AcDbEntity
8
0-0
6
CONTINUOUS
62
  7
100
AcDbVertex
100
AcDb2dVertex
10
854.516367184679
20
2993.322043858821
30
0.0
0
VERTEX
5
452
100
AcDbEntity
8
0-0
6
CONTINUOUS
62
  7
100
AcDbVertex
100
AcDb2dVertex
10
877.318819741264
20
2982.228969924378
30
0.0
0
VERTEX
5
453
100
AcDbEntity
8
0-0
6
CONTINUOUS
62
  7
100
AcDbVertex
100
AcDb2dVertex
10
903.734456139469
20
2973.230716782442
30
0.0
0
VERTEX
5
454
100
AcDbEntity
8
0-0
6
CONTINUOUS
62
  7
100
AcDbVertex
100
AcDb2dVertex
10
932.960650634291
20
2966.600691801394
30
0.0
0
VERTEX
5
455
100
AcDbEntity
8
0-0
6
CONTINUOUS
62
  7
100
AcDbVertex
100
AcDb2dVertex
10
964.109380095176
20
2962.540344935329
30
0.0
0
VERTEX
5
456
100
AcDbEntity
8
0-0
6
CONTINUOUS
62
  7
100
AcDbVertex
100
AcDb2dVertex
10
996.234206139468
20
2961.173047769138
30
0.0
0
VERTEX
5
457
100
AcDbEntity
8
0-0
6
CONTINUOUS
62
  7
100
AcDbVertex
100
AcDb2dVertex
10
1028.359032183762
20
2962.540344935329
30
0.0
0
VERTEX
5
458
100
AcDbEntity
8
0-0
6
CONTINUOUS
62
  7
100
AcDbVertex
100
AcDb2dVertex
10
1059.507761644646
20
2966.600691801394
30
0.0
0
VERTEX
5
459
100
AcDbEntity
8
0-0
6
CONTINUOUS
62
  7
100
AcDbVertex
100
AcDb2dVertex
10
1088.733956139469
20
2973.230716782442
30
0.0
0
VERTEX
5
45a
100
AcDbEntity
8
0-0
6
CONTINUOUS
62
  7
100
AcDbVertex
100
AcDb2dVertex
10
1115.149592537674
20
2982.228969924378
30
0.0
0
VERTEX
5
45b
100
AcDbEntity
8
0-0
6
CONTINUOUS
62
  7
100
AcDbVertex
100
AcDb2dVertex
10
1137.952045094258
20
2993.322043858820
30
0.0
0
VERTEX
5
45c
100
AcDbEntity
8
0-0
6
CONTINUOUS
62
  7
100
AcDbVertex
100
AcDb2dVertex
10
1156.448472826888
20
3006.172881147637
30
0.0
0
VERTEX
5
45d
100
AcDbEntity
8
0-0
6
CONTINUOUS
62
  7
100
AcDbVertex
100
AcDb2dVertex
10
1170.076871138551
20
3020.391015602646
30
0.0
0
VERTEX
5
45e
100
AcDbEntity
8
0-0
6
CONTINUOUS
62
  7
100
AcDbVertex
100
AcDb2dVertex
10
1178.423148042851
20
3035.544436403153
30
0.0
0
VERTEX
5
45f
100
AcDbEntity
8
0-0
6
CONTINUOUS
62
  7
100
AcDbVertex
100
AcDb2dVertex
10
1181.233706139469
20
3051.172714526137
30
0.0
0
SEQEND
5
460
100
AcDbEntity
8
0-0
0
POLYLINE
5
461
100
AcDbEntity
8
0-0
6
CONTINUOUS
62
  7
100
AcDb2dPolyline
66
1
10
0.0
20
0.0
30
0.0
70
0
0
VERTEX
5
462
100
AcDbEntity
8
0-0
6
CONTINUOUS
62
  7
100
AcDbVertex
100
AcDb2dVertex
10
1181.233706139469
20
3051.172714526138
30
0.0
0
VERTEX
5
463
100
AcDbEntity
8
0-0
6
CONTINUOUS
62
  7
100
AcDbVertex
100
AcDb2dVertex
10
1178.423148042851
20
3070.273975467944
30
0.0
0
VERTEX
5
464
100
AcDbEntity
8
0-0
6
CONTINUOUS
62
  7
100
AcDbVertex
100
AcDb2dVertex
10
1170.076871138552
20
3088.794854261739
30
0.0
0
VERTEX
5
465
100
AcDbEntity
8
0-0
6
CONTINUOUS
62
  7
100
AcDbVertex
100
AcDb2dVertex
10
1156.448472826888
20
3106.172603377388
30
0.0
0
VERTEX
5
466
100
AcDbEntity
8
0-0
6
CONTINUOUS
62
  7
100
AcDbVertex
100
AcDb2dVertex
10
1137.952045094258
20
3121.879208701578
30
0.0
0
VERTEX
5
467
100
AcDbEntity
8
0-0
6
CONTINUOUS
62
  7
100
AcDbVertex
100
AcDb2dVertex
10
1115.149592537674
20
3135.437432979461
30
0.0
0
VERTEX
5
468
100
AcDbEntity
8
0-0
6
CONTINUOUS
62
  7
100
AcDbVertex
100
AcDb2dVertex
10
1088.733956139469
20
3146.435316427143
30
0.0
0
VERTEX
5
469
100
AcDbEntity
8
0-0
6
CONTINUOUS
62
  7
100
AcDbVertex
100
AcDb2dVertex
10
1059.507761644646
20
3154.538693921267
30
0.0
0
VERTEX
5
46a
100
AcDbEntity
8
0-0
6
CONTINUOUS
62
  7
100
AcDbVertex
100
AcDb2dVertex
10
1028.359032183762
20
3159.501348437179
30
0.0
0
VERTEX
5
46b
100
AcDbEntity
8
0-0
6
CONTINUOUS
62
  7
100
AcDbVertex
100
AcDb2dVertex
10
996.234206139469
20
3161.172492228638
30
0.0
0
VERTEX
5
46c
100
AcDbEntity
8
0-0
6
CONTINUOUS
62
  7
100
AcDbVertex
100
AcDb2dVertex
10
964.109380095176
20
3159.501348437179
30
0.0
0
VERTEX
5
46d
100
AcDbEntity
8
0-0
6
CONTINUOUS
62
  7
100
AcDbVertex
100
AcDb2dVertex
10
932.960650634293
20
3154.538693921267
30
0.0
0
VERTEX
5
46e
100
AcDbEntity
8
0-0
6
CONTINUOUS
62
  7
100
AcDbVertex
100
AcDb2dVertex
10
903.734456139469
20
3146.435316427143
30
0.0
0
VERTEX
5
46f
100
AcDbEntity
8
0-0
6
CONTINUOUS
62
  7
100
AcDbVertex
100
AcDb2dVertex
10
877.318819741265
20
3135.437432979461
30
0.0
0
VERTEX
5
470
100
AcDbEntity
8
0-0
6
CONTINUOUS
62
  7
100
AcDbVertex
100
AcDb2dVertex
10
854.516367184679
20
3121.879208701578
30
0.0
0
VERTEX
5
471
100
AcDbEntity
8
0-0
6
CONTINUOUS
62
  7
100
AcDbVertex
100
AcDb2dVertex
10
836.019939452050
20
3106.172603377388
30
0.0
0
VERTEX
5
472
100
AcDbEntity
8
0-0
6
CONTINUOUS
62
  7
100
AcDbVertex
100
AcDb2dVertex
10
822.391541140386
20
3088.794854261739
30
0.0
0
VERTEX
5
473
100
AcDbEntity
8
0-0
6
CONTINUOUS
62
  7
100
AcDbVertex
100
AcDb2dVertex
10
814.045264236087
20
3070.273975467944
30
0.0
0
VERTEX
5
474
100
AcDbEntity
8
0-0
6
CONTINUOUS
62
  7
100
AcDbVertex
100
AcDb2dVertex
10
811.234706139468
20
3051.172714527260
30
0.0
0
SEQEND
5
475
100
AcDbEntity
8
0-0
0
ARC
5
476
100
AcDbEntity
8
0-0
6
CONTINUOUS
62
7
100
AcDbCircle
10
926.233706139469
20
2910.372214526138
30
0.0
40
17.280000000000
100
AcDbArc
50
0.000000000000
51
180.000000000000
0
ARC
5
477
100
AcDbEntity
8
0-0
6
CONTINUOUS
62
7
100
AcDbCircle
10
996.234206139469
20
2547.360214526138
30
0.0
40
113.425500000000
100
AcDbArc
50
239.665000000000
51
300.335000000000
0
ARC
5
478
100
AcDbEntity
8
0-0
6
CONTINUOUS
62
7
100
AcDbCircle
10
927.951206139469
20
2654.581714526138
30
0.0
40
240.501000000000
100
AcDbArc
50
301.474341286764
51
342.421419099494
0
ARC
5
479
100
AcDbEntity
8
0-0
6
CONTINUOUS
62
7
100
AcDbCircle
10
788.430206139469
20
2707.723714526138
30
0.0
40
389.650500000000
100
AcDbArc
50
341.168103151609
51
387.622525421851
0
ARC
5
47a
100
AcDbEntity
8
0-0
6
CONTINUOUS
62
7
100
AcDbCircle
10
1107.303206139469
20
2872.315714526138
30
0.0
40
30.874500000000
100
AcDbArc
50
31.357777946637
51
91.984227868683
0
ARC
5
47b
100
AcDbEntity
8
0-0
6
CONTINUOUS
62
7
100
AcDbCircle
10
1064.517206139469
20
2654.581714526138
30
0.0
40
240.501000000000
100
AcDbArc
50
197.578580900506
51
238.525658713236
0
ARC
5
47c
100
AcDbEntity
8
0-0
6
CONTINUOUS
62
7
100
AcDbCircle
10
1204.038206139469
20
2707.723714526138
30
0.0
40
389.650500000000
100
AcDbArc
50
152.377474392272
51
198.831896662514
0
ARC
5
47d
100
AcDbEntity
8
0-0
6
CONTINUOUS
62
7
100
AcDbCircle
10
885.165206139469
20
2872.315714526138
30
0.0
40
30.874500000000
100
AcDbArc
50
88.015772131317
51
148.642222053363
0
ARC
5
47e
100
AcDbEntity
8
0-0
6
CONTINUOUS
62
7
100
AcDbCircle
10
1066.233206139469
20
2910.372214526138
30
0.0
40
17.280000000000
100
AcDbArc
50
0.000000000000
51
180.000000000000
0
LINE
5
47f
100
AcDbEntity
8
0-0
6
CONTINUOUS
62
7
100
AcDbLine
10
1106.233706139469
20
2903.172214526137
30
0.0
11
886.233206139469
21
2903.172214526137
31
0.0
0
POLYLINE
5
480
100
AcDbEntity
8
0-0
6
CONTINUOUS
62
  7
100
AcDb2dPolyline
66
1
10
0.0
20
0.0
30
0.0
70
0
0
VERTEX
5
481
100
AcDbEntity
8
0-0
6
CONTINUOUS
62
  7
100
AcDbVertex
100
AcDb2dVertex
10
2062.231613475418
20
2572.016177745538
30
0.0
0
VERTEX
5
482
100
AcDbEntity
8
0-0
6
CONTINUOUS
62
  7
100
AcDbVertex
100
AcDb2dVertex
10
2064.971229687933
20
2572.007446202505
30
0.0
0
VERTEX
5
483
100
AcDbEntity
8
0-0
6
CONTINUOUS
62
  7
100
AcDbVertex
100
AcDb2dVertex
10
2069.668497126691
20
2572.051969198955
30
0.0
0
VERTEX
5
484
100
AcDbEntity
8
0-0
6
CONTINUOUS
62
  7
100
AcDbVertex
100
AcDb2dVertex
10
2074.292962371792
20
2572.261984920380
30
0.0
0
VERTEX
5
485
100
AcDbEntity
8
0-0
6
CONTINUOUS
62
  7
100
AcDbVertex
100
AcDb2dVertex
10
2078.798548085482
20
2572.742235597775
30
0.0
0
VERTEX
5
486
100
AcDbEntity
8
0-0
6
CONTINUOUS
62
  7
100
AcDbVertex
100
AcDb2dVertex
10
2083.139176930004
20
2573.597463462137
30
0.0
0
VERTEX
5
487
100
AcDbEntity
8
0-0
6
CONTINUOUS
62
  7
100
AcDbVertex
100
AcDb2dVertex
10
2087.268771567600
20
2574.932410744463
30
0.0
0
VERTEX
5
488
100
AcDbEntity
8
0-0
6
CONTINUOUS
62
  7
100
AcDbVertex
100
AcDb2dVertex
10
2089.549083716694
20
2575.967761491132
30
0.0
0
VERTEX
5
489
100
AcDbEntity
8
0-0
6
CONTINUOUS
62
  7
100
AcDbVertex
100
AcDb2dVertex
10
2091.872081898709
20
2577.300438134282
30
0.0
0
VERTEX
5
48a
100
AcDbEntity
8
0-0
6
CONTINUOUS
62
  7
100
AcDbVertex
100
AcDb2dVertex
10
2095.622232385878
20
2580.110814248529
30
0.0
0
VERTEX
5
48b
100
AcDbEntity
8
0-0
6
CONTINUOUS
62
  7
100
AcDbVertex
100
AcDb2dVertex
10
2099.047829282987
20
2583.472719373514
30
0.0
0
VERTEX
5
48c
100
AcDbEntity
8
0-0
6
CONTINUOUS
62
  7
100
AcDbVertex
100
AcDb2dVertex
10
2102.146843529126
20
2587.272892035134
30
0.0
0
VERTEX
5
48d
100
AcDbEntity
8
0-0
6
CONTINUOUS
62
  7
100
AcDbVertex
100
AcDb2dVertex
10
2104.780637469688
20
2591.194658129788
30
0.0
0
SEQEND
5
48e
100
AcDbEntity
8
0-0
0
POLYLINE
5
48f
100
AcDbEntity
8
0-0
6
CONTINUOUS
62
  7
100
AcDb2dPolyline
66
1
10
0.0
20
0.0
30
0.0
70
0
0
VERTEX
5
490
100
AcDbEntity
8
0-0
6
CONTINUOUS
62
  7
100
AcDbVertex
100
AcDb2dVertex
10
2062.091621780728
20
2588.098208536382
30
0.0
0
VERTEX
5
491
100
AcDbEntity
8
0-0
6
CONTINUOUS
62
  7
100
AcDbVertex
100
AcDb2dVertex
10
2063.885093790156
20
2588.113162878464
30
0.0
0
VERTEX
5
492
100
AcDbEntity
8
0-0
6
CONTINUOUS
62
  7
100
AcDbVertex
100
AcDb2dVertex
10
2066.961124557439
20
2588.177288835195
30
0.0
0
VERTEX
5
493
100
AcDbEntity
8
0-0
6
CONTINUOUS
62
  7
100
AcDbVertex
100
AcDb2dVertex
10
2069.992259901332
20
2588.347922037239
30
0.0
0
VERTEX
5
494
100
AcDbEntity
8
0-0
6
CONTINUOUS
62
  7
100
AcDbVertex
100
AcDb2dVertex
10
2072.950084996902
20
2588.692472133530
30
0.0
0
VERTEX
5
495
100
AcDbEntity
8
0-0
6
CONTINUOUS
62
  7
100
AcDbVertex
100
AcDb2dVertex
10
2075.806185019220
20
2589.278348772999
30
0.0
0
VERTEX
5
496
100
AcDbEntity
8
0-0
6
CONTINUOUS
62
  7
100
AcDbVertex
100
AcDb2dVertex
10
2078.532145143355
20
2590.172961604580
30
0.0
0
VERTEX
5
497
100
AcDbEntity
8
0-0
6
CONTINUOUS
62
  7
100
AcDbVertex
100
AcDb2dVertex
10
2080.042374995412
20
2590.859862877102
30
0.0
0
VERTEX
5
498
100
AcDbEntity
8
0-0
6
CONTINUOUS
62
  7
100
AcDbVertex
100
AcDb2dVertex
10
2081.163958002001
20
2591.479965717611
30
0.0
0
VERTEX
5
499
100
AcDbEntity
8
0-0
6
CONTINUOUS
62
  7
100
AcDbVertex
100
AcDb2dVertex
10
2083.017839267330
20
2592.723264088341
30
0.0
0
VERTEX
5
49a
100
AcDbEntity
8
0-0
6
CONTINUOUS
62
  7
100
AcDbVertex
100
AcDb2dVertex
10
2084.773337908643
20
2594.157312168711
30
0.0
0
VERTEX
5
49b
100
AcDbEntity
8
0-0
6
CONTINUOUS
62
  7
100
AcDbVertex
100
AcDb2dVertex
10
2086.433633593533
20
2595.747574675162
30
0.0
0
VERTEX
5
49c
100
AcDbEntity
8
0-0
6
CONTINUOUS
62
  7
100
AcDbVertex
100
AcDb2dVertex
10
2088.001905989595
20
2597.459516324134
30
0.0
0
VERTEX
5
49d
100
AcDbEntity
8
0-0
6
CONTINUOUS
62
  7
100
AcDbVertex
100
AcDb2dVertex
10
2089.481334764422
20
2599.258601832068
30
0.0
0
VERTEX
5
49e
100
AcDbEntity
8
0-0
6
CONTINUOUS
62
  7
100
AcDbVertex
100
AcDb2dVertex
10
2090.299948260946
20
2600.328392045288
30
0.0
0
VERTEX
5
49f
100
AcDbEntity
8
0-0
6
CONTINUOUS
62
  7
100
AcDbVertex
100
AcDb2dVertex
10
2094.295448228352
20
2606.381944782912
30
0.0
0
VERTEX
5
4a0
100
AcDbEntity
8
0-0
6
CONTINUOUS
62
  7
100
AcDbVertex
100
AcDb2dVertex
10
2099.430652189506
20
2617.500669846030
30
0.0
0
VERTEX
5
4a1
100
AcDbEntity
8
0-0
6
CONTINUOUS
62
  7
100
AcDbVertex
100
AcDb2dVertex
10
2100.334983374331
20
2620.780097542794
30
0.0
0
SEQEND
5
4a2
100
AcDbEntity
8
0-0
0
ARC
5
4a3
100
AcDbEntity
8
0-0
6
CONTINUOUS
62
7
100
AcDbCircle
10
2019.026846626567
20
2429.782462075787
30
0.0
40
12.000000000000
100
AcDbArc
50
90.000000000000
51
180.000000000000
0
ARC
5
4a4
100
AcDbEntity
8
0-0
6
CONTINUOUS
62
7
100
AcDbCircle
10
2051.026846626567
20
2429.782462075787
30
0.0
40
12.000000000000
100
AcDbArc
50
0.000000000000
51
90.000000000000
0
LINE
5
4a5
100
AcDbEntity
8
0-0
6
CONTINUOUS
62
7
100
AcDbLine
10
2062.778552829126
20
2430.065165245744
30
0.0
11
2007.172864844264
21
2430.065165245744
31
0.0
0
LINE
5
4a6
100
AcDbEntity
8
0-0
6
CONTINUOUS
62
7
100
AcDbLine
10
2051.026846626567
20
2441.799361736557
30
0.0
11
2019.026846626567
21
2441.799361736557
31
0.0
0
LINE
5
4a7
100
AcDbEntity
8
0-0
6
CONTINUOUS
62
7
100
AcDbLine
10
2047.567078611426
20
2595.456954927411
30
0.0
11
2022.567078611426
21
2595.456954927411
31
0.0
0
LINE
5
4a8
100
AcDbEntity
8
0-0
6
CONTINUOUS
62
7
100
AcDbLine
10
2022.567078611426
20
2566.164489144281
30
0.0
11
2047.567078611426
21
2566.164489144281
31
0.0
0
LINE
5
4a9
100
AcDbEntity
8
0-0
6
CONTINUOUS
62
7
100
AcDbLine
10
2047.567078611426
20
2558.164489144281
30
0.0
11
2022.567078611426
21
2558.164489144281
31
0.0
0
ARC
5
4aa
100
AcDbEntity
8
0-0
6
CONTINUOUS
62
7
100
AcDbCircle
10
2035.017818864500
20
2562.204167071367
30
0.0
40
13.134414676531
100
AcDbArc
50
342.276763383114
51
377.297564485525
0
ARC
5
4ab
100
AcDbEntity
8
0-0
6
CONTINUOUS
62
7
100
AcDbCircle
10
2035.017818864500
20
2562.204167071367
30
0.0
40
13.134414676531
100
AcDbArc
50
162.521885466274
51
198.017609214690
0
CIRCLE
5
4ac
100
AcDbEntity
8
0-0
6
CONTINUOUS
62
7
100
AcDbCircle
10
2035.034277071793
20
2562.191449365731
30
0.0
40
3.389457447208
0
ARC
5
4ad
100
AcDbEntity
8
0-0
6
CONTINUOUS
62
7
100
AcDbCircle
10
2022.365683184257
20
2562.188185824997
30
0.0
40
3.389457447208
100
AcDbArc
50
269.971509582607
51
449.978070214998
0
ARC
5
4ae
100
AcDbEntity
8
0-0
6
CONTINUOUS
62
7
100
AcDbCircle
10
2047.675044027035
20
2562.201950077651
30
0.0
40
3.389457447208
100
AcDbArc
50
90.339830380176
51
269.767752220994
0
ARC
5
4af
100
AcDbEntity
8
0-0
6
CONTINUOUS
62
7
100
AcDbCircle
10
2039.346846626567
20
2627.130658626802
30
0.0
40
3.240000000000
100
AcDbArc
50
0.000000000000
51
90.000000000000
0
ARC
5
4b0
100
AcDbEntity
8
0-0
6
CONTINUOUS
62
7
100
AcDbCircle
10
2030.706846626567
20
2627.130658626802
30
0.0
40
3.240000000000
100
AcDbArc
50
90.000000000000
51
180.000000000000
0
LINE
5
4b1
100
AcDbEntity
8
0-0
6
CONTINUOUS
62
7
100
AcDbLine
10
2039.346846626567
20
2630.370658626804
30
0.0
11
2030.706846626567
21
2630.370658626804
31
0.0
0
ARC
5
4b2
100
AcDbEntity
8
0-0
6
CONTINUOUS
62
7
100
AcDbCircle
10
2013.135893540037
20
2621.101293427892
30
0.0
40
3.000000000000
100
AcDbArc
50
180.000000000000
51
270.000000000000
0
LINE
5
4b3
100
AcDbEntity
8
0-0
6
CONTINUOUS
62
7
100
AcDbLine
10
2010.135893540037
20
2624.101293427892
30
0.0
11
2010.135893540037
21
2621.101293427892
31
0.0
0
ARC
5
4b4
100
AcDbEntity
8
0-0
6
CONTINUOUS
62
7
100
AcDbCircle
10
2013.135893540037
20
2624.101293427892
30
0.0
40
3.000000000000
100
AcDbArc
50
90.000000000000
51
180.000000000000
0
LINE
5
4b5
100
AcDbEntity
8
0-0
6
CONTINUOUS
62
7
100
AcDbLine
10
2057.135893540037
20
2618.101293427892
30
0.0
11
2013.135893540037
21
2618.101293427892
31
0.0
0
ARC
5
4b6
100
AcDbEntity
8
0-0
6
CONTINUOUS
62
7
100
AcDbCircle
10
2057.135893540037
20
2621.101293427892
30
0.0
40
3.000000000000
100
AcDbArc
50
270.000000000000
51
360.000000000000
0
LINE
5
4b7
100
AcDbEntity
8
0-0
6
CONTINUOUS
62
7
100
AcDbLine
10
2060.135893540037
20
2624.101293427892
30
0.0
11
2060.135893540037
21
2621.101293427892
31
0.0
0
LINE
5
4b8
100
AcDbEntity
8
0-0
6
CONTINUOUS
62
7
100
AcDbLine
10
2057.135893540037
20
2627.101293427892
30
0.0
11
2013.135893540037
21
2627.101293427892
31
0.0
0
ARC
5
4b9
100
AcDbEntity
8
0-0
6
CONTINUOUS
62
7
100
AcDbCircle
10
2057.135893540037
20
2624.101293427892
30
0.0
40
3.000000000000
100
AcDbArc
50
0.000000000000
51
90.000000000000
0
LINE
5
4ba
100
AcDbEntity
8
0-0
6
CONTINUOUS
62
7
100
AcDbLine
10
2070.033233579626
20
2570.520902805306
30
0.0
11
2070.033233579626
21
2590.520902805306
31
0.0
0
LINE
5
4bb
100
AcDbEntity
8
0-0
6
CONTINUOUS
62
7
100
AcDbLine
10
2056.033233579626
20
2571.635832118565
30
0.0
11
2056.033233579626
21
2589.405973492044
31
0.0
0
LINE
5
4bc
100
AcDbEntity
8
0-0
6
CONTINUOUS
62
7
100
AcDbLine
10
2058.033233579626
20
2570.520902805306
30
0.0
11
2058.033233579626
21
2590.520902805306
31
0.0
0
ARC
5
4bd
100
AcDbEntity
8
0-0
6
CONTINUOUS
62
7
100
AcDbCircle
10
2064.033233579626
20
2562.993717087847
30
0.0
40
9.625929816131
100
AcDbArc
50
51.441277284353
51
128.558722715647
0
ARC
5
4be
100
AcDbEntity
8
0-0
6
CONTINUOUS
62
7
100
AcDbCircle
10
2064.033233579626
20
2578.178685732058
30
0.0
40
6.440961171922
100
AcDbArc
50
21.324157753203
51
158.675842246797
0
ARC
5
4bf
100
AcDbEntity
8
0-0
6
CONTINUOUS
62
7
100
AcDbCircle
10
2064.033233579626
20
2582.863119878551
30
0.0
40
6.440961171922
100
AcDbArc
50
201.324157753203
51
338.675842246797
0
ARC
5
4c0
100
AcDbEntity
8
0-0
6
CONTINUOUS
62
7
100
AcDbCircle
10
2064.033233579626
20
2578.048088522762
30
0.0
40
9.625929816131
100
AcDbArc
50
231.441277284353
51
308.558722715647
0
ARC
5
4c1
100
AcDbEntity
8
0-0
6
CONTINUOUS
62
7
100
AcDbCircle
10
2064.033233579626
20
2598.048088522762
30
0.0
40
9.625929816131
100
AcDbArc
50
231.441277284353
51
308.558722715647
0
ARC
5
4c2
100
AcDbEntity
8
0-0
6
CONTINUOUS
62
7
100
AcDbCircle
10
2064.033233579626
20
2582.993717087847
30
0.0
40
9.625929816131
100
AcDbArc
50
51.441277284353
51
128.558722715647
0
POLYLINE
5
4c3
100
AcDbEntity
8
0-0
6
CONTINUOUS
62
  7
100
AcDb2dPolyline
66
1
10
0.0
20
0.0
30
0.0
70
0
0
VERTEX
5
4c4
100
AcDbEntity
8
0-0
6
CONTINUOUS
62
  7
100
AcDbVertex
100
AcDb2dVertex
10
2047.481409365828
20
2566.199031210879
30
0.0
0
VERTEX
5
4c5
100
AcDbEntity
8
0-0
6
CONTINUOUS
62
  7
100
AcDbVertex
100
AcDb2dVertex
10
2047.634184803633
20
2566.348373958093
30
0.0
0
VERTEX
5
4c6
100
AcDbEntity
8
0-0
6
CONTINUOUS
62
  7
100
AcDbVertex
100
AcDb2dVertex
10
2047.897682902635
20
2566.605579380935
30
0.0
0
VERTEX
5
4c7
100
AcDbEntity
8
0-0
6
CONTINUOUS
62
  7
100
AcDbVertex
100
AcDb2dVertex
10
2048.161437034280
20
2566.862001269460
30
0.0
0
VERTEX
5
4c8
100
AcDbEntity
8
0-0
6
CONTINUOUS
62
  7
100
AcDbVertex
100
AcDb2dVertex
10
2048.425609244545
20
2567.117143715874
30
0.0
0
VERTEX
5
4c9
100
AcDbEntity
8
0-0
6
CONTINUOUS
62
  7
100
AcDbVertex
100
AcDb2dVertex
10
2048.690361579406
20
2567.370510812380
30
0.0
0
VERTEX
5
4ca
100
AcDbEntity
8
0-0
6
CONTINUOUS
62
  7
100
AcDbVertex
100
AcDb2dVertex
10
2048.955856084841
20
2567.621606651182
30
0.0
0
VERTEX
5
4cb
100
AcDbEntity
8
0-0
6
CONTINUOUS
62
  7
100
AcDbVertex
100
AcDb2dVertex
10
2049.222254806827
20
2567.869935324488
30
0.0
0
VERTEX
5
4cc
100
AcDbEntity
8
0-0
6
CONTINUOUS
62
  7
100
AcDbVertex
100
AcDb2dVertex
10
2049.489719791339
20
2568.115000924499
30
0.0
0
VERTEX
5
4cd
100
AcDbEntity
8
0-0
6
CONTINUOUS
62
  7
100
AcDbVertex
100
AcDb2dVertex
10
2049.758413084355
20
2568.356307543423
30
0.0
0
VERTEX
5
4ce
100
AcDbEntity
8
0-0
6
CONTINUOUS
62
  7
100
AcDbVertex
100
AcDb2dVertex
10
2050.028496731852
20
2568.593359273461
30
0.0
0
VERTEX
5
4cf
100
AcDbEntity
8
0-0
6
CONTINUOUS
62
  7
100
AcDbVertex
100
AcDb2dVertex
10
2050.300132779806
20
2568.825660206821
30
0.0
0
VERTEX
5
4d0
100
AcDbEntity
8
0-0
6
CONTINUOUS
62
  7
100
AcDbVertex
100
AcDb2dVertex
10
2050.573483274195
20
2569.052714435706
30
0.0
0
VERTEX
5
4d1
100
AcDbEntity
8
0-0
6
CONTINUOUS
62
  7
100
AcDbVertex
100
AcDb2dVertex
10
2050.848710260993
20
2569.274026052321
30
0.0
0
VERTEX
5
4d2
100
AcDbEntity
8
0-0
6
CONTINUOUS
62
  7
100
AcDbVertex
100
AcDb2dVertex
10
2051.125975786179
20
2569.489099148870
30
0.0
0
VERTEX
5
4d3
100
AcDbEntity
8
0-0
6
CONTINUOUS
62
  7
100
AcDbVertex
100
AcDb2dVertex
10
2051.405441895730
20
2569.697437817557
30
0.0
0
VERTEX
5
4d4
100
AcDbEntity
8
0-0
6
CONTINUOUS
62
  7
100
AcDbVertex
100
AcDb2dVertex
10
2051.687270635622
20
2569.898546150589
30
0.0
0
VERTEX
5
4d5
100
AcDbEntity
8
0-0
6
CONTINUOUS
62
  7
100
AcDbVertex
100
AcDb2dVertex
10
2051.971624051831
20
2570.091928240170
30
0.0
0
VERTEX
5
4d6
100
AcDbEntity
8
0-0
6
CONTINUOUS
62
  7
100
AcDbVertex
100
AcDb2dVertex
10
2052.258664190335
20
2570.277088178504
30
0.0
0
VERTEX
5
4d7
100
AcDbEntity
8
0-0
6
CONTINUOUS
62
  7
100
AcDbVertex
100
AcDb2dVertex
10
2052.548553097111
20
2570.453530057795
30
0.0
0
VERTEX
5
4d8
100
AcDbEntity
8
0-0
6
CONTINUOUS
62
  7
100
AcDbVertex
100
AcDb2dVertex
10
2052.841452818134
20
2570.620757970248
30
0.0
0
VERTEX
5
4d9
100
AcDbEntity
8
0-0
6
CONTINUOUS
62
  7
100
AcDbVertex
100
AcDb2dVertex
10
2053.137525399382
20
2570.778276008068
30
0.0
0
VERTEX
5
4da
100
AcDbEntity
8
0-0
6
CONTINUOUS
62
  7
100
AcDbVertex
100
AcDb2dVertex
10
2053.436932886832
20
2570.925588263461
30
0.0
0
VERTEX
5
4db
100
AcDbEntity
8
0-0
6
CONTINUOUS
62
  7
100
AcDbVertex
100
AcDb2dVertex
10
2053.739837326460
20
2571.062198828629
30
0.0
0
VERTEX
5
4dc
100
AcDbEntity
8
0-0
6
CONTINUOUS
62
  7
100
AcDbVertex
100
AcDb2dVertex
10
2054.046400764243
20
2571.187611795779
30
0.0
0
VERTEX
5
4dd
100
AcDbEntity
8
0-0
6
CONTINUOUS
62
  7
100
AcDbVertex
100
AcDb2dVertex
10
2054.356785246158
20
2571.301331257115
30
0.0
0
VERTEX
5
4de
100
AcDbEntity
8
0-0
6
CONTINUOUS
62
  7
100
AcDbVertex
100
AcDb2dVertex
10
2054.671152818181
20
2571.402861304840
30
0.0
0
VERTEX
5
4df
100
AcDbEntity
8
0-0
6
CONTINUOUS
62
  7
100
AcDbVertex
100
AcDb2dVertex
10
2054.989665526290
20
2571.491706031160
30
0.0
0
VERTEX
5
4e0
100
AcDbEntity
8
0-0
6
CONTINUOUS
62
  7
100
AcDbVertex
100
AcDb2dVertex
10
2055.312485416461
20
2571.567369528280
30
0.0
0
VERTEX
5
4e1
100
AcDbEntity
8
0-0
6
CONTINUOUS
62
  7
100
AcDbVertex
100
AcDb2dVertex
10
2055.639774534671
20
2571.629355888405
30
0.0
0
VERTEX
5
4e2
100
AcDbEntity
8
0-0
6
CONTINUOUS
62
  7
100
AcDbVertex
100
AcDb2dVertex
10
2055.831713878061
20
2571.658845699647
30
0.0
0
VERTEX
5
4e3
100
AcDbEntity
8
0-0
6
CONTINUOUS
62
  7
100
AcDbVertex
100
AcDb2dVertex
10
2055.871094194420
20
2571.664272332175
30
0.0
0
VERTEX
5
4e4
100
AcDbEntity
8
0-0
6
CONTINUOUS
62
  7
100
AcDbVertex
100
AcDb2dVertex
10
2055.939143043331
20
2571.673164190713
30
0.0
0
VERTEX
5
4e5
100
AcDbEntity
8
0-0
6
CONTINUOUS
62
  7
100
AcDbVertex
100
AcDb2dVertex
10
2056.007378174400
20
2571.681485971693
30
0.0
0
VERTEX
5
4e6
100
AcDbEntity
8
0-0
6
CONTINUOUS
62
  7
100
AcDbVertex
100
AcDb2dVertex
10
2056.075792833382
20
2571.689258345077
30
0.0
0
VERTEX
5
4e7
100
AcDbEntity
8
0-0
6
CONTINUOUS
62
  7
100
AcDbVertex
100
AcDb2dVertex
10
2056.144380266026
20
2571.696501980827
30
0.0
0
VERTEX
5
4e8
100
AcDbEntity
8
0-0
6
CONTINUOUS
62
  7
100
AcDbVertex
100
AcDb2dVertex
10
2056.213133718085
20
2571.703237548906
30
0.0
0
VERTEX
5
4e9
100
AcDbEntity
8
0-0
6
CONTINUOUS
62
  7
100
AcDbVertex
100
AcDb2dVertex
10
2056.282046435311
20
2571.709485719275
30
0.0
0
VERTEX
5
4ea
100
AcDbEntity
8
0-0
6
CONTINUOUS
62
  7
100
AcDbVertex
100
AcDb2dVertex
10
2056.351111663456
20
2571.715267161897
30
0.0
0
VERTEX
5
4eb
100
AcDbEntity
8
0-0
6
CONTINUOUS
62
  7
100
AcDbVertex
100
AcDb2dVertex
10
2056.420322648272
20
2571.720602546735
30
0.0
0
VERTEX
5
4ec
100
AcDbEntity
8
0-0
6
CONTINUOUS
62
  7
100
AcDbVertex
100
AcDb2dVertex
10
2056.489672635512
20
2571.725512543750
30
0.0
0
VERTEX
5
4ed
100
AcDbEntity
8
0-0
6
CONTINUOUS
62
  7
100
AcDbVertex
100
AcDb2dVertex
10
2056.559154870927
20
2571.730017822904
30
0.0
0
VERTEX
5
4ee
100
AcDbEntity
8
0-0
6
CONTINUOUS
62
  7
100
AcDbVertex
100
AcDb2dVertex
10
2056.628762600269
20
2571.734139054161
30
0.0
0
VERTEX
5
4ef
100
AcDbEntity
8
0-0
6
CONTINUOUS
62
  7
100
AcDbVertex
100
AcDb2dVertex
10
2056.698489069289
20
2571.737896907481
30
0.0
0
VERTEX
5
4f0
100
AcDbEntity
8
0-0
6
CONTINUOUS
62
  7
100
AcDbVertex
100
AcDb2dVertex
10
2056.768327523742
20
2571.741312052829
30
0.0
0
VERTEX
5
4f1
100
AcDbEntity
8
0-0
6
CONTINUOUS
62
  7
100
AcDbVertex
100
AcDb2dVertex
10
2056.838271209377
20
2571.744405160164
30
0.0
0
VERTEX
5
4f2
100
AcDbEntity
8
0-0
6
CONTINUOUS
62
  7
100
AcDbVertex
100
AcDb2dVertex
10
2056.908313371948
20
2571.747196899450
30
0.0
0
VERTEX
5
4f3
100
AcDbEntity
8
0-0
6
CONTINUOUS
62
  7
100
AcDbVertex
100
AcDb2dVertex
10
2056.978447257206
20
2571.749707940649
30
0.0
0
VERTEX
5
4f4
100
AcDbEntity
8
0-0
6
CONTINUOUS
62
  7
100
AcDbVertex
100
AcDb2dVertex
10
2057.048666110904
20
2571.751958953723
30
0.0
0
VERTEX
5
4f5
100
AcDbEntity
8
0-0
6
CONTINUOUS
62
  7
100
AcDbVertex
100
AcDb2dVertex
10
2057.118963178793
20
2571.753970608635
30
0.0
0
VERTEX
5
4f6
100
AcDbEntity
8
0-0
6
CONTINUOUS
62
  7
100
AcDbVertex
100
AcDb2dVertex
10
2057.189331706626
20
2571.755763575347
30
0.0
0
VERTEX
5
4f7
100
AcDbEntity
8
0-0
6
CONTINUOUS
62
  7
100
AcDbVertex
100
AcDb2dVertex
10
2057.259764940155
20
2571.757358523821
30
0.0
0
VERTEX
5
4f8
100
AcDbEntity
8
0-0
6
CONTINUOUS
62
  7
100
AcDbVertex
100
AcDb2dVertex
10
2057.330256125130
20
2571.758776124018
30
0.0
0
VERTEX
5
4f9
100
AcDbEntity
8
0-0
6
CONTINUOUS
62
  7
100
AcDbVertex
100
AcDb2dVertex
10
2057.400798507305
20
2571.760037045902
30
0.0
0
VERTEX
5
4fa
100
AcDbEntity
8
0-0
6
CONTINUOUS
62
  7
100
AcDbVertex
100
AcDb2dVertex
10
2057.471385332432
20
2571.761161959435
30
0.0
0
VERTEX
5
4fb
100
AcDbEntity
8
0-0
6
CONTINUOUS
62
  7
100
AcDbVertex
100
AcDb2dVertex
10
2057.542009846263
20
2571.762171534578
30
0.0
0
VERTEX
5
4fc
100
AcDbEntity
8
0-0
6
CONTINUOUS
62
  7
100
AcDbVertex
100
AcDb2dVertex
10
2057.612665294550
20
2571.763086441294
30
0.0
0
VERTEX
5
4fd
100
AcDbEntity
8
0-0
6
CONTINUOUS
62
  7
100
AcDbVertex
100
AcDb2dVertex
10
2057.683344923044
20
2571.763927349546
30
0.0
0
VERTEX
5
4fe
100
AcDbEntity
8
0-0
6
CONTINUOUS
62
  7
100
AcDbVertex
100
AcDb2dVertex
10
2057.754041977497
20
2571.764714929294
30
0.0
0
VERTEX
5
4ff
100
AcDbEntity
8
0-0
6
CONTINUOUS
62
  7
100
AcDbVertex
100
AcDb2dVertex
10
2057.824749703663
20
2571.765469850504
30
0.0
0
VERTEX
5
500
100
AcDbEntity
8
0-0
6
CONTINUOUS
62
  7
100
AcDbVertex
100
AcDb2dVertex
10
2057.865762413092
20
2571.765900885701
30
0.0
0
SEQEND
5
501
100
AcDbEntity
8
0-0
0
ARC
5
502
100
AcDbEntity
8
0-0
6
CONTINUOUS
62
7
100
AcDbCircle
10
2035.017818864500
20
2599.496632854497
30
0.0
40
13.134414676531
100
AcDbArc
50
342.276763383114
51
377.297564485525
0
ARC
5
503
100
AcDbEntity
8
0-0
6
CONTINUOUS
62
7
100
AcDbCircle
10
2035.017818864500
20
2599.496632854497
30
0.0
40
13.134414676531
100
AcDbArc
50
162.521885466274
51
198.017609214690
0
CIRCLE
5
504
100
AcDbEntity
8
0-0
6
CONTINUOUS
62
7
100
AcDbCircle
10
2035.034277071793
20
2599.483915148861
30
0.0
40
3.389457447208
0
ARC
5
505
100
AcDbEntity
8
0-0
6
CONTINUOUS
62
7
100
AcDbCircle
10
2022.365683184258
20
2599.480651608127
30
0.0
40
3.389457447208
100
AcDbArc
50
269.971509582607
51
449.978070214998
0
ARC
5
506
100
AcDbEntity
8
0-0
6
CONTINUOUS
62
7
100
AcDbCircle
10
2047.675044027035
20
2599.494415860781
30
0.0
40
3.389457447208
100
AcDbArc
50
90.339830380176
51
269.767752220994
0
LINE
5
507
100
AcDbEntity
8
0-0
6
CONTINUOUS
62
7
100
AcDbLine
10
2022.669665061040
20
2603.183338719932
30
0.0
11
2047.537540659424
21
2603.183338719932
31
0.0
0
LINE
5
508
100
AcDbEntity
8
0-0
6
CONTINUOUS
62
7
100
AcDbLine
10
2022.826821034185
20
2566.231275812031
30
0.0
11
2022.826821034185
21
2595.380353022513
31
0.0
0
POLYLINE
5
509
100
AcDbEntity
8
0-0
6
CONTINUOUS
62
  7
100
AcDb2dPolyline
66
1
10
0.0
20
0.0
30
0.0
70
0
0
VERTEX
5
50a
100
AcDbEntity
8
0-0
6
CONTINUOUS
62
  7
100
AcDbVertex
100
AcDb2dVertex
10
2057.944626928635
20
2589.256703497140
30
0.0
0
VERTEX
5
50b
100
AcDbEntity
8
0-0
6
CONTINUOUS
62
  7
100
AcDbVertex
100
AcDb2dVertex
10
2057.259221452421
20
2589.478536758456
30
0.0
0
VERTEX
5
50c
100
AcDbEntity
8
0-0
6
CONTINUOUS
62
  7
100
AcDbVertex
100
AcDb2dVertex
10
2056.083513534935
20
2589.870305065996
30
0.0
0
VERTEX
5
50d
100
AcDbEntity
8
0-0
6
CONTINUOUS
62
  7
100
AcDbVertex
100
AcDb2dVertex
10
2054.924543567986
20
2590.287898838362
30
0.0
0
VERTEX
5
50e
100
AcDbEntity
8
0-0
6
CONTINUOUS
62
  7
100
AcDbVertex
100
AcDb2dVertex
10
2053.792905191155
20
2590.747663306458
30
0.0
0
VERTEX
5
50f
100
AcDbEntity
8
0-0
6
CONTINUOUS
62
  7
100
AcDbVertex
100
AcDb2dVertex
10
2052.699192044021
20
2591.265943701187
30
0.0
0
VERTEX
5
510
100
AcDbEntity
8
0-0
6
CONTINUOUS
62
  7
100
AcDbVertex
100
AcDb2dVertex
10
2051.653997766166
20
2591.859085253453
30
0.0
0
VERTEX
5
511
100
AcDbEntity
8
0-0
6
CONTINUOUS
62
  7
100
AcDbVertex
100
AcDb2dVertex
10
2051.074190875777
20
2592.243849607078
30
0.0
0
VERTEX
5
512
100
AcDbEntity
8
0-0
6
CONTINUOUS
62
  7
100
AcDbVertex
100
AcDb2dVertex
10
2050.724881639726
20
2592.499264377208
30
0.0
0
VERTEX
5
513
100
AcDbEntity
8
0-0
6
CONTINUOUS
62
  7
100
AcDbVertex
100
AcDb2dVertex
10
2050.140176565401
20
2592.966716509327
30
0.0
0
VERTEX
5
514
100
AcDbEntity
8
0-0
6
CONTINUOUS
62
  7
100
AcDbVertex
100
AcDb2dVertex
10
2049.574177096482
20
2593.463030057508
30
0.0
0
VERTEX
5
515
100
AcDbEntity
8
0-0
6
CONTINUOUS
62
  7
100
AcDbVertex
100
AcDb2dVertex
10
2049.022799039648
20
2593.981903402522
30
0.0
0
VERTEX
5
516
100
AcDbEntity
8
0-0
6
CONTINUOUS
62
  7
100
AcDbVertex
100
AcDb2dVertex
10
2048.481958201580
20
2594.517034925143
30
0.0
0
VERTEX
5
517
100
AcDbEntity
8
0-0
6
CONTINUOUS
62
  7
100
AcDbVertex
100
AcDb2dVertex
10
2047.947570388957
20
2595.062123006143
30
0.0
0
VERTEX
5
518
100
AcDbEntity
8
0-0
6
CONTINUOUS
62
  7
100
AcDbVertex
100
AcDb2dVertex
10
2047.638972849349
20
2595.380353022513
30
0.0
0
SEQEND
5
519
100
AcDbEntity
8
0-0
0
POLYLINE
5
51a
100
AcDbEntity
8
0-0
6
CONTINUOUS
62
  7
100
AcDb2dPolyline
66
1
10
0.0
20
0.0
30
0.0
70
0
0
VERTEX
5
51b
100
AcDbEntity
8
0-0
6
CONTINUOUS
62
  7
100
AcDbVertex
100
AcDb2dVertex
10
2022.498031839075
20
2603.179585521088
30
0.0
0
VERTEX
5
51c
100
AcDbEntity
8
0-0
6
CONTINUOUS
62
  7
100
AcDbVertex
100
AcDb2dVertex
10
2022.970100933173
20
2603.454733292892
30
0.0
0
VERTEX
5
51d
100
AcDbEntity
8
0-0
6
CONTINUOUS
62
  7
100
AcDbVertex
100
AcDb2dVertex
10
2023.782006038352
20
2603.931872540337
30
0.0
0
VERTEX
5
51e
100
AcDbEntity
8
0-0
6
CONTINUOUS
62
  7
100
AcDbVertex
100
AcDb2dVertex
10
2024.588335793462
20
2604.416641058436
30
0.0
0
VERTEX
5
51f
100
AcDbEntity
8
0-0
6
CONTINUOUS
62
  7
100
AcDbVertex
100
AcDb2dVertex
10
2025.385561495928
20
2604.913867499503
30
0.0
0
VERTEX
5
520
100
AcDbEntity
8
0-0
6
CONTINUOUS
62
  7
100
AcDbVertex
100
AcDb2dVertex
10
2026.170154443174
20
2605.428380515850
30
0.0
0
VERTEX
5
521
100
AcDbEntity
8
0-0
6
CONTINUOUS
62
  7
100
AcDbVertex
100
AcDb2dVertex
10
2026.938585932624
20
2605.965008759793
30
0.0
0
VERTEX
5
522
100
AcDbEntity
8
0-0
6
CONTINUOUS
62
  7
100
AcDbVertex
100
AcDb2dVertex
10
2027.375480524237
20
2606.288289078664
30
0.0
0
VERTEX
5
523
100
AcDbEntity
8
0-0
6
CONTINUOUS
62
  7
100
AcDbVertex
100
AcDb2dVertex
10
2027.625208589632
20
2606.479901732261
30
0.0
0
VERTEX
5
524
100
AcDbEntity
8
0-0
6
CONTINUOUS
62
  7
100
AcDbVertex
100
AcDb2dVertex
10
2028.050690151496
20
2606.817225380223
30
0.0
0
VERTEX
5
525
100
AcDbEntity
8
0-0
6
CONTINUOUS
62
  7
100
AcDbVertex
100
AcDb2dVertex
10
2028.470753565551
20
2607.161963184348
30
0.0
0
VERTEX
5
526
100
AcDbEntity
8
0-0
6
CONTINUOUS
62
  7
100
AcDbVertex
100
AcDb2dVertex
10
2028.886581833502
20
2607.512496333247
30
0.0
0
VERTEX
5
527
100
AcDbEntity
8
0-0
6
CONTINUOUS
62
  7
100
AcDbVertex
100
AcDb2dVertex
10
2029.299357957054
20
2607.867206015532
30
0.0
0
VERTEX
5
528
100
AcDbEntity
8
0-0
6
CONTINUOUS
62
  7
100
AcDbVertex
100
AcDb2dVertex
10
2029.710264937913
20
2608.224473419812
30
0.0
0
VERTEX
5
529
100
AcDbEntity
8
0-0
6
CONTINUOUS
62
  7
100
AcDbVertex
100
AcDb2dVertex
10
2029.948200709817
20
2608.432222566647
30
0.0
0
SEQEND
5
52a
100
AcDbEntity
8
0-0
0
LINE
5
52b
100
AcDbEntity
8
0-0
6
CONTINUOUS
62
7
100
AcDbLine
10
2040.026846626567
20
2608.462307442628
30
0.0
11
2030.026846626567
21
2608.462307442628
31
0.0
0
POLYLINE
5
52c
100
AcDbEntity
8
0-0
6
CONTINUOUS
62
  7
100
AcDb2dPolyline
66
1
10
0.0
20
0.0
30
0.0
70
0
0
VERTEX
5
52d
100
AcDbEntity
8
0-0
6
CONTINUOUS
62
  7
100
AcDbVertex
100
AcDb2dVertex
10
2047.635651985679
20
2603.233183858287
30
0.0
0
VERTEX
5
52e
100
AcDbEntity
8
0-0
6
CONTINUOUS
62
  7
100
AcDbVertex
100
AcDb2dVertex
10
2047.144086443260
20
2603.491870769441
30
0.0
0
VERTEX
5
52f
100
AcDbEntity
8
0-0
6
CONTINUOUS
62
  7
100
AcDbVertex
100
AcDb2dVertex
10
2046.299248391885
20
2603.941625474442
30
0.0
0
VERTEX
5
530
100
AcDbEntity
8
0-0
6
CONTINUOUS
62
  7
100
AcDbVertex
100
AcDb2dVertex
10
2045.461879079118
20
2604.401776816165
30
0.0
0
VERTEX
5
531
100
AcDbEntity
8
0-0
6
CONTINUOUS
62
  7
100
AcDbVertex
100
AcDb2dVertex
10
2044.636705554710
20
2604.878904944432
30
0.0
0
VERTEX
5
532
100
AcDbEntity
8
0-0
6
CONTINUOUS
62
  7
100
AcDbVertex
100
AcDb2dVertex
10
2043.828454868414
20
2605.379590009067
30
0.0
0
VERTEX
5
533
100
AcDbEntity
8
0-0
6
CONTINUOUS
62
  7
100
AcDbVertex
100
AcDb2dVertex
10
2043.041854069982
20
2605.910412159893
30
0.0
0
VERTEX
5
534
100
AcDbEntity
8
0-0
6
CONTINUOUS
62
  7
100
AcDbVertex
100
AcDb2dVertex
10
2042.597408288918
20
2606.234690741464
30
0.0
0
VERTEX
5
535
100
AcDbEntity
8
0-0
6
CONTINUOUS
62
  7
100
AcDbVertex
100
AcDb2dVertex
10
2042.339711052907
20
2606.432151303579
30
0.0
0
VERTEX
5
536
100
AcDbEntity
8
0-0
6
CONTINUOUS
62
  7
100
AcDbVertex
100
AcDb2dVertex
10
2041.902472951519
20
2606.782438622286
30
0.0
0
VERTEX
5
537
100
AcDbEntity
8
0-0
6
CONTINUOUS
62
  7
100
AcDbVertex
100
AcDb2dVertex
10
2041.472766739787
20
2607.143210485260
30
0.0
0
VERTEX
5
538
100
AcDbEntity
8
0-0
6
CONTINUOUS
62
  7
100
AcDbVertex
100
AcDb2dVertex
10
2041.048947900318
20
2607.512177690699
30
0.0
0
VERTEX
5
539
100
AcDbEntity
8
0-0
6
CONTINUOUS
62
  7
100
AcDbVertex
100
AcDb2dVertex
10
2040.629371915720
20
2607.887051036795
30
0.0
0
VERTEX
5
53a
100
AcDbEntity
8
0-0
6
CONTINUOUS
62
  7
100
AcDbVertex
100
AcDb2dVertex
10
2040.212394268602
20
2608.265541321744
30
0.0
0
VERTEX
5
53b
100
AcDbEntity
8
0-0
6
CONTINUOUS
62
  7
100
AcDbVertex
100
AcDb2dVertex
10
2039.971089766138
20
2608.485820903847
30
0.0
0
SEQEND
5
53c
100
AcDbEntity
8
0-0
0
LINE
5
53d
100
AcDbEntity
8
0-0
6
CONTINUOUS
62
7
100
AcDbLine
10
2031.026846626567
20
2608.440433689219
30
0.0
11
2031.026846626567
21
2618.173527165380
31
0.0
0
LINE
5
53e
100
AcDbEntity
8
0-0
6
CONTINUOUS
62
7
100
AcDbLine
10
2039.026846626567
20
2608.373175536849
30
0.0
11
2039.026846626567
21
2618.173527165380
31
0.0
0
LINE
5
53f
100
AcDbEntity
8
0-0
6
CONTINUOUS
62
7
100
AcDbLine
10
2027.026846626567
20
2441.849403659538
30
0.0
11
2027.026846626567
21
2558.089193987391
31
0.0
0
LINE
5
540
100
AcDbEntity
8
0-0
6
CONTINUOUS
62
7
100
AcDbLine
10
2043.026846626567
20
2442.149655197420
30
0.0
11
2043.026846626567
21
2558.089193987391
31
0.0
0
LINE
5
541
100
AcDbEntity
8
0-0
6
CONTINUOUS
62
7
100
AcDbLine
10
2099.528159095359
20
2764.586108030564
30
0.0
11
2432.231159095359
21
2764.586108030564
31
0.0
0
POLYLINE
5
542
100
AcDbEntity
8
0-0
6
CONTINUOUS
62
  7
100
AcDb2dPolyline
66
1
10
0.0
20
0.0
30
0.0
70
0
0
VERTEX
5
543
100
AcDbEntity
8
0-0
6
CONTINUOUS
62
  7
100
AcDbVertex
100
AcDb2dVertex
10
2119.196159095359
20
3099.528608030565
30
0.0
0
VERTEX
5
544
100
AcDbEntity
8
0-0
6
CONTINUOUS
62
  7
100
AcDbVertex
100
AcDb2dVertex
10
2116.112159095359
20
3101.012108030564
30
0.0
0
VERTEX
5
545
100
AcDbEntity
8
0-0
6
CONTINUOUS
62
  7
100
AcDbVertex
100
AcDb2dVertex
10
2149.800659095359
20
3101.582108030565
30
0.0
0
SEQEND
5
546
100
AcDbEntity
8
0-0
0
LINE
5
547
100
AcDbEntity
8
0-0
6
CONTINUOUS
62
7
100
AcDbLine
10
2145.824159095359
20
3103.869608030565
30
0.0
11
2117.799659095359
21
3103.173608030565
31
0.0
0
POLYLINE
5
548
100
AcDbEntity
8
0-0
6
CONTINUOUS
62
  7
100
AcDb2dPolyline
66
1
10
0.0
20
0.0
30
0.0
70
0
0
VERTEX
5
549
100
AcDbEntity
8
0-0
6
CONTINUOUS
62
  7
100
AcDbVertex
100
AcDb2dVertex
10
2136.840659095360
20
3111.138608030565
30
0.0
0
VERTEX
5
54a
100
AcDbEntity
8
0-0
6
CONTINUOUS
62
  7
100
AcDbVertex
100
AcDb2dVertex
10
2123.258159095360
20
3110.168108030564
30
0.0
0
VERTEX
5
54b
100
AcDbEntity
8
0-0
6
CONTINUOUS
62
  7
100
AcDbVertex
100
AcDb2dVertex
10
2116.112159095359
20
3101.012108030564
30
0.0
0
SEQEND
5
54c
100
AcDbEntity
8
0-0
0
LINE
5
54d
100
AcDbEntity
8
0-0
6
CONTINUOUS
62
7
100
AcDbLine
10
2119.196159095359
20
3099.528608030565
30
0.0
11
2149.457159095359
21
3099.528608030565
31
0.0
0
LINE
5
54e
100
AcDbEntity
8
0-0
6
CONTINUOUS
62
7
100
AcDbLine
10
2083.379159095359
20
2814.585608030564
30
0.0
11
2083.379159095359
21
2816.585108030565
31
0.0
0
LINE
5
54f
100
AcDbEntity
8
0-0
6
CONTINUOUS
62
7
100
AcDbLine
10
2448.378659095359
20
2814.585608030564
30
0.0
11
2448.378659095359
21
2816.585108030565
31
0.0
0
LINE
5
550
100
AcDbEntity
8
0-0
6
CONTINUOUS
62
7
100
AcDbLine
10
2083.878659095360
20
2814.585608030564
30
0.0
11
2447.879159095359
21
2814.585608030564
31
0.0
0
LINE
5
551
100
AcDbEntity
8
0-0
6
CONTINUOUS
62
7
100
AcDbLine
10
2080.878659095360
20
2824.586108030564
30
0.0
11
2094.002159095359
21
2824.586108030564
31
0.0
0
LINE
5
552
100
AcDbEntity
8
0-0
6
CONTINUOUS
62
7
100
AcDbLine
10
2080.878659095360
20
3159.585608030564
30
0.0
11
2450.879159095359
21
3159.585608030564
31
0.0
0
LINE
5
553
100
AcDbEntity
8
0-0
6
CONTINUOUS
62
7
100
AcDbLine
10
2083.878659095360
20
3189.585608030564
30
0.0
11
2447.879159095359
21
3189.585608030564
31
0.0
0
LINE
5
554
100
AcDbEntity
8
0-0
6
CONTINUOUS
62
7
100
AcDbLine
10
2080.878659095360
20
3186.585608030564
30
0.0
11
2080.878659095360
21
2824.586108030564
31
0.0
0
LINE
5
555
100
AcDbEntity
8
0-0
6
CONTINUOUS
62
7
100
AcDbLine
10
2450.879159095359
20
3186.585608030564
30
0.0
11
2450.879159095359
21
2824.586108030564
31
0.0
0
LINE
5
556
100
AcDbEntity
8
0-0
6
CONTINUOUS
62
7
100
AcDbLine
10
2437.755659095360
20
2824.586108030564
30
0.0
11
2450.879159095359
21
2824.586108030564
31
0.0
0
ARC
5
557
100
AcDbEntity
8
0-0
6
CONTINUOUS
62
7
100
AcDbCircle
10
2144.772659095359
20
3152.295608030565
30
0.0
40
50.961000000000
100
AcDbArc
50
275.661913969649
51
299.836616130372
0
ARC
5
558
100
AcDbEntity
8
0-0
6
CONTINUOUS
62
7
100
AcDbCircle
10
2161.566659095359
20
3121.791608030565
30
0.0
40
16.156500000000
100
AcDbArc
50
301.993253789310
51
327.982256288303
0
ARC
5
559
100
AcDbEntity
8
0-0
6
CONTINUOUS
62
7
100
AcDbCircle
10
2171.979659095359
20
3115.197608030564
30
0.0
40
3.832500000000
100
AcDbArc
50
329.026836450565
51
409.493520952999
0
ARC
5
55a
100
AcDbEntity
8
0-0
6
CONTINUOUS
62
7
100
AcDbCircle
10
2153.172659095359
20
3094.620608030564
30
0.0
40
31.707000000000
100
AcDbArc
50
47.806621679645
51
80.964157493493
0
ARC
5
55b
100
AcDbEntity
8
0-0
6
CONTINUOUS
62
7
100
AcDbCircle
10
2149.170659095360
20
3086.618108030564
30
0.0
40
40.330500000000
100
AcDbArc
50
77.131533661657
51
96.419524873541
0
ARC
5
55c
100
AcDbEntity
8
0-0
6
CONTINUOUS
62
7
100
AcDbCircle
10
2145.345659095359
20
3125.487608030564
30
0.0
40
1.387500000000
100
AcDbArc
50
119.544814617277
51
208.413874882610
0
ARC
5
55d
100
AcDbEntity
8
0-0
6
CONTINUOUS
62
7
100
AcDbCircle
10
2135.418659095360
20
3070.112108030564
30
0.0
40
55.404000000000
100
AcDbArc
50
66.108873454010
51
80.958603978628
0
ARC
5
55e
100
AcDbEntity
8
0-0
6
CONTINUOUS
62
7
100
AcDbCircle
10
2154.650159095359
20
3112.659608030564
30
0.0
40
8.721000000000
100
AcDbArc
50
9.692501655011
51
68.423217727281
0
ARC
5
55f
100
AcDbEntity
8
0-0
6
CONTINUOUS
62
7
100
AcDbCircle
10
2153.670659095360
20
3116.231108030564
30
0.0
40
9.805500000000
100
AcDbArc
50
307.428121519714
51
347.607252635673
0
ARC
5
560
100
AcDbEntity
8
0-0
6
CONTINUOUS
62
7
100
AcDbCircle
10
2140.782659095359
20
3142.196108030564
30
0.0
40
38.656500000000
100
AcDbArc
50
277.492401797475
51
299.178982489774
0
ARC
5
561
100
AcDbEntity
8
0-0
6
CONTINUOUS
62
7
100
AcDbCircle
10
2148.450659095359
20
3150.438608030564
30
0.0
40
50.920500000000
100
AcDbArc
50
271.133582326351
51
312.214700628734
0
ARC
5
562
100
AcDbEntity
8
0-0
6
CONTINUOUS
62
7
100
AcDbCircle
10
2178.945659095360
20
3115.869608030565
30
0.0
40
4.869000000000
100
AcDbArc
50
319.777838875056
51
398.857473747921
0
ARC
5
563
100
AcDbEntity
8
0-0
6
CONTINUOUS
62
7
100
AcDbCircle
10
2150.261159095359
20
3085.592108030564
30
0.0
40
46.537500000000
100
AcDbArc
50
45.745451082298
51
77.535100743734
0
ARC
5
564
100
AcDbEntity
8
0-0
6
CONTINUOUS
62
7
100
AcDbCircle
10
2151.654659095359
20
3092.324108030564
30
0.0
40
39.664500000000
100
AcDbArc
50
77.401201930256
51
97.758541136678
0
ARC
5
565
100
AcDbEntity
8
0-0
6
CONTINUOUS
62
7
100
AcDbCircle
10
2185.527659095360
20
3112.362608030564
30
0.0
40
43.701000000000
100
AcDbArc
50
153.847089182474
51
174.125070459283
0
ARC
5
566
100
AcDbEntity
8
0-0
6
CONTINUOUS
62
7
100
AcDbCircle
10
2143.224659095359
20
3048.197108030565
30
0.0
40
89.263500000000
100
AcDbArc
50
64.274871981067
51
92.479956096630
0
ARC
5
567
100
AcDbEntity
8
0-0
6
CONTINUOUS
62
7
100
AcDbCircle
10
2176.290659095359
20
3117.402608030564
30
0.0
40
12.567000000000
100
AcDbArc
50
299.832786827406
51
423.138671350138
0
ARC
5
568
100
AcDbEntity
8
0-0
6
CONTINUOUS
62
7
100
AcDbCircle
10
2145.213659095359
20
3163.911608030564
30
0.0
40
68.481000000000
100
AcDbArc
50
265.029108833440
51
303.031871259216
0
ARC
5
569
100
AcDbEntity
8
0-0
6
CONTINUOUS
62
7
100
AcDbCircle
10
2153.619659095360
20
3163.284608030564
30
0.0
40
54.249000000000
100
AcDbArc
50
255.453236592230
51
269.953296230354
0
ARC
5
56a
100
AcDbEntity
8
0-0
6
CONTINUOUS
62
7
100
AcDbCircle
10
2136.414659095360
20
3116.763608030564
30
0.0
40
5.641500000000
100
AcDbArc
50
274.339079449224
51
360.726199280628
0
ARC
5
56b
100
AcDbEntity
8
0-0
6
CONTINUOUS
62
7
100
AcDbCircle
10
2265.879659095359
20
2554.214108030565
30
0.0
40
320.377500000000
100
AcDbArc
50
55.925000000000
51
124.075000000000
0
ARC
5
56c
100
AcDbEntity
8
0-0
6
CONTINUOUS
62
7
100
AcDbCircle
10
2086.379159095359
20
2816.585108030565
30
0.0
40
3.000000000000
100
AcDbArc
50
90.000000000000
51
180.000000000000
0
ARC
5
56d
100
AcDbEntity
8
0-0
6
CONTINUOUS
62
7
100
AcDbCircle
10
2445.378659095359
20
2816.585108030565
30
0.0
40
3.000000000000
100
AcDbArc
50
0.000000000000
51
90.000000000000
0
ARC
5
56e
100
AcDbEntity
8
0-0
6
CONTINUOUS
62
7
100
AcDbCircle
10
2265.879659095359
20
63.032108030565
30
0.0
40
2757.600000000000
100
AcDbArc
50
86.205000000000
51
93.795000000000
0
ARC
5
56f
100
AcDbEntity
8
0-0
6
CONTINUOUS
62
7
100
AcDbCircle
10
2083.878659095360
20
2811.585608030564
30
0.0
40
3.000000000000
100
AcDbArc
50
90.000000000000
51
180.000000000000
0
ARC
5
570
100
AcDbEntity
8
0-0
6
CONTINUOUS
62
7
100
AcDbCircle
10
2447.879159095359
20
2811.585608030564
30
0.0
40
3.000000000000
100
AcDbArc
50
0.000000000000
51
90.000000000000
0
ARC
5
571
100
AcDbEntity
8
0-0
6
CONTINUOUS
62
7
100
AcDbCircle
10
2083.878659095360
20
3186.585608030564
30
0.0
40
3.000000000000
100
AcDbArc
50
90.000000000000
51
180.000000000000
0
ARC
5
572
100
AcDbEntity
8
0-0
6
CONTINUOUS
62
7
100
AcDbCircle
10
2447.879159095359
20
3186.585608030564
30
0.0
40
3.000000000000
100
AcDbArc
50
0.000000000000
51
90.000000000000
0
ARC
5
573
100
AcDbEntity
8
0-0
6
CONTINUOUS
62
7
100
AcDbCircle
10
4287.113159095359
20
2930.453108030564
30
0.0
40
2208.772500000000
100
AcDbArc
50
182.747000000000
51
183.039000000000
0
ARC
5
574
100
AcDbEntity
8
0-0
6
CONTINUOUS
62
7
100
AcDbCircle
10
244.644659095360
20
2930.453108030564
30
0.0
40
2208.772500000000
100
AcDbArc
50
356.961000000000
51
357.253000000000
0
ARC
5
575
100
AcDbEntity
8
0-0
6
CONTINUOUS
62
7
100
AcDbCircle
10
4287.113159095359
20
2930.453108030564
30
0.0
40
2208.772500000000
100
AcDbArc
50
185.017000000000
51
193.107000000000
0
ARC
5
576
100
AcDbEntity
8
0-0
6
CONTINUOUS
62
7
100
AcDbCircle
10
2364.923159095359
20
2796.852608030565
30
0.0
40
284.425500000000
100
AcDbArc
50
177.030976885727
51
212.001486660502
0
ARC
5
577
100
AcDbEntity
8
0-0
6
CONTINUOUS
62
7
100
AcDbCircle
10
1810.127159095359
20
2488.829108030564
30
0.0
40
350.832000000000
100
AcDbArc
50
7.025080863491
51
26.637993919986
0
LINE
5
578
100
AcDbEntity
8
0-0
6
CONTINUOUS
62
7
100
AcDbLine
10
2158.414181847283
20
2534.735700469622
30
0.0
11
2158.414181847283
21
2429.585108030564
31
0.0
0
LINE
5
579
100
AcDbEntity
8
0-0
6
CONTINUOUS
62
7
100
AcDbLine
10
2373.446491106161
20
2534.735700469622
30
0.0
11
2373.446491106161
21
2429.585108030564
31
0.0
0
ARC
5
57a
100
AcDbEntity
8
0-0
6
CONTINUOUS
62
7
100
AcDbCircle
10
2721.632159095359
20
2488.829108030564
30
0.0
40
350.832000000000
100
AcDbArc
50
153.362006080014
51
172.974919136509
0
ARC
5
57b
100
AcDbEntity
8
0-0
6
CONTINUOUS
62
7
100
AcDbCircle
10
244.644659095360
20
2930.453108030564
30
0.0
40
2208.772500000000
100
AcDbArc
50
346.893000000000
51
354.983000000000
0
ARC
5
57c
100
AcDbEntity
8
0-0
6
CONTINUOUS
62
7
100
AcDbCircle
10
2166.836159095360
20
2796.852608030565
30
0.0
40
284.425500000000
100
AcDbArc
50
327.998513014974
51
362.969022789749
0
LINE
5
57d
100
AcDbEntity
8
0-0
6
CONTINUOUS
62
7
100
AcDbLine
10
2314.901829748491
20
2430.525996327684
30
0.0
11
2393.925716533062
21
2430.525996327684
31
0.0
0
LINE
5
57e
100
AcDbEntity
8
0-0
6
CONTINUOUS
62
7
100
AcDbLine
10
2136.256972644376
20
2430.525996327684
30
0.0
11
2345.839784975696
21
2430.525996327684
31
0.0
0
LINE
5
57f
100
AcDbEntity
8
0-0
6
CONTINUOUS
62
7
100
AcDbLine
10
3331.053615445675
20
2589.876118925929
30
0.0
11
3306.053615445675
21
2589.876118925929
31
0.0
0
LINE
5
580
100
AcDbEntity
8
0-0
6
CONTINUOUS
62
7
100
AcDbLine
10
3306.053615445675
20
2560.583653142799
30
0.0
11
3331.053615445675
21
2560.583653142799
31
0.0
0
LINE
5
581
100
AcDbEntity
8
0-0
6
CONTINUOUS
62
7
100
AcDbLine
10
3331.053615445675
20
2552.583653142799
30
0.0
11
3306.053615445675
21
2552.583653142799
31
0.0
0
ARC
5
582
100
AcDbEntity
8
0-0
6
CONTINUOUS
62
7
100
AcDbCircle
10
3318.504355698748
20
2556.623331069885
30
0.0
40
13.134414676531
100
AcDbArc
50
342.276763383114
51
377.297564485525
0
ARC
5
583
100
AcDbEntity
8
0-0
6
CONTINUOUS
62
7
100
AcDbCircle
10
3318.504355698748
20
2556.623331069885
30
0.0
40
13.134414676531
100
AcDbArc
50
162.521885466274
51
198.017609214690
0
CIRCLE
5
584
100
AcDbEntity
8
0-0
6
CONTINUOUS
62
7
100
AcDbCircle
10
3318.520813906042
20
2556.610613364250
30
0.0
40
3.389457447208
0
ARC
5
585
100
AcDbEntity
8
0-0
6
CONTINUOUS
62
7
100
AcDbCircle
10
3305.852220018506
20
2556.607349823516
30
0.0
40
3.389457447208
100
AcDbArc
50
269.971509582607
51
449.978070214998
0
ARC
5
586
100
AcDbEntity
8
0-0
6
CONTINUOUS
62
7
100
AcDbCircle
10
3331.161580861284
20
2556.621114076170
30
0.0
40
3.389457447208
100
AcDbArc
50
90.339830380176
51
269.767752220994
0
ARC
5
587
100
AcDbEntity
8
0-0
6
CONTINUOUS
62
7
100
AcDbCircle
10
3322.833383460815
20
2621.549822625321
30
0.0
40
3.240000000000
100
AcDbArc
50
0.000000000000
51
90.000000000000
0
ARC
5
588
100
AcDbEntity
8
0-0
6
CONTINUOUS
62
7
100
AcDbCircle
10
3314.193383460816
20
2621.549822625321
30
0.0
40
3.240000000000
100
AcDbArc
50
90.000000000000
51
180.000000000000
0
LINE
5
589
100
AcDbEntity
8
0-0
6
CONTINUOUS
62
7
100
AcDbLine
10
3322.833383460815
20
2624.789822625323
30
0.0
11
3314.193383460816
21
2624.789822625323
31
0.0
0
ARC
5
58a
100
AcDbEntity
8
0-0
6
CONTINUOUS
62
7
100
AcDbCircle
10
3296.622430374285
20
2615.520457426410
30
0.0
40
3.000000000000
100
AcDbArc
50
180.000000000000
51
270.000000000000
0
LINE
5
58b
100
AcDbEntity
8
0-0
6
CONTINUOUS
62
7
100
AcDbLine
10
3293.622430374285
20
2618.520457426410
30
0.0
11
3293.622430374285
21
2615.520457426410
31
0.0
0
ARC
5
58c
100
AcDbEntity
8
0-0
6
CONTINUOUS
62
7
100
AcDbCircle
10
3296.622430374285
20
2618.520457426410
30
0.0
40
3.000000000000
100
AcDbArc
50
90.000000000000
51
180.000000000000
0
LINE
5
58d
100
AcDbEntity
8
0-0
6
CONTINUOUS
62
7
100
AcDbLine
10
3340.622430374285
20
2612.520457426410
30
0.0
11
3296.622430374285
21
2612.520457426410
31
0.0
0
ARC
5
58e
100
AcDbEntity
8
0-0
6
CONTINUOUS
62
7
100
AcDbCircle
10
3340.622430374285
20
2615.520457426410
30
0.0
40
3.000000000000
100
AcDbArc
50
270.000000000000
51
360.000000000000
0
LINE
5
58f
100
AcDbEntity
8
0-0
6
CONTINUOUS
62
7
100
AcDbLine
10
3343.622430374285
20
2618.520457426410
30
0.0
11
3343.622430374285
21
2615.520457426410
31
0.0
0
LINE
5
590
100
AcDbEntity
8
0-0
6
CONTINUOUS
62
7
100
AcDbLine
10
3340.622430374285
20
2621.520457426410
30
0.0
11
3296.622430374285
21
2621.520457426410
31
0.0
0
ARC
5
591
100
AcDbEntity
8
0-0
6
CONTINUOUS
62
7
100
AcDbCircle
10
3340.622430374285
20
2618.520457426410
30
0.0
40
3.000000000000
100
AcDbArc
50
0.000000000000
51
90.000000000000
0
ARC
5
592
100
AcDbEntity
8
0-0
6
CONTINUOUS
62
7
100
AcDbCircle
10
3318.504355698748
20
2593.915796853015
30
0.0
40
13.134414676531
100
AcDbArc
50
342.276763383114
51
377.297564485525
0
ARC
5
593
100
AcDbEntity
8
0-0
6
CONTINUOUS
62
7
100
AcDbCircle
10
3318.504355698748
20
2593.915796853015
30
0.0
40
13.134414676531
100
AcDbArc
50
162.521885466274
51
198.017609214690
0
CIRCLE
5
594
100
AcDbEntity
8
0-0
6
CONTINUOUS
62
7
100
AcDbCircle
10
3318.520813906042
20
2593.903079147380
30
0.0
40
3.389457447208
0
ARC
5
595
100
AcDbEntity
8
0-0
6
CONTINUOUS
62
7
100
AcDbCircle
10
3305.852220018506
20
2593.899815606646
30
0.0
40
3.389457447208
100
AcDbArc
50
269.971509582607
51
449.978070214998
0
ARC
5
596
100
AcDbEntity
8
0-0
6
CONTINUOUS
62
7
100
AcDbCircle
10
3331.161580861284
20
2593.913579859300
30
0.0
40
3.389457447208
100
AcDbArc
50
90.339830380176
51
269.767752220994
0
LINE
5
597
100
AcDbEntity
8
0-0
6
CONTINUOUS
62
7
100
AcDbLine
10
3306.156201895288
20
2597.602502718451
30
0.0
11
3331.024077493672
21
2597.602502718451
31
0.0
0
LINE
5
598
100
AcDbEntity
8
0-0
6
CONTINUOUS
62
7
100
AcDbLine
10
3306.313357868433
20
2560.650439810549
30
0.0
11
3306.313357868433
21
2589.799517021032
31
0.0
0
POLYLINE
5
599
100
AcDbEntity
8
0-0
6
CONTINUOUS
62
  7
100
AcDb2dPolyline
66
1
10
0.0
20
0.0
30
0.0
70
0
0
VERTEX
5
59a
100
AcDbEntity
8
0-0
6
CONTINUOUS
62
  7
100
AcDbVertex
100
AcDb2dVertex
10
3305.984568673324
20
2597.598749519607
30
0.0
0
VERTEX
5
59b
100
AcDbEntity
8
0-0
6
CONTINUOUS
62
  7
100
AcDbVertex
100
AcDb2dVertex
10
3306.456637767422
20
2597.873897291411
30
0.0
0
VERTEX
5
59c
100
AcDbEntity
8
0-0
6
CONTINUOUS
62
  7
100
AcDbVertex
100
AcDb2dVertex
10
3307.268542872601
20
2598.351036538856
30
0.0
0
VERTEX
5
59d
100
AcDbEntity
8
0-0
6
CONTINUOUS
62
  7
100
AcDbVertex
100
AcDb2dVertex
10
3308.074872627711
20
2598.835805056955
30
0.0
0
VERTEX
5
59e
100
AcDbEntity
8
0-0
6
CONTINUOUS
62
  7
100
AcDbVertex
100
AcDb2dVertex
10
3308.872098330176
20
2599.333031498021
30
0.0
0
VERTEX
5
59f
100
AcDbEntity
8
0-0
6
CONTINUOUS
62
  7
100
AcDbVertex
100
AcDb2dVertex
10
3309.656691277422
20
2599.847544514369
30
0.0
0
VERTEX
5
5a0
100
AcDbEntity
8
0-0
6
CONTINUOUS
62
  7
100
AcDbVertex
100
AcDb2dVertex
10
3310.425122766873
20
2600.384172758311
30
0.0
0
VERTEX
5
5a1
100
AcDbEntity
8
0-0
6
CONTINUOUS
62
  7
100
AcDbVertex
100
AcDb2dVertex
10
3310.862017358485
20
2600.707453077182
30
0.0
0
VERTEX
5
5a2
100
AcDbEntity
8
0-0
6
CONTINUOUS
62
  7
100
AcDbVertex
100
AcDb2dVertex
10
3311.111745423880
20
2600.899065730780
30
0.0
0
VERTEX
5
5a3
100
AcDbEntity
8
0-0
6
CONTINUOUS
62
  7
100
AcDbVertex
100
AcDb2dVertex
10
3311.537226985744
20
2601.236389378742
30
0.0
0
VERTEX
5
5a4
100
AcDbEntity
8
0-0
6
CONTINUOUS
62
  7
100
AcDbVertex
100
AcDb2dVertex
10
3311.957290399799
20
2601.581127182867
30
0.0
0
VERTEX
5
5a5
100
AcDbEntity
8
0-0
6
CONTINUOUS
62
  7
100
AcDbVertex
100
AcDb2dVertex
10
3312.373118667751
20
2601.931660331766
30
0.0
0
VERTEX
5
5a6
100
AcDbEntity
8
0-0
6
CONTINUOUS
62
  7
100
AcDbVertex
100
AcDb2dVertex
10
3312.785894791303
20
2602.286370014051
30
0.0
0
VERTEX
5
5a7
100
AcDbEntity
8
0-0
6
CONTINUOUS
62
  7
100
AcDbVertex
100
AcDb2dVertex
10
3313.196801772162
20
2602.643637418330
30
0.0
0
VERTEX
5
5a8
100
AcDbEntity
8
0-0
6
CONTINUOUS
62
  7
100
AcDbVertex
100
AcDb2dVertex
10
3313.434737544066
20
2602.851386565165
30
0.0
0
SEQEND
5
5a9
100
AcDbEntity
8
0-0
0
LINE
5
5aa
100
AcDbEntity
8
0-0
6
CONTINUOUS
62
7
100
AcDbLine
10
3323.513383460816
20
2602.881471441147
30
0.0
11
3313.513383460816
21
2602.881471441147
31
0.0
0
POLYLINE
5
5ab
100
AcDbEntity
8
0-0
6
CONTINUOUS
62
  7
100
AcDb2dPolyline
66
1
10
0.0
20
0.0
30
0.0
70
0
0
VERTEX
5
5ac
100
AcDbEntity
8
0-0
6
CONTINUOUS
62
  7
100
AcDbVertex
100
AcDb2dVertex
10
3331.122188819927
20
2597.652347856806
30
0.0
0
VERTEX
5
5ad
100
AcDbEntity
8
0-0
6
CONTINUOUS
62
  7
100
AcDbVertex
100
AcDb2dVertex
10
3330.630623277509
20
2597.911034767960
30
0.0
0
VERTEX
5
5ae
100
AcDbEntity
8
0-0
6
CONTINUOUS
62
  7
100
AcDbVertex
100
AcDb2dVertex
10
3329.785785226133
20
2598.360789472961
30
0.0
0
VERTEX
5
5af
100
AcDbEntity
8
0-0
6
CONTINUOUS
62
  7
100
AcDbVertex
100
AcDb2dVertex
10
3328.948415913366
20
2598.820940814684
30
0.0
0
VERTEX
5
5b0
100
AcDbEntity
8
0-0
6
CONTINUOUS
62
  7
100
AcDbVertex
100
AcDb2dVertex
10
3328.123242388959
20
2599.298068942951
30
0.0
0
VERTEX
5
5b1
100
AcDbEntity
8
0-0
6
CONTINUOUS
62
  7
100
AcDbVertex
100
AcDb2dVertex
10
3327.314991702663
20
2599.798754007586
30
0.0
0
VERTEX
5
5b2
100
AcDbEntity
8
0-0
6
CONTINUOUS
62
  7
100
AcDbVertex
100
AcDb2dVertex
10
3326.528390904230
20
2600.329576158412
30
0.0
0
VERTEX
5
5b3
100
AcDbEntity
8
0-0
6
CONTINUOUS
62
  7
100
AcDbVertex
100
AcDb2dVertex
10
3326.083945123167
20
2600.653854739983
30
0.0
0
VERTEX
5
5b4
100
AcDbEntity
8
0-0
6
CONTINUOUS
62
  7
100
AcDbVertex
100
AcDb2dVertex
10
3325.826247887155
20
2600.851315302098
30
0.0
0
VERTEX
5
5b5
100
AcDbEntity
8
0-0
6
CONTINUOUS
62
  7
100
AcDbVertex
100
AcDb2dVertex
10
3325.389009785768
20
2601.201602620804
30
0.0
0
VERTEX
5
5b6
100
AcDbEntity
8
0-0
6
CONTINUOUS
62
  7
100
AcDbVertex
100
AcDb2dVertex
10
3324.959303574035
20
2601.562374483779
30
0.0
0
VERTEX
5
5b7
100
AcDbEntity
8
0-0
6
CONTINUOUS
62
  7
100
AcDbVertex
100
AcDb2dVertex
10
3324.535484734567
20
2601.931341689217
30
0.0
0
VERTEX
5
5b8
100
AcDbEntity
8
0-0
6
CONTINUOUS
62
  7
100
AcDbVertex
100
AcDb2dVertex
10
3324.115908749969
20
2602.306215035314
30
0.0
0
VERTEX
5
5b9
100
AcDbEntity
8
0-0
6
CONTINUOUS
62
  7
100
AcDbVertex
100
AcDb2dVertex
10
3323.698931102850
20
2602.684705320262
30
0.0
0
VERTEX
5
5ba
100
AcDbEntity
8
0-0
6
CONTINUOUS
62
  7
100
AcDbVertex
100
AcDb2dVertex
10
3323.457626600387
20
2602.904984902365
30
0.0
0
SEQEND
5
5bb
100
AcDbEntity
8
0-0
0
LINE
5
5bc
100
AcDbEntity
8
0-0
6
CONTINUOUS
62
7
100
AcDbLine
10
3314.513383460816
20
2602.859597687737
30
0.0
11
3314.513383460816
21
2612.592691163899
31
0.0
0
LINE
5
5bd
100
AcDbEntity
8
0-0
6
CONTINUOUS
62
7
100
AcDbLine
10
3322.513383460816
20
2602.792339535368
30
0.0
11
3322.513383460816
21
2612.592691163899
31
0.0
0
LINE
5
5be
100
AcDbEntity
8
0-0
6
CONTINUOUS
62
7
100
AcDbLine
10
3330.904653150124
20
2560.670654238002
30
0.0
11
3330.904653150124
21
2589.864098643891
31
0.0
0
LINE
5
5bf
100
AcDbEntity
8
0-0
6
CONTINUOUS
62
7
100
AcDbLine
10
3312.326501749137
20
2601.740750670446
30
0.0
11
3312.326501749137
21
2612.228280079636
31
0.0
0
LINE
5
5c0
100
AcDbEntity
8
0-0
6
CONTINUOUS
62
7
100
AcDbLine
10
3312.326501749137
20
2623.676653643960
30
0.0
11
3312.326501749137
21
2657.150393757243
31
0.0
0
LINE
5
5c1
100
AcDbEntity
8
0-0
6
CONTINUOUS
62
7
100
AcDbLine
10
3601.801059635552
20
2428.886108228893
30
0.0
11
3501.801059635552
21
2428.886108228893
31
0.0
0
LINE
5
5c2
100
AcDbEntity
8
0-0
6
CONTINUOUS
62
7
100
AcDbLine
10
3949.724693427734
20
2813.894743818140
30
0.0
11
3447.724193427735
21
2813.894743818140
31
0.0
0
LINE
5
5c3
100
AcDbEntity
8
0-0
6
CONTINUOUS
62
7
100
AcDbLine
10
3422.725193427735
20
3158.894743818141
30
0.0
11
3422.725193427735
21
3183.895243818140
31
0.0
0
ARC
5
5c4
100
AcDbEntity
8
0-0
6
CONTINUOUS
62
7
100
AcDbCircle
10
3534.248693427734
20
2449.249243818141
30
0.0
40
51.831000000000
100
AcDbArc
50
5.143335435865
51
73.814960392260
0
ARC
5
5c5
100
AcDbEntity
8
0-0
6
CONTINUOUS
62
7
100
AcDbCircle
10
3435.134693427734
20
1976.668243818141
30
0.0
40
534.558000000000
100
AcDbArc
50
77.734646064966
51
91.774233288744
0
ARC
5
5c6
100
AcDbEntity
8
0-0
6
CONTINUOUS
62
7
100
AcDbCircle
10
3238.141193427734
20
2536.096243818141
30
0.0
40
182.184000000000
100
AcDbArc
50
352.073004513174
51
385.593118119583
0
ARC
5
5c7
100
AcDbEntity
8
0-0
6
CONTINUOUS
62
7
100
AcDbCircle
10
3405.422693427734
20
2619.350743818141
30
0.0
40
5.439000000000
100
AcDbArc
50
102.513329631548
51
236.870806608370
0
ARC
5
5c8
100
AcDbEntity
8
0-0
6
CONTINUOUS
62
7
100
AcDbCircle
10
3342.433193427734
20
2433.890743818141
30
0.0
40
200.532000000000
100
AcDbArc
50
42.500755529082
51
72.047040171841
0
ARC
5
5c9
100
AcDbEntity
8
0-0
6
CONTINUOUS
62
7
100
AcDbCircle
10
3621.677693427734
20
2683.036243818141
30
0.0
40
173.740500000000
100
AcDbArc
50
220.861056109803
51
277.619074083741
0
ARC
5
5ca
100
AcDbEntity
8
0-0
6
CONTINUOUS
62
7
100
AcDbCircle
10
3315.458693427734
20
2559.949243818141
30
0.0
40
332.898000000000
100
AcDbArc
50
341.423061638204
51
374.570722938194
0
ARC
5
5cb
100
AcDbEntity
8
0-0
6
CONTINUOUS
62
7
100
AcDbCircle
10
3878.152193427734
20
2808.443743818141
30
0.0
40
74.611500000000
100
AcDbArc
50
319.343752926797
51
361.882591738096
0
ARC
5
5cc
100
AcDbEntity
8
0-0
6
CONTINUOUS
62
7
100
AcDbCircle
10
4969.000193427734
20
2020.706743818141
30
0.0
40
1271.208000000000
100
AcDbArc
50
144.448362625976
51
149.685201989868
0
ARC
5
5cd
100
AcDbEntity
8
0-0
6
CONTINUOUS
62
7
100
AcDbCircle
10
4401.959693427734
20
2404.421743818141
30
0.0
40
589.743000000000
100
AcDbArc
50
154.064640362060
51
177.621566771534
0
ARC
5
5ce
100
AcDbEntity
8
0-0
6
CONTINUOUS
62
7
100
AcDbCircle
10
3659.603693427735
20
2768.000743818141
30
0.0
40
139.263000000000
100
AcDbArc
50
184.730624018258
51
262.282992147557
0
ARC
5
5cf
100
AcDbEntity
8
0-0
6
CONTINUOUS
62
7
100
AcDbCircle
10
3921.584693427735
20
2818.316743818141
30
0.0
40
29.235000000000
100
AcDbArc
50
355.392000000000
51
435.048000000000
0
ARC
5
5d0
100
AcDbEntity
8
0-0
6
CONTINUOUS
62
7
100
AcDbCircle
10
3447.724193427735
20
2818.895743818141
30
0.0
40
4.999500000000
100
AcDbArc
50
180.000000000000
51
270.000000000000
0
ARC
5
5d1
100
AcDbEntity
8
0-0
6
CONTINUOUS
62
7
100
AcDbCircle
10
3949.724693427734
20
2810.894743818141
30
0.0
40
3.000000000000
100
AcDbArc
50
0.000000000000
51
90.000000000000
0
ARC
5
5d2
100
AcDbEntity
8
0-0
6
CONTINUOUS
62
7
100
AcDbCircle
10
3655.711193427734
20
2800.840243818141
30
0.0
40
187.314000000000
100
AcDbArc
50
191.375330358346
51
266.402197004903
0
ARC
5
5d3
100
AcDbEntity
8
0-0
6
CONTINUOUS
62
7
100
AcDbCircle
10
3415.951193427734
20
2747.696743818141
30
0.0
40
10.261500000000
100
AcDbArc
50
63.236393533198
51
113.568836054129
0
ARC
5
5d4
100
AcDbEntity
8
0-0
6
CONTINUOUS
62
7
100
AcDbCircle
10
3362.336693427735
20
2644.537243818141
30
0.0
40
126.522000000000
100
AcDbArc
50
26.388810009572
51
62.595041474619
0
ARC
5
5d5
100
AcDbEntity
8
0-0
6
CONTINUOUS
62
7
100
AcDbCircle
10
3653.477693427734
20
2782.178743818141
30
0.0
40
195.553500000000
100
AcDbArc
50
204.600895907988
51
268.183620405729
0
ARC
5
5d6
100
AcDbEntity
8
0-0
6
CONTINUOUS
62
7
100
AcDbCircle
10
3417.724193427734
20
3183.895243818140
30
0.0
40
4.999500000000
100
AcDbArc
50
0.000000000000
51
90.000000000000
0
ARC
5
5d7
100
AcDbEntity
8
0-0
6
CONTINUOUS
62
7
100
AcDbCircle
10
-445.648806572266
20
2760.755743818141
30
0.0
40
3888.808500000000
100
AcDbArc
50
0.857000000000
51
5.876000000000
0
LINE
5
5d8
100
AcDbEntity
8
0-0
6
CONTINUOUS
62
7
100
AcDbLine
10
3933.532929740809
20
2763.895243818140
30
0.0
11
3412.724693427734
21
2763.895243818140
31
0.0
0
LINE
5
5d9
100
AcDbEntity
8
0-0
6
CONTINUOUS
62
7
100
AcDbLine
10
3518.003232026214
20
2829.587743818141
30
0.0
11
3517.725732026214
21
2813.894743818140
31
0.0
0
ARC
5
5da
100
AcDbEntity
8
0-0
6
CONTINUOUS
62
7
100
AcDbCircle
10
3540.915732026214
20
2848.954243818141
30
0.0
40
30.000000000000
100
AcDbArc
50
202.764000000000
51
270.144000000000
0
LINE
5
5db
100
AcDbEntity
8
0-0
6
CONTINUOUS
62
7
100
AcDbLine
10
3505.463232026214
20
2855.908243818141
30
0.0
11
3513.252732026215
21
2837.345743818140
31
0.0
0
LINE
5
5dc
100
AcDbEntity
8
0-0
6
CONTINUOUS
62
7
100
AcDbLine
10
3500.097732026215
20
2835.212743818141
30
0.0
11
3499.830732026214
21
2819.983243818141
31
0.0
0
ARC
5
5dd
100
AcDbEntity
8
0-0
6
CONTINUOUS
62
7
100
AcDbCircle
10
3509.093232026214
20
2834.873743818141
30
0.0
40
9.001500000000
100
AcDbArc
50
80.606000000000
51
180.144000000000
0
ARC
5
5de
100
AcDbEntity
8
0-0
6
CONTINUOUS
62
7
100
AcDbCircle
10
3509.093232026214
20
2834.873743818141
30
0.0
40
14.002500000000
100
AcDbArc
50
92.753000000000
51
228.992000000000
0
LINE
5
5df
100
AcDbEntity
8
0-0
6
CONTINUOUS
62
7
100
AcDbLine
10
3512.829732026214
20
2819.983243818141
30
0.0
11
3472.238232026214
21
2819.983243818141
31
0.0
0
LINE
5
5e0
100
AcDbEntity
8
0-0
6
CONTINUOUS
62
7
100
AcDbLine
10
3472.238232026214
20
2813.894743818140
30
0.0
11
3472.238232026214
21
2819.983243818141
31
0.0
0
ARC
5
5e1
100
AcDbEntity
8
0-0
6
CONTINUOUS
62
7
100
AcDbCircle
10
3525.770232026214
20
2823.623743818141
30
0.0
40
3.000000000000
100
AcDbArc
50
181.195000000000
51
270.144000000000
0
LINE
5
5e2
100
AcDbEntity
8
0-0
6
CONTINUOUS
62
7
100
AcDbLine
10
3525.777732026214
20
2820.623743818141
30
0.0
11
3531.008232026215
21
2820.635743818141
31
0.0
0
LINE
5
5e3
100
AcDbEntity
8
0-0
6
CONTINUOUS
62
7
100
AcDbLine
10
3522.770232026214
20
2823.560743818141
30
0.0
11
3522.797232026214
21
2825.042743818141
31
0.0
0
ARC
5
5e4
100
AcDbEntity
8
0-0
6
CONTINUOUS
62
7
100
AcDbCircle
10
3659.966693427734
20
1752.764743818141
30
0.0
40
1126.428000000000
100
AcDbArc
50
97.711414691224
51
97.748000000000
0
ARC
5
5e5
100
AcDbEntity
8
0-0
6
CONTINUOUS
62
7
100
AcDbCircle
10
3659.966693427734
20
1752.764743818141
30
0.0
40
1126.428000000000
100
AcDbArc
50
76.175000000000
51
97.046927946956
0
LINE
5
5e6
100
AcDbEntity
8
0-0
6
CONTINUOUS
62
7
100
AcDbLine
10
3496.937232026214
20
2841.820243818141
30
0.0
11
3501.899562945322
21
2854.404095812661
31
0.0
0
ARC
5
5e7
100
AcDbEntity
8
0-0
6
CONTINUOUS
62
7
100
AcDbCircle
10
3523.217232026214
20
2847.593384524193
30
0.0
40
22.998000000000
100
AcDbArc
50
92.794000000000
51
165.428736676306
0
LINE
5
5e8
100
AcDbEntity
8
0-0
6
CONTINUOUS
62
7
100
AcDbLine
10
3536.116258586733
20
2818.889974695067
30
0.0
11
3950.725193427734
21
2815.967743818141
31
0.0
0
LINE
5
5e9
100
AcDbEntity
8
0-0
6
CONTINUOUS
62
7
100
AcDbLine
10
3242.725193427734
20
2823.895243818140
30
0.0
11
3442.646693427734
21
2823.895243818140
31
0.0
0
LINE
5
5ea
100
AcDbEntity
8
0-0
6
CONTINUOUS
62
7
100
AcDbLine
10
3245.725193427734
20
2808.895243818140
30
0.0
11
3297.724193427734
21
2808.895243818140
31
0.0
0
LINE
5
5eb
100
AcDbEntity
8
0-0
6
CONTINUOUS
62
7
100
AcDbLine
10
3242.725193427734
20
2811.895243818140
30
0.0
11
3242.725193427734
21
3183.895243818140
31
0.0
0
ARC
5
5ec
100
AcDbEntity
8
0-0
6
CONTINUOUS
62
7
100
AcDbCircle
10
3245.725193427734
20
2811.895243818140
30
0.0
40
3.000000000000
100
AcDbArc
50
180.000000000000
51
270.000000000000
0
LINE
5
5ed
100
AcDbEntity
8
0-0
6
CONTINUOUS
62
7
100
AcDbLine
10
3242.725193427734
20
3158.894743818141
30
0.0
11
3422.725193427735
21
3158.894743818141
31
0.0
0
LINE
5
5ee
100
AcDbEntity
8
0-0
6
CONTINUOUS
62
7
100
AcDbLine
10
3247.724693427734
20
3188.894743818141
30
0.0
11
3417.724193427734
21
3188.894743818141
31
0.0
0
LINE
5
5ef
100
AcDbEntity
8
0-0
6
CONTINUOUS
62
7
100
AcDbLine
10
3370.226746082435
20
2453.894743818140
30
0.0
11
3631.012193427734
21
2453.894743818140
31
0.0
0
LINE
5
5f0
100
AcDbEntity
8
0-0
6
CONTINUOUS
62
7
100
AcDbLine
10
3372.827802861121
20
2454.699658444104
30
0.0
11
3419.176193427734
21
2813.894743818140
31
0.0
0
ARC
5
5f1
100
AcDbEntity
8
0-0
6
CONTINUOUS
62
7
100
AcDbCircle
10
4317.340193427734
20
2824.442743818141
30
0.0
40
1019.734500000000
100
AcDbArc
50
180.873632330580
51
191.279392197889
0
LINE
5
5f2
100
AcDbEntity
8
0-0
6
CONTINUOUS
62
7
100
AcDbLine
10
3812.613491305144
20
2428.895743818141
30
0.0
11
3345.969200910657
21
2428.895743818141
31
0.0
0
LINE
5
5f3
100
AcDbEntity
8
0-0
6
CONTINUOUS
62
7
100
AcDbLine
10
3334.513383460816
20
2440.622394802180
30
0.0
11
3302.513383460816
21
2440.622394802180
31
0.0
0
ARC
5
5f4
100
AcDbEntity
8
0-0
6
CONTINUOUS
62
7
100
AcDbCircle
10
3302.513383460816
20
2428.622394802180
30
0.0
40
12.000000000000
100
AcDbArc
50
90.000000000000
51
180.000000000000
0
ARC
5
5f5
100
AcDbEntity
8
0-0
6
CONTINUOUS
62
7
100
AcDbCircle
10
3334.513383460816
20
2428.622394802180
30
0.0
40
12.000000000000
100
AcDbArc
50
0.000000000000
51
90.000000000000
0
LINE
5
5f6
100
AcDbEntity
8
0-0
6
CONTINUOUS
62
7
100
AcDbLine
10
3346.265089663375
20
2428.905097972136
30
0.0
11
3290.659401678513
21
2428.905097972136
31
0.0
0
ARC
5
5f7
100
AcDbEntity
8
0-0
6
CONTINUOUS
62
7
100
AcDbCircle
10
1795.223693427734
20
2407.481743818141
30
0.0
40
1537.650000000000
100
AcDbArc
50
1.244570491505
51
4.312620026649
0
LINE
5
5f8
100
AcDbEntity
8
0-0
6
CONTINUOUS
62
7
100
AcDbLine
10
3326.513383460816
20
2440.677588217817
30
0.0
11
3326.513383460816
21
2552.122972272969
31
0.0
0
LINE
5
5f9
100
AcDbEntity
8
0-0
6
CONTINUOUS
62
7
100
AcDbLine
10
3310.513383460816
20
2440.878917186138
30
0.0
11
3310.513383460816
21
2552.326467529044
31
0.0
0
LINE
5
5fa
100
AcDbEntity
8
0-0
6
CONTINUOUS
62
7
100
AcDbLine
10
912.950332818301
20
1406.095805201457
30
0.0
11
912.950332818301
21
1398.895805201457
31
0.0
0
LINE
5
5fb
100
AcDbEntity
8
0-0
6
CONTINUOUS
62
7
100
AcDbLine
10
947.510332818301
20
1406.095805201457
30
0.0
11
947.510332818301
21
1398.895805201457
31
0.0
0
LINE
5
5fc
100
AcDbEntity
8
0-0
6
CONTINUOUS
62
7
100
AcDbLine
10
1052.949832818301
20
1406.095805201457
30
0.0
11
1052.949832818301
21
1398.895805201457
31
0.0
0
LINE
5
5fd
100
AcDbEntity
8
0-0
6
CONTINUOUS
62
7
100
AcDbLine
10
1087.509832818301
20
1406.095805201457
30
0.0
11
1087.509832818301
21
1398.895805201457
31
0.0
0
ARC
5
5fe
100
AcDbEntity
8
0-0
6
CONTINUOUS
62
7
100
AcDbCircle
10
1667.996332818302
20
1164.807305201457
30
0.0
40
853.663500000000
100
AcDbArc
50
159.150909076913
51
177.373264575059
0
ARC
5
5ff
100
AcDbEntity
8
0-0
6
CONTINUOUS
62
7
100
AcDbCircle
10
1129.865332818301
20
1189.084805201458
30
0.0
40
314.985000000000
100
AcDbArc
50
177.298790896274
51
224.130425451108
0
ARC
5
600
100
AcDbEntity
8
0-0
6
CONTINUOUS
62
7
100
AcDbCircle
10
1006.514332818301
20
1070.965805201457
30
0.0
40
144.207000000000
100
AcDbArc
50
224.570289277118
51
267.502610378413
0
ARC
5
601
100
AcDbEntity
8
0-0
6
CONTINUOUS
62
7
100
AcDbCircle
10
349.140832818302
20
1168.272305201457
30
0.0
40
836.848500000000
100
AcDbArc
50
2.442064343392
51
21.033762004636
0
ARC
5
602
100
AcDbEntity
8
0-0
6
CONTINUOUS
62
7
100
AcDbCircle
10
870.596332818302
20
1189.084805201458
30
0.0
40
314.985000000000
100
AcDbArc
50
315.869574334825
51
362.701208889659
0
ARC
5
603
100
AcDbEntity
8
0-0
6
CONTINUOUS
62
7
100
AcDbCircle
10
993.947332818301
20
1070.965805201457
30
0.0
40
144.207000000000
100
AcDbArc
50
272.497389842070
51
315.429710943365
0
LINE
5
604
100
AcDbEntity
8
0-0
6
CONTINUOUS
62
7
100
AcDbLine
10
1185.230332818301
20
1546.896305201457
30
0.0
11
1182.419774721683
21
1562.524583324441
31
0.0
0
POLYLINE
5
605
100
AcDbEntity
8
0-0
6
CONTINUOUS
62
  7
100
AcDb2dPolyline
66
1
10
0.0
20
0.0
30
0.0
70
0
0
VERTEX
5
606
100
AcDbEntity
8
0-0
6
CONTINUOUS
62
  7
100
AcDbVertex
100
AcDb2dVertex
10
818.041890914919
20
1562.524583324441
30
0.0
0
VERTEX
5
607
100
AcDbEntity
8
0-0
6
CONTINUOUS
62
  7
100
AcDbVertex
100
AcDb2dVertex
10
815.231332818301
20
1546.896305201458
30
0.0
0
VERTEX
5
608
100
AcDbEntity
8
0-0
6
CONTINUOUS
62
  7
100
AcDbVertex
100
AcDb2dVertex
10
818.041890914919
20
1531.268027078474
30
0.0
0
VERTEX
5
609
100
AcDbEntity
8
0-0
6
CONTINUOUS
62
  7
100
AcDbVertex
100
AcDb2dVertex
10
826.388167819218
20
1516.114606277966
30
0.0
0
VERTEX
5
60a
100
AcDbEntity
8
0-0
6
CONTINUOUS
62
  7
100
AcDbVertex
100
AcDb2dVertex
10
840.016566130881
20
1501.896471822957
30
0.0
0
VERTEX
5
60b
100
AcDbEntity
8
0-0
6
CONTINUOUS
62
  7
100
AcDbVertex
100
AcDb2dVertex
10
858.512993863511
20
1489.045634534140
30
0.0
0
VERTEX
5
60c
100
AcDbEntity
8
0-0
6
CONTINUOUS
62
  7
100
AcDbVertex
100
AcDb2dVertex
10
881.315446420096
20
1477.952560599698
30
0.0
0
VERTEX
5
60d
100
AcDbEntity
8
0-0
6
CONTINUOUS
62
  7
100
AcDbVertex
100
AcDb2dVertex
10
907.731082818301
20
1468.954307457761
30
0.0
0
VERTEX
5
60e
100
AcDbEntity
8
0-0
6
CONTINUOUS
62
  7
100
AcDbVertex
100
AcDb2dVertex
10
936.957277313123
20
1462.324282476714
30
0.0
0
VERTEX
5
60f
100
AcDbEntity
8
0-0
6
CONTINUOUS
62
  7
100
AcDbVertex
100
AcDb2dVertex
10
968.106006774007
20
1458.263935610649
30
0.0
0
VERTEX
5
610
100
AcDbEntity
8
0-0
6
CONTINUOUS
62
  7
100
AcDbVertex
100
AcDb2dVertex
10
1000.230832818301
20
1456.896638444457
30
0.0
0
VERTEX
5
611
100
AcDbEntity
8
0-0
6
CONTINUOUS
62
  7
100
AcDbVertex
100
AcDb2dVertex
10
1032.355658862594
20
1458.263935610648
30
0.0
0
VERTEX
5
612
100
AcDbEntity
8
0-0
6
CONTINUOUS
62
  7
100
AcDbVertex
100
AcDb2dVertex
10
1063.504388323478
20
1462.324282476714
30
0.0
0
VERTEX
5
613
100
AcDbEntity
8
0-0
6
CONTINUOUS
62
  7
100
AcDbVertex
100
AcDb2dVertex
10
1092.730582818301
20
1468.954307457761
30
0.0
0
VERTEX
5
614
100
AcDbEntity
8
0-0
6
CONTINUOUS
62
  7
100
AcDbVertex
100
AcDb2dVertex
10
1119.146219216506
20
1477.952560599697
30
0.0
0
VERTEX
5
615
100
AcDbEntity
8
0-0
6
CONTINUOUS
62
  7
100
AcDbVertex
100
AcDb2dVertex
10
1141.948671773090
20
1489.045634534140
30
0.0
0
VERTEX
5
616
100
AcDbEntity
8
0-0
6
CONTINUOUS
62
  7
100
AcDbVertex
100
AcDb2dVertex
10
1160.445099505720
20
1501.896471822957
30
0.0
0
VERTEX
5
617
100
AcDbEntity
8
0-0
6
CONTINUOUS
62
  7
100
AcDbVertex
100
AcDb2dVertex
10
1174.073497817383
20
1516.114606277965
30
0.0
0
VERTEX
5
618
100
AcDbEntity
8
0-0
6
CONTINUOUS
62
  7
100
AcDbVertex
100
AcDb2dVertex
10
1182.419774721683
20
1531.268027078473
30
0.0
0
VERTEX
5
619
100
AcDbEntity
8
0-0
6
CONTINUOUS
62
  7
100
AcDbVertex
100
AcDb2dVertex
10
1185.230332818301
20
1546.896305201457
30
0.0
0
SEQEND
5
61a
100
AcDbEntity
8
0-0
0
POLYLINE
5
61b
100
AcDbEntity
8
0-0
6
CONTINUOUS
62
  7
100
AcDb2dPolyline
66
1
10
0.0
20
0.0
30
0.0
70
0
0
VERTEX
5
61c
100
AcDbEntity
8
0-0
6
CONTINUOUS
62
  7
100
AcDbVertex
100
AcDb2dVertex
10
1185.230332818301
20
1546.896305201457
30
0.0
0
VERTEX
5
61d
100
AcDbEntity
8
0-0
6
CONTINUOUS
62
  7
100
AcDbVertex
100
AcDb2dVertex
10
1182.419774721683
20
1565.997566143264
30
0.0
0
VERTEX
5
61e
100
AcDbEntity
8
0-0
6
CONTINUOUS
62
  7
100
AcDbVertex
100
AcDb2dVertex
10
1174.073497817384
20
1584.518444937058
30
0.0
0
VERTEX
5
61f
100
AcDbEntity
8
0-0
6
CONTINUOUS
62
  7
100
AcDbVertex
100
AcDb2dVertex
10
1160.445099505721
20
1601.896194052707
30
0.0
0
VERTEX
5
620
100
AcDbEntity
8
0-0
6
CONTINUOUS
62
  7
100
AcDbVertex
100
AcDb2dVertex
10
1141.948671773091
20
1617.602799376898
30
0.0
0
VERTEX
5
621
100
AcDbEntity
8
0-0
6
CONTINUOUS
62
  7
100
AcDbVertex
100
AcDb2dVertex
10
1119.146219216506
20
1631.161023654780
30
0.0
0
VERTEX
5
622
100
AcDbEntity
8
0-0
6
CONTINUOUS
62
  7
100
AcDbVertex
100
AcDb2dVertex
10
1092.730582818301
20
1642.158907102463
30
0.0
0
VERTEX
5
623
100
AcDbEntity
8
0-0
6
CONTINUOUS
62
  7
100
AcDbVertex
100
AcDb2dVertex
10
1063.504388323479
20
1650.262284596587
30
0.0
0
VERTEX
5
624
100
AcDbEntity
8
0-0
6
CONTINUOUS
62
  7
100
AcDbVertex
100
AcDb2dVertex
10
1032.355658862595
20
1655.224939112498
30
0.0
0
VERTEX
5
625
100
AcDbEntity
8
0-0
6
CONTINUOUS
62
  7
100
AcDbVertex
100
AcDb2dVertex
10
1000.230832818301
20
1656.896082903957
30
0.0
0
VERTEX
5
626
100
AcDbEntity
8
0-0
6
CONTINUOUS
62
  7
100
AcDbVertex
100
AcDb2dVertex
10
968.106006774007
20
1655.224939112498
30
0.0
0
VERTEX
5
627
100
AcDbEntity
8
0-0
6
CONTINUOUS
62
  7
100
AcDbVertex
100
AcDb2dVertex
10
936.957277313124
20
1650.262284596587
30
0.0
0
VERTEX
5
628
100
AcDbEntity
8
0-0
6
CONTINUOUS
62
  7
100
AcDbVertex
100
AcDb2dVertex
10
907.731082818301
20
1642.158907102463
30
0.0
0
VERTEX
5
629
100
AcDbEntity
8
0-0
6
CONTINUOUS
62
  7
100
AcDbVertex
100
AcDb2dVertex
10
881.315446420096
20
1631.161023654780
30
0.0
0
VERTEX
5
62a
100
AcDbEntity
8
0-0
6
CONTINUOUS
62
  7
100
AcDbVertex
100
AcDb2dVertex
10
858.512993863512
20
1617.602799376898
30
0.0
0
VERTEX
5
62b
100
AcDbEntity
8
0-0
6
CONTINUOUS
62
  7
100
AcDbVertex
100
AcDb2dVertex
10
840.016566130882
20
1601.896194052707
30
0.0
0
VERTEX
5
62c
100
AcDbEntity
8
0-0
6
CONTINUOUS
62
  7
100
AcDbVertex
100
AcDb2dVertex
10
826.388167819218
20
1584.518444937058
30
0.0
0
VERTEX
5
62d
100
AcDbEntity
8
0-0
6
CONTINUOUS
62
  7
100
AcDbVertex
100
AcDb2dVertex
10
818.041890914919
20
1565.997566143264
30
0.0
0
VERTEX
5
62e
100
AcDbEntity
8
0-0
6
CONTINUOUS
62
  7
100
AcDbVertex
100
AcDb2dVertex
10
815.231332818301
20
1546.896305202580
30
0.0
0
SEQEND
5
62f
100
AcDbEntity
8
0-0
0
ARC
5
630
100
AcDbEntity
8
0-0
6
CONTINUOUS
62
7
100
AcDbCircle
10
930.230332818301
20
1406.095805201457
30
0.0
40
17.280000000000
100
AcDbArc
50
0.000000000000
51
180.000000000000
0
ARC
5
631
100
AcDbEntity
8
0-0
6
CONTINUOUS
62
7
100
AcDbCircle
10
1000.230832818301
20
1043.083805201457
30
0.0
40
113.425500000000
100
AcDbArc
50
239.665000000000
51
300.335000000000
0
ARC
5
632
100
AcDbEntity
8
0-0
6
CONTINUOUS
62
7
100
AcDbCircle
10
931.947832818302
20
1150.305305201458
30
0.0
40
240.501000000000
100
AcDbArc
50
301.474341286764
51
342.421419099494
0
ARC
5
633
100
AcDbEntity
8
0-0
6
CONTINUOUS
62
7
100
AcDbCircle
10
792.426832818301
20
1203.447305201457
30
0.0
40
389.650500000000
100
AcDbArc
50
341.168103151609
51
387.622525421851
0
ARC
5
634
100
AcDbEntity
8
0-0
6
CONTINUOUS
62
7
100
AcDbCircle
10
1111.299832818301
20
1368.039305201457
30
0.0
40
30.874500000000
100
AcDbArc
50
31.357777946637
51
91.984227868683
0
ARC
5
635
100
AcDbEntity
8
0-0
6
CONTINUOUS
62
7
100
AcDbCircle
10
1068.513832818301
20
1150.305305201458
30
0.0
40
240.501000000000
100
AcDbArc
50
197.578580900506
51
238.525658713236
0
ARC
5
636
100
AcDbEntity
8
0-0
6
CONTINUOUS
62
7
100
AcDbCircle
10
1208.034832818301
20
1203.447305201457
30
0.0
40
389.650500000000
100
AcDbArc
50
152.377474392272
51
198.831896662514
0
ARC
5
637
100
AcDbEntity
8
0-0
6
CONTINUOUS
62
7
100
AcDbCircle
10
889.161832818301
20
1368.039305201457
30
0.0
40
30.874500000000
100
AcDbArc
50
88.015772131317
51
148.642222053363
0
ARC
5
638
100
AcDbEntity
8
0-0
6
CONTINUOUS
62
7
100
AcDbCircle
10
1070.229832818302
20
1406.095805201457
30
0.0
40
17.280000000000
100
AcDbArc
50
0.000000000000
51
180.000000000000
0
LINE
5
639
100
AcDbEntity
8
0-0
6
CONTINUOUS
62
7
100
AcDbLine
10
1110.230332818301
20
1398.895805201457
30
0.0
11
890.229832818301
21
1398.895805201457
31
0.0
0
LINE
5
63a
100
AcDbEntity
8
0-0
6
CONTINUOUS
62
7
100
AcDbLine
10
2093.851527301702
20
1254.158301688571
30
0.0
11
2426.554527301702
21
1254.158301688571
31
0.0
0
POLYLINE
5
63b
100
AcDbEntity
8
0-0
6
CONTINUOUS
62
  7
100
AcDb2dPolyline
66
1
10
0.0
20
0.0
30
0.0
70
0
0
VERTEX
5
63c
100
AcDbEntity
8
0-0
6
CONTINUOUS
62
  7
100
AcDbVertex
100
AcDb2dVertex
10
2113.519527301702
20
1589.100801688571
30
0.0
0
VERTEX
5
63d
100
AcDbEntity
8
0-0
6
CONTINUOUS
62
  7
100
AcDbVertex
100
AcDb2dVertex
10
2110.435527301702
20
1590.584301688572
30
0.0
0
VERTEX
5
63e
100
AcDbEntity
8
0-0
6
CONTINUOUS
62
  7
100
AcDbVertex
100
AcDb2dVertex
10
2144.124027301701
20
1591.154301688572
30
0.0
0
SEQEND
5
63f
100
AcDbEntity
8
0-0
0
LINE
5
640
100
AcDbEntity
8
0-0
6
CONTINUOUS
62
7
100
AcDbLine
10
2140.147527301701
20
1593.441801688572
30
0.0
11
2112.123027301702
21
1592.745801688571
31
0.0
0
POLYLINE
5
641
100
AcDbEntity
8
0-0
6
CONTINUOUS
62
  7
100
AcDb2dPolyline
66
1
10
0.0
20
0.0
30
0.0
70
0
0
VERTEX
5
642
100
AcDbEntity
8
0-0
6
CONTINUOUS
62
  7
100
AcDbVertex
100
AcDb2dVertex
10
2131.164027301702
20
1600.710801688572
30
0.0
0
VERTEX
5
643
100
AcDbEntity
8
0-0
6
CONTINUOUS
62
  7
100
AcDbVertex
100
AcDb2dVertex
10
2117.581527301702
20
1599.740301688571
30
0.0
0
VERTEX
5
644
100
AcDbEntity
8
0-0
6
CONTINUOUS
62
  7
100
AcDbVertex
100
AcDb2dVertex
10
2110.435527301702
20
1590.584301688572
30
0.0
0
SEQEND
5
645
100
AcDbEntity
8
0-0
0
LINE
5
646
100
AcDbEntity
8
0-0
6
CONTINUOUS
62
7
100
AcDbLine
10
2113.519527301702
20
1589.100801688571
30
0.0
11
2143.780527301702
21
1589.100801688571
31
0.0
0
LINE
5
647
100
AcDbEntity
8
0-0
6
CONTINUOUS
62
7
100
AcDbLine
10
2077.702527301702
20
1304.157801688572
30
0.0
11
2077.702527301702
21
1306.157301688571
31
0.0
0
LINE
5
648
100
AcDbEntity
8
0-0
6
CONTINUOUS
62
7
100
AcDbLine
10
2442.702027301702
20
1304.157801688572
30
0.0
11
2442.702027301702
21
1306.157301688571
31
0.0
0
LINE
5
649
100
AcDbEntity
8
0-0
6
CONTINUOUS
62
7
100
AcDbLine
10
2078.202027301702
20
1304.157801688572
30
0.0
11
2442.202527301702
21
1304.157801688572
31
0.0
0
LINE
5
64a
100
AcDbEntity
8
0-0
6
CONTINUOUS
62
7
100
AcDbLine
10
2075.202027301702
20
1314.158301688571
30
0.0
11
2088.325527301702
21
1314.158301688571
31
0.0
0
LINE
5
64b
100
AcDbEntity
8
0-0
6
CONTINUOUS
62
7
100
AcDbLine
10
2075.202027301702
20
1649.157801688572
30
0.0
11
2445.202527301702
21
1649.157801688572
31
0.0
0
LINE
5
64c
100
AcDbEntity
8
0-0
6
CONTINUOUS
62
7
100
AcDbLine
10
2078.202027301702
20
1679.157801688572
30
0.0
11
2442.202527301702
21
1679.157801688572
31
0.0
0
LINE
5
64d
100
AcDbEntity
8
0-0
6
CONTINUOUS
62
7
100
AcDbLine
10
2075.202027301702
20
1676.157801688572
30
0.0
11
2075.202027301702
21
1314.158301688571
31
0.0
0
LINE
5
64e
100
AcDbEntity
8
0-0
6
CONTINUOUS
62
7
100
AcDbLine
10
2445.202527301702
20
1676.157801688572
30
0.0
11
2445.202527301702
21
1314.158301688571
31
0.0
0
LINE
5
64f
100
AcDbEntity
8
0-0
6
CONTINUOUS
62
7
100
AcDbLine
10
2432.079027301702
20
1314.158301688571
30
0.0
11
2445.202527301702
21
1314.158301688571
31
0.0
0
ARC
5
650
100
AcDbEntity
8
0-0
6
CONTINUOUS
62
7
100
AcDbCircle
10
2139.096027301702
20
1641.867801688572
30
0.0
40
50.961000000000
100
AcDbArc
50
275.661913969649
51
299.836616130372
0
ARC
5
651
100
AcDbEntity
8
0-0
6
CONTINUOUS
62
7
100
AcDbCircle
10
2155.890027301702
20
1611.363801688571
30
0.0
40
16.156500000000
100
AcDbArc
50
301.993253789310
51
327.982256288303
0
ARC
5
652
100
AcDbEntity
8
0-0
6
CONTINUOUS
62
7
100
AcDbCircle
10
2166.303027301701
20
1604.769801688571
30
0.0
40
3.832500000000
100
AcDbArc
50
329.026836450565
51
409.493520952999
0
ARC
5
653
100
AcDbEntity
8
0-0
6
CONTINUOUS
62
7
100
AcDbCircle
10
2147.496027301702
20
1584.192801688571
30
0.0
40
31.707000000000
100
AcDbArc
50
47.806621679645
51
80.964157493493
0
ARC
5
654
100
AcDbEntity
8
0-0
6
CONTINUOUS
62
7
100
AcDbCircle
10
2143.494027301702
20
1576.190301688571
30
0.0
40
40.330500000000
100
AcDbArc
50
77.131533661657
51
96.419524873541
0
ARC
5
655
100
AcDbEntity
8
0-0
6
CONTINUOUS
62
7
100
AcDbCircle
10
2139.669027301702
20
1615.059801688571
30
0.0
40
1.387500000000
100
AcDbArc
50
119.544814617277
51
208.413874882610
0
ARC
5
656
100
AcDbEntity
8
0-0
6
CONTINUOUS
62
7
100
AcDbCircle
10
2129.742027301702
20
1559.684301688571
30
0.0
40
55.404000000000
100
AcDbArc
50
66.108873454010
51
80.958603978628
0
ARC
5
657
100
AcDbEntity
8
0-0
6
CONTINUOUS
62
7
100
AcDbCircle
10
2148.973527301702
20
1602.231801688572
30
0.0
40
8.721000000000
100
AcDbArc
50
9.692501655011
51
68.423217727281
0
ARC
5
658
100
AcDbEntity
8
0-0
6
CONTINUOUS
62
7
100
AcDbCircle
10
2147.994027301702
20
1605.803301688571
30
0.0
40
9.805500000000
100
AcDbArc
50
307.428121519714
51
347.607252635673
0
ARC
5
659
100
AcDbEntity
8
0-0
6
CONTINUOUS
62
7
100
AcDbCircle
10
2135.106027301702
20
1631.768301688571
30
0.0
40
38.656500000000
100
AcDbArc
50
277.492401797475
51
299.178982489774
0
ARC
5
65a
100
AcDbEntity
8
0-0
6
CONTINUOUS
62
7
100
AcDbCircle
10
2142.774027301702
20
1640.010801688571
30
0.0
40
50.920500000000
100
AcDbArc
50
271.133582326351
51
312.214700628734
0
ARC
5
65b
100
AcDbEntity
8
0-0
6
CONTINUOUS
62
7
100
AcDbCircle
10
2173.269027301702
20
1605.441801688571
30
0.0
40
4.869000000000
100
AcDbArc
50
319.777838875056
51
398.857473747921
0
ARC
5
65c
100
AcDbEntity
8
0-0
6
CONTINUOUS
62
7
100
AcDbCircle
10
2144.584527301702
20
1575.164301688571
30
0.0
40
46.537500000000
100
AcDbArc
50
45.745451082298
51
77.535100743734
0
ARC
5
65d
100
AcDbEntity
8
0-0
6
CONTINUOUS
62
7
100
AcDbCircle
10
2145.978027301702
20
1581.896301688571
30
0.0
40
39.664500000000
100
AcDbArc
50
77.401201930256
51
97.758541136678
0
ARC
5
65e
100
AcDbEntity
8
0-0
6
CONTINUOUS
62
7
100
AcDbCircle
10
2179.851027301702
20
1601.934801688571
30
0.0
40
43.701000000000
100
AcDbArc
50
153.847089182474
51
174.125070459283
0
ARC
5
65f
100
AcDbEntity
8
0-0
6
CONTINUOUS
62
7
100
AcDbCircle
10
2137.548027301702
20
1537.769301688571
30
0.0
40
89.263500000000
100
AcDbArc
50
64.274871981067
51
92.479956096630
0
ARC
5
660
100
AcDbEntity
8
0-0
6
CONTINUOUS
62
7
100
AcDbCircle
10
2170.614027301701
20
1606.974801688571
30
0.0
40
12.567000000000
100
AcDbArc
50
299.832786827406
51
423.138671350138
0
ARC
5
661
100
AcDbEntity
8
0-0
6
CONTINUOUS
62
7
100
AcDbCircle
10
2139.537027301702
20
1653.483801688571
30
0.0
40
68.481000000000
100
AcDbArc
50
265.029108833440
51
303.031871259216
0
ARC
5
662
100
AcDbEntity
8
0-0
6
CONTINUOUS
62
7
100
AcDbCircle
10
2147.943027301702
20
1652.856801688572
30
0.0
40
54.249000000000
100
AcDbArc
50
255.453236592230
51
269.953296230354
0
ARC
5
663
100
AcDbEntity
8
0-0
6
CONTINUOUS
62
7
100
AcDbCircle
10
2130.738027301702
20
1606.335801688571
30
0.0
40
5.641500000000
100
AcDbArc
50
274.339079449224
51
360.726199280628
0
ARC
5
664
100
AcDbEntity
8
0-0
6
CONTINUOUS
62
7
100
AcDbCircle
10
2260.203027301702
20
1043.786301688571
30
0.0
40
320.377500000000
100
AcDbArc
50
55.925000000000
51
124.075000000000
0
ARC
5
665
100
AcDbEntity
8
0-0
6
CONTINUOUS
62
7
100
AcDbCircle
10
2080.702527301702
20
1306.157301688571
30
0.0
40
3.000000000000
100
AcDbArc
50
90.000000000000
51
180.000000000000
0
ARC
5
666
100
AcDbEntity
8
0-0
6
CONTINUOUS
62
7
100
AcDbCircle
10
2439.702027301702
20
1306.157301688571
30
0.0
40
3.000000000000
100
AcDbArc
50
0.000000000000
51
90.000000000000
0
ARC
5
667
100
AcDbEntity
8
0-0
6
CONTINUOUS
62
7
100
AcDbCircle
10
2260.203027301702
20
-1447.395698311427
30
0.0
40
2757.600000000000
100
AcDbArc
50
86.205000000000
51
93.795000000000
0
ARC
5
668
100
AcDbEntity
8
0-0
6
CONTINUOUS
62
7
100
AcDbCircle
10
2078.202027301702
20
1301.157801688571
30
0.0
40
3.000000000000
100
AcDbArc
50
90.000000000000
51
180.000000000000
0
ARC
5
669
100
AcDbEntity
8
0-0
6
CONTINUOUS
62
7
100
AcDbCircle
10
2442.202527301702
20
1301.157801688571
30
0.0
40
3.000000000000
100
AcDbArc
50
0.000000000000
51
90.000000000000
0
ARC
5
66a
100
AcDbEntity
8
0-0
6
CONTINUOUS
62
7
100
AcDbCircle
10
2078.202027301702
20
1676.157801688572
30
0.0
40
3.000000000000
100
AcDbArc
50
90.000000000000
51
180.000000000000
0
ARC
5
66b
100
AcDbEntity
8
0-0
6
CONTINUOUS
62
7
100
AcDbCircle
10
2442.202527301702
20
1676.157801688572
30
0.0
40
3.000000000000
100
AcDbArc
50
0.000000000000
51
90.000000000000
0
ARC
5
66c
100
AcDbEntity
8
0-0
6
CONTINUOUS
62
7
100
AcDbCircle
10
4281.436527301703
20
1420.025301688571
30
0.0
40
2208.772500000000
100
AcDbArc
50
182.747000000000
51
183.039000000000
0
ARC
5
66d
100
AcDbEntity
8
0-0
6
CONTINUOUS
62
7
100
AcDbCircle
10
238.968027301703
20
1420.025301688571
30
0.0
40
2208.772500000000
100
AcDbArc
50
356.961000000000
51
357.253000000000
0
ARC
5
66e
100
AcDbEntity
8
0-0
6
CONTINUOUS
62
7
100
AcDbCircle
10
4281.436527301703
20
1420.025301688571
30
0.0
40
2208.772500000000
100
AcDbArc
50
185.017000000000
51
193.107000000000
0
ARC
5
66f
100
AcDbEntity
8
0-0
6
CONTINUOUS
62
7
100
AcDbCircle
10
2359.246527301702
20
1286.424801688571
30
0.0
40
284.425500000000
100
AcDbArc
50
177.030976885727
51
212.001486660502
0
ARC
5
670
100
AcDbEntity
8
0-0
6
CONTINUOUS
62
7
100
AcDbCircle
10
1804.450527301701
20
978.401301688571
30
0.0
40
350.832000000000
100
AcDbArc
50
7.025080863491
51
26.637993919986
0
LINE
5
671
100
AcDbEntity
8
0-0
6
CONTINUOUS
62
7
100
AcDbLine
10
2152.737550053626
20
1024.307894127629
30
0.0
11
2152.737550053626
21
919.157301688571
31
0.0
0
LINE
5
672
100
AcDbEntity
8
0-0
6
CONTINUOUS
62
7
100
AcDbLine
10
2367.769859312503
20
1024.307894127629
30
0.0
11
2367.769859312503
21
919.157301688571
31
0.0
0
ARC
5
673
100
AcDbEntity
8
0-0
6
CONTINUOUS
62
7
100
AcDbCircle
10
2715.955527301701
20
978.401301688571
30
0.0
40
350.832000000000
100
AcDbArc
50
153.362006080014
51
172.974919136509
0
ARC
5
674
100
AcDbEntity
8
0-0
6
CONTINUOUS
62
7
100
AcDbCircle
10
238.968027301703
20
1420.025301688571
30
0.0
40
2208.772500000000
100
AcDbArc
50
346.893000000000
51
354.983000000000
0
ARC
5
675
100
AcDbEntity
8
0-0
6
CONTINUOUS
62
7
100
AcDbCircle
10
2161.159527301702
20
1286.424801688571
30
0.0
40
284.425500000000
100
AcDbArc
50
327.998513014974
51
362.969022789749
0
LINE
5
676
100
AcDbEntity
8
0-0
6
CONTINUOUS
62
7
100
AcDbLine
10
2309.225197954834
20
920.098189985691
30
0.0
11
2388.249084739405
21
920.098189985691
31
0.0
0
LINE
5
677
100
AcDbEntity
8
0-0
6
CONTINUOUS
62
7
100
AcDbLine
10
2130.580340850719
20
920.098189985691
30
0.0
11
2340.163153182038
21
920.098189985691
31
0.0
0
LINE
5
678
100
AcDbEntity
8
0-0
6
CONTINUOUS
62
7
100
AcDbLine
10
3604.023060599950
20
922.119581059231
30
0.0
11
3504.023060599950
21
922.119581059231
31
0.0
0
LINE
5
679
100
AcDbEntity
8
0-0
6
CONTINUOUS
62
7
100
AcDbLine
10
3951.946694392132
20
1307.128216648478
30
0.0
11
3449.946194392132
21
1307.128216648478
31
0.0
0
LINE
5
67a
100
AcDbEntity
8
0-0
6
CONTINUOUS
62
7
100
AcDbLine
10
3424.947194392132
20
1652.128216648478
30
0.0
11
3424.947194392132
21
1677.128716648478
31
0.0
0
ARC
5
67b
100
AcDbEntity
8
0-0
6
CONTINUOUS
62
7
100
AcDbCircle
10
3536.470694392132
20
942.482716648478
30
0.0
40
51.831000000000
100
AcDbArc
50
5.143335435865
51
73.814960392260
0
ARC
5
67c
100
AcDbEntity
8
0-0
6
CONTINUOUS
62
7
100
AcDbCircle
10
3437.356694392132
20
469.901716648478
30
0.0
40
534.558000000000
100
AcDbArc
50
77.734646064966
51
91.774233288744
0
ARC
5
67d
100
AcDbEntity
8
0-0
6
CONTINUOUS
62
7
100
AcDbCircle
10
3240.363194392132
20
1029.329716648478
30
0.0
40
182.184000000000
100
AcDbArc
50
352.073004513174
51
385.593118119583
0
ARC
5
67e
100
AcDbEntity
8
0-0
6
CONTINUOUS
62
7
100
AcDbCircle
10
3407.644694392132
20
1112.584216648478
30
0.0
40
5.439000000000
100
AcDbArc
50
102.513329631548
51
236.870806608370
0
ARC
5
67f
100
AcDbEntity
8
0-0
6
CONTINUOUS
62
7
100
AcDbCircle
10
3344.655194392132
20
927.124216648478
30
0.0
40
200.532000000000
100
AcDbArc
50
42.500755529082
51
72.047040171841
0
ARC
5
680
100
AcDbEntity
8
0-0
6
CONTINUOUS
62
7
100
AcDbCircle
10
3623.899694392131
20
1176.269716648478
30
0.0
40
173.740500000000
100
AcDbArc
50
220.861056109803
51
277.619074083741
0
ARC
5
681
100
AcDbEntity
8
0-0
6
CONTINUOUS
62
7
100
AcDbCircle
10
3317.680694392132
20
1053.182716648478
30
0.0
40
332.898000000000
100
AcDbArc
50
341.423061638204
51
374.570722938194
0
ARC
5
682
100
AcDbEntity
8
0-0
6
CONTINUOUS
62
7
100
AcDbCircle
10
3880.374194392132
20
1301.677216648478
30
0.0
40
74.611500000000
100
AcDbArc
50
319.343752926797
51
361.882591738096
0
ARC
5
683
100
AcDbEntity
8
0-0
6
CONTINUOUS
62
7
100
AcDbCircle
10
4971.222194392132
20
513.940216648477
30
0.0
40
1271.208000000000
100
AcDbArc
50
144.448362625976
51
149.685201989868
0
ARC
5
684
100
AcDbEntity
8
0-0
6
CONTINUOUS
62
7
100
AcDbCircle
10
4404.181694392131
20
897.655216648478
30
0.0
40
589.743000000000
100
AcDbArc
50
154.064640362060
51
177.621566771534
0
ARC
5
685
100
AcDbEntity
8
0-0
6
CONTINUOUS
62
7
100
AcDbCircle
10
3661.825694392132
20
1261.234216648478
30
0.0
40
139.263000000000
100
AcDbArc
50
184.730624018258
51
262.282992147557
0
ARC
5
686
100
AcDbEntity
8
0-0
6
CONTINUOUS
62
7
100
AcDbCircle
10
3923.806694392133
20
1311.550216648478
30
0.0
40
29.235000000000
100
AcDbArc
50
355.392000000000
51
435.048000000000
0
ARC
5
687
100
AcDbEntity
8
0-0
6
CONTINUOUS
62
7
100
AcDbCircle
10
3449.946194392132
20
1312.129216648478
30
0.0
40
4.999500000000
100
AcDbArc
50
180.000000000000
51
270.000000000000
0
ARC
5
688
100
AcDbEntity
8
0-0
6
CONTINUOUS
62
7
100
AcDbCircle
10
3951.946694392132
20
1304.128216648478
30
0.0
40
3.000000000000
100
AcDbArc
50
0.000000000000
51
90.000000000000
0
ARC
5
689
100
AcDbEntity
8
0-0
6
CONTINUOUS
62
7
100
AcDbCircle
10
3657.933194392132
20
1294.073716648478
30
0.0
40
187.314000000000
100
AcDbArc
50
191.375330358346
51
266.402197004903
0
ARC
5
68a
100
AcDbEntity
8
0-0
6
CONTINUOUS
62
7
100
AcDbCircle
10
3418.173194392132
20
1240.930216648478
30
0.0
40
10.261500000000
100
AcDbArc
50
63.236393533198
51
113.568836054129
0
ARC
5
68b
100
AcDbEntity
8
0-0
6
CONTINUOUS
62
7
100
AcDbCircle
10
3364.558694392133
20
1137.770716648478
30
0.0
40
126.522000000000
100
AcDbArc
50
26.388810009572
51
62.595041474619
0
ARC
5
68c
100
AcDbEntity
8
0-0
6
CONTINUOUS
62
7
100
AcDbCircle
10
3655.699694392131
20
1275.412216648478
30
0.0
40
195.553500000000
100
AcDbArc
50
204.600895907988
51
268.183620405729
0
ARC
5
68d
100
AcDbEntity
8
0-0
6
CONTINUOUS
62
7
100
AcDbCircle
10
3419.946194392132
20
1677.128716648478
30
0.0
40
4.999500000000
100
AcDbArc
50
0.000000000000
51
90.000000000000
0
ARC
5
68e
100
AcDbEntity
8
0-0
6
CONTINUOUS
62
7
100
AcDbCircle
10
-443.426805607868
20
1253.989216648478
30
0.0
40
3888.808500000000
100
AcDbArc
50
0.857000000000
51
5.876000000000
0
LINE
5
68f
100
AcDbEntity
8
0-0
6
CONTINUOUS
62
7
100
AcDbLine
10
3935.754930705207
20
1257.128716648478
30
0.0
11
3414.946694392132
21
1257.128716648478
31
0.0
0
LINE
5
690
100
AcDbEntity
8
0-0
6
CONTINUOUS
62
7
100
AcDbLine
10
3520.225232990611
20
1322.821216648478
30
0.0
11
3519.947732990612
21
1307.128216648478
31
0.0
0
ARC
5
691
100
AcDbEntity
8
0-0
6
CONTINUOUS
62
7
100
AcDbCircle
10
3543.137732990612
20
1342.187716648478
30
0.0
40
30.000000000000
100
AcDbArc
50
202.764000000000
51
270.144000000000
0
LINE
5
692
100
AcDbEntity
8
0-0
6
CONTINUOUS
62
7
100
AcDbLine
10
3507.685232990612
20
1349.141716648478
30
0.0
11
3515.474732990613
21
1330.579216648478
31
0.0
0
LINE
5
693
100
AcDbEntity
8
0-0
6
CONTINUOUS
62
7
100
AcDbLine
10
3502.319732990613
20
1328.446216648478
30
0.0
11
3502.052732990612
21
1313.216716648478
31
0.0
0
ARC
5
694
100
AcDbEntity
8
0-0
6
CONTINUOUS
62
7
100
AcDbCircle
10
3511.315232990612
20
1328.107216648478
30
0.0
40
9.001500000000
100
AcDbArc
50
80.606000000000
51
180.144000000000
0
ARC
5
695
100
AcDbEntity
8
0-0
6
CONTINUOUS
62
7
100
AcDbCircle
10
3511.315232990612
20
1328.107216648478
30
0.0
40
14.002500000000
100
AcDbArc
50
92.753000000000
51
228.992000000000
0
LINE
5
696
100
AcDbEntity
8
0-0
6
CONTINUOUS
62
7
100
AcDbLine
10
3515.051732990612
20
1313.216716648478
30
0.0
11
3474.460232990612
21
1313.216716648478
31
0.0
0
LINE
5
697
100
AcDbEntity
8
0-0
6
CONTINUOUS
62
7
100
AcDbLine
10
3474.460232990612
20
1307.128216648478
30
0.0
11
3474.460232990612
21
1313.216716648478
31
0.0
0
ARC
5
698
100
AcDbEntity
8
0-0
6
CONTINUOUS
62
7
100
AcDbCircle
10
3527.992232990612
20
1316.857216648478
30
0.0
40
3.000000000000
100
AcDbArc
50
181.195000000000
51
270.144000000000
0
LINE
5
699
100
AcDbEntity
8
0-0
6
CONTINUOUS
62
7
100
AcDbLine
10
3527.999732990612
20
1313.857216648478
30
0.0
11
3533.230232990612
21
1313.869216648478
31
0.0
0
LINE
5
69a
100
AcDbEntity
8
0-0
6
CONTINUOUS
62
7
100
AcDbLine
10
3524.992232990612
20
1316.794216648478
30
0.0
11
3525.019232990612
21
1318.276216648478
31
0.0
0
ARC
5
69b
100
AcDbEntity
8
0-0
6
CONTINUOUS
62
7
100
AcDbCircle
10
3662.188694392132
20
245.998216648478
30
0.0
40
1126.428000000000
100
AcDbArc
50
97.711414691224
51
97.748000000000
0
ARC
5
69c
100
AcDbEntity
8
0-0
6
CONTINUOUS
62
7
100
AcDbCircle
10
3662.188694392132
20
245.998216648478
30
0.0
40
1126.428000000000
100
AcDbArc
50
76.175000000000
51
97.046927946956
0
LINE
5
69d
100
AcDbEntity
8
0-0
6
CONTINUOUS
62
7
100
AcDbLine
10
3499.159232990612
20
1335.053716648478
30
0.0
11
3504.121563909720
21
1347.637568642998
31
0.0
0
ARC
5
69e
100
AcDbEntity
8
0-0
6
CONTINUOUS
62
7
100
AcDbCircle
10
3525.439232990612
20
1340.826857354531
30
0.0
40
22.998000000000
100
AcDbArc
50
92.794000000000
51
165.428736676306
0
LINE
5
69f
100
AcDbEntity
8
0-0
6
CONTINUOUS
62
7
100
AcDbLine
10
3538.338259551130
20
1312.123447525404
30
0.0
11
3952.947194392132
21
1309.201216648478
31
0.0
0
ARC
5
6a0
100
AcDbEntity
8
0-0
6
CONTINUOUS
62
7
100
AcDbCircle
10
4319.562194392132
20
1317.676216648478
30
0.0
40
1019.734500000000
100
AcDbArc
50
180.873632330580
51
191.387817551478
0
LINE
5
6a1
100
AcDbEntity
8
0-0
6
CONTINUOUS
62
7
100
AcDbLine
10
3244.947194392132
20
1317.128716648478
30
0.0
11
3444.868694392131
21
1317.128716648478
31
0.0
0
LINE
5
6a2
100
AcDbEntity
8
0-0
6
CONTINUOUS
62
7
100
AcDbLine
10
3247.947194392132
20
1302.128716648478
30
0.0
11
3299.946194392132
21
1302.128716648478
31
0.0
0
LINE
5
6a3
100
AcDbEntity
8
0-0
6
CONTINUOUS
62
7
100
AcDbLine
10
3244.947194392132
20
1305.128716648478
30
0.0
11
3244.947194392132
21
1677.128716648478
31
0.0
0
ARC
5
6a4
100
AcDbEntity
8
0-0
6
CONTINUOUS
62
7
100
AcDbCircle
10
3247.947194392132
20
1305.128716648478
30
0.0
40
3.000000000000
100
AcDbArc
50
180.000000000000
51
270.000000000000
0
LINE
5
6a5
100
AcDbEntity
8
0-0
6
CONTINUOUS
62
7
100
AcDbLine
10
3244.947194392132
20
1652.128216648478
30
0.0
11
3424.947194392132
21
1652.128216648478
31
0.0
0
LINE
5
6a6
100
AcDbEntity
8
0-0
6
CONTINUOUS
62
7
100
AcDbLine
10
3249.946694392132
20
1682.128216648478
30
0.0
11
3419.946194392132
21
1682.128216648478
31
0.0
0
ARC
5
6a7
100
AcDbEntity
8
0-0
6
CONTINUOUS
62
7
100
AcDbCircle
10
1797.445694392132
20
900.715216648478
30
0.0
40
1537.650000000000
100
AcDbArc
50
0.797917167779
51
4.312620026649
0
ARC
5
6a8
100
AcDbEntity
8
0-0
6
CONTINUOUS
62
7
100
AcDbCircle
10
1797.445694392132
20
900.715216648478
30
0.0
40
1537.650000000000
100
AcDbArc
50
4.771990097391
51
8.060818885531
0
LINE
5
6a9
100
AcDbEntity
8
0-0
6
CONTINUOUS
62
7
100
AcDbLine
10
756.228134750826
20
1580.385956464948
30
0.0
11
781.228134750826
21
1580.385956464948
31
0.0
0
LINE
5
6aa
100
AcDbEntity
8
0-0
6
CONTINUOUS
62
7
100
AcDbLine
10
752.768366735686
20
1644.193714666305
30
0.0
11
784.768366735686
21
1644.193714666305
31
0.0
0
ARC
5
6ab
100
AcDbEntity
8
0-0
6
CONTINUOUS
62
7
100
AcDbCircle
10
784.768366735686
20
1656.193714666305
30
0.0
40
12.000000000000
100
AcDbArc
50
270.000000000000
51
360.000000000000
0
ARC
5
6ac
100
AcDbEntity
8
0-0
6
CONTINUOUS
62
7
100
AcDbCircle
10
752.768366735686
20
1656.193714666305
30
0.0
40
12.000000000000
100
AcDbArc
50
180.000000000000
51
270.000000000000
0
LINE
5
6ad
100
AcDbEntity
8
0-0
6
CONTINUOUS
62
7
100
AcDbLine
10
741.016660533127
20
1655.911011496348
30
0.0
11
796.622348517989
21
1655.911011496349
31
0.0
0
LINE
5
6ae
100
AcDbEntity
8
0-0
6
CONTINUOUS
62
7
100
AcDbLine
10
781.228134750826
20
1609.678422248079
30
0.0
11
756.228134750826
21
1609.678422248079
31
0.0
0
LINE
5
6af
100
AcDbEntity
8
0-0
6
CONTINUOUS
62
7
100
AcDbLine
10
756.228134750826
20
1617.678422248079
30
0.0
11
781.228134750826
21
1617.678422248079
31
0.0
0
ARC
5
6b0
100
AcDbEntity
8
0-0
6
CONTINUOUS
62
7
100
AcDbCircle
10
768.777394497753
20
1613.638744320992
30
0.0
40
13.134414676531
100
AcDbArc
50
162.276763383113
51
197.297564485525
0
ARC
5
6b1
100
AcDbEntity
8
0-0
6
CONTINUOUS
62
7
100
AcDbCircle
10
768.777394497753
20
1613.638744320992
30
0.0
40
13.134414676531
100
AcDbArc
50
342.521885466274
51
378.017609214690
0
CIRCLE
5
6b2
100
AcDbEntity
8
0-0
6
CONTINUOUS
62
7
100
AcDbCircle
10
768.760936290459
20
1613.651462026629
30
0.0
40
3.389457447208
0
ARC
5
6b3
100
AcDbEntity
8
0-0
6
CONTINUOUS
62
7
100
AcDbCircle
10
781.429530177995
20
1613.654725567362
30
0.0
40
3.389457447208
100
AcDbArc
50
89.971509582607
51
269.978070214998
0
ARC
5
6b4
100
AcDbEntity
8
0-0
6
CONTINUOUS
62
7
100
AcDbCircle
10
756.120169335217
20
1613.640961314708
30
0.0
40
3.389457447208
100
AcDbArc
50
270.339830380176
51
449.767752220994
0
LINE
5
6b5
100
AcDbEntity
8
0-0
6
CONTINUOUS
62
7
100
AcDbLine
10
776.768366735686
20
1643.716421151288
30
0.0
11
776.768366735686
21
1617.816843588470
31
0.0
0
LINE
5
6b6
100
AcDbEntity
8
0-0
6
CONTINUOUS
62
7
100
AcDbLine
10
760.768366735685
20
1643.964650531944
30
0.0
11
760.768366735685
21
1617.750963924318
31
0.0
0
ARC
5
6b7
100
AcDbEntity
8
0-0
6
CONTINUOUS
62
7
100
AcDbCircle
10
764.448366735686
20
1548.712252765557
30
0.0
40
3.240000000000
100
AcDbArc
50
180.000000000000
51
270.000000000000
0
ARC
5
6b8
100
AcDbEntity
8
0-0
6
CONTINUOUS
62
7
100
AcDbCircle
10
773.088366735685
20
1548.712252765557
30
0.0
40
3.240000000000
100
AcDbArc
50
270.000000000000
51
360.000000000000
0
LINE
5
6b9
100
AcDbEntity
8
0-0
6
CONTINUOUS
62
7
100
AcDbLine
10
764.448366735686
20
1545.472252765555
30
0.0
11
773.088366735685
21
1545.472252765555
31
0.0
0
ARC
5
6ba
100
AcDbEntity
8
0-0
6
CONTINUOUS
62
7
100
AcDbCircle
10
790.659319822216
20
1554.741617964468
30
0.0
40
3.000000000000
100
AcDbArc
50
0.000000000000
51
90.000000000000
0
LINE
5
6bb
100
AcDbEntity
8
0-0
6
CONTINUOUS
62
7
100
AcDbLine
10
793.659319822215
20
1551.741617964468
30
0.0
11
793.659319822215
21
1554.741617964468
31
0.0
0
ARC
5
6bc
100
AcDbEntity
8
0-0
6
CONTINUOUS
62
7
100
AcDbCircle
10
790.659319822216
20
1551.741617964468
30
0.0
40
3.000000000000
100
AcDbArc
50
270.000000000000
51
360.000000000000
0
LINE
5
6bd
100
AcDbEntity
8
0-0
6
CONTINUOUS
62
7
100
AcDbLine
10
746.659319822216
20
1557.741617964468
30
0.0
11
790.659319822216
21
1557.741617964468
31
0.0
0
ARC
5
6be
100
AcDbEntity
8
0-0
6
CONTINUOUS
62
7
100
AcDbCircle
10
746.659319822216
20
1554.741617964468
30
0.0
40
3.000000000000
100
AcDbArc
50
90.000000000000
51
180.000000000000
0
LINE
5
6bf
100
AcDbEntity
8
0-0
6
CONTINUOUS
62
7
100
AcDbLine
10
743.659319822215
20
1551.741617964468
30
0.0
11
743.659319822215
21
1554.741617964468
31
0.0
0
LINE
5
6c0
100
AcDbEntity
8
0-0
6
CONTINUOUS
62
7
100
AcDbLine
10
746.659319822216
20
1548.741617964468
30
0.0
11
790.659319822216
21
1548.741617964468
31
0.0
0
ARC
5
6c1
100
AcDbEntity
8
0-0
6
CONTINUOUS
62
7
100
AcDbCircle
10
746.659319822216
20
1551.741617964468
30
0.0
40
3.000000000000
100
AcDbArc
50
180.000000000000
51
270.000000000000
0
ARC
5
6c2
100
AcDbEntity
8
0-0
6
CONTINUOUS
62
7
100
AcDbCircle
10
768.777394497753
20
1576.346278537862
30
0.0
40
13.134414676531
100
AcDbArc
50
162.276763383113
51
197.297564485525
0
ARC
5
6c3
100
AcDbEntity
8
0-0
6
CONTINUOUS
62
7
100
AcDbCircle
10
768.777394497753
20
1576.346278537862
30
0.0
40
13.134414676531
100
AcDbArc
50
342.521885466274
51
378.017609214690
0
CIRCLE
5
6c4
100
AcDbEntity
8
0-0
6
CONTINUOUS
62
7
100
AcDbCircle
10
768.760936290459
20
1576.358996243499
30
0.0
40
3.389457447208
0
ARC
5
6c5
100
AcDbEntity
8
0-0
6
CONTINUOUS
62
7
100
AcDbCircle
10
781.429530177995
20
1576.362259784232
30
0.0
40
3.389457447208
100
AcDbArc
50
89.971509582607
51
269.978070214998
0
ARC
5
6c6
100
AcDbEntity
8
0-0
6
CONTINUOUS
62
7
100
AcDbCircle
10
756.120169335217
20
1576.348495531578
30
0.0
40
3.389457447208
100
AcDbArc
50
270.339830380176
51
449.767752220994
0
LINE
5
6c7
100
AcDbEntity
8
0-0
6
CONTINUOUS
62
7
100
AcDbLine
10
781.125548301213
20
1572.659572672428
30
0.0
11
756.257672702829
21
1572.659572672428
31
0.0
0
POLYLINE
5
6c8
100
AcDbEntity
8
0-0
6
CONTINUOUS
62
  7
100
AcDb2dPolyline
66
1
10
0.0
20
0.0
30
0.0
70
0
0
VERTEX
5
6c9
100
AcDbEntity
8
0-0
6
CONTINUOUS
62
  7
100
AcDbVertex
100
AcDb2dVertex
10
781.297181523177
20
1572.663325871272
30
0.0
0
VERTEX
5
6ca
100
AcDbEntity
8
0-0
6
CONTINUOUS
62
  7
100
AcDbVertex
100
AcDb2dVertex
10
780.825112429079
20
1572.388178099467
30
0.0
0
VERTEX
5
6cb
100
AcDbEntity
8
0-0
6
CONTINUOUS
62
  7
100
AcDbVertex
100
AcDb2dVertex
10
780.013207323900
20
1571.911038852023
30
0.0
0
VERTEX
5
6cc
100
AcDbEntity
8
0-0
6
CONTINUOUS
62
  7
100
AcDbVertex
100
AcDb2dVertex
10
779.206877568790
20
1571.426270333923
30
0.0
0
VERTEX
5
6cd
100
AcDbEntity
8
0-0
6
CONTINUOUS
62
  7
100
AcDbVertex
100
AcDb2dVertex
10
778.409651866325
20
1570.929043892857
30
0.0
0
VERTEX
5
6ce
100
AcDbEntity
8
0-0
6
CONTINUOUS
62
  7
100
AcDbVertex
100
AcDb2dVertex
10
777.625058919079
20
1570.414530876509
30
0.0
0
VERTEX
5
6cf
100
AcDbEntity
8
0-0
6
CONTINUOUS
62
  7
100
AcDbVertex
100
AcDb2dVertex
10
776.856627429628
20
1569.877902632567
30
0.0
0
VERTEX
5
6d0
100
AcDbEntity
8
0-0
6
CONTINUOUS
62
  7
100
AcDbVertex
100
AcDb2dVertex
10
776.419732838016
20
1569.554622313696
30
0.0
0
VERTEX
5
6d1
100
AcDbEntity
8
0-0
6
CONTINUOUS
62
  7
100
AcDbVertex
100
AcDb2dVertex
10
776.170004772620
20
1569.363009660098
30
0.0
0
VERTEX
5
6d2
100
AcDbEntity
8
0-0
6
CONTINUOUS
62
  7
100
AcDbVertex
100
AcDb2dVertex
10
775.744523210757
20
1569.025686012137
30
0.0
0
VERTEX
5
6d3
100
AcDbEntity
8
0-0
6
CONTINUOUS
62
  7
100
AcDbVertex
100
AcDb2dVertex
10
775.324459796702
20
1568.680948208012
30
0.0
0
VERTEX
5
6d4
100
AcDbEntity
8
0-0
6
CONTINUOUS
62
  7
100
AcDbVertex
100
AcDb2dVertex
10
774.908631528751
20
1568.330415059112
30
0.0
0
VERTEX
5
6d5
100
AcDbEntity
8
0-0
6
CONTINUOUS
62
  7
100
AcDbVertex
100
AcDb2dVertex
10
774.495855405198
20
1567.975705376828
30
0.0
0
VERTEX
5
6d6
100
AcDbEntity
8
0-0
6
CONTINUOUS
62
  7
100
AcDbVertex
100
AcDb2dVertex
10
774.084948424339
20
1567.618437972548
30
0.0
0
VERTEX
5
6d7
100
AcDbEntity
8
0-0
6
CONTINUOUS
62
  7
100
AcDbVertex
100
AcDb2dVertex
10
773.847012652436
20
1567.410688825713
30
0.0
0
SEQEND
5
6d8
100
AcDbEntity
8
0-0
0
LINE
5
6d9
100
AcDbEntity
8
0-0
6
CONTINUOUS
62
7
100
AcDbLine
10
763.768366735686
20
1567.380603949731
30
0.0
11
773.768366735686
21
1567.380603949731
31
0.0
0
POLYLINE
5
6da
100
AcDbEntity
8
0-0
6
CONTINUOUS
62
  7
100
AcDb2dPolyline
66
1
10
0.0
20
0.0
30
0.0
70
0
0
VERTEX
5
6db
100
AcDbEntity
8
0-0
6
CONTINUOUS
62
  7
100
AcDbVertex
100
AcDb2dVertex
10
756.159561376574
20
1572.609727534072
30
0.0
0
VERTEX
5
6dc
100
AcDbEntity
8
0-0
6
CONTINUOUS
62
  7
100
AcDbVertex
100
AcDb2dVertex
10
756.651126918992
20
1572.351040622918
30
0.0
0
VERTEX
5
6dd
100
AcDbEntity
8
0-0
6
CONTINUOUS
62
  7
100
AcDbVertex
100
AcDb2dVertex
10
757.495964970368
20
1571.901285917917
30
0.0
0
VERTEX
5
6de
100
AcDbEntity
8
0-0
6
CONTINUOUS
62
  7
100
AcDbVertex
100
AcDb2dVertex
10
758.333334283135
20
1571.441134576194
30
0.0
0
VERTEX
5
6df
100
AcDbEntity
8
0-0
6
CONTINUOUS
62
  7
100
AcDbVertex
100
AcDb2dVertex
10
759.158507807542
20
1570.964006447927
30
0.0
0
VERTEX
5
6e0
100
AcDbEntity
8
0-0
6
CONTINUOUS
62
  7
100
AcDbVertex
100
AcDb2dVertex
10
759.966758493838
20
1570.463321383292
30
0.0
0
VERTEX
5
6e1
100
AcDbEntity
8
0-0
6
CONTINUOUS
62
  7
100
AcDbVertex
100
AcDb2dVertex
10
760.753359292270
20
1569.932499232466
30
0.0
0
VERTEX
5
6e2
100
AcDbEntity
8
0-0
6
CONTINUOUS
62
  7
100
AcDbVertex
100
AcDb2dVertex
10
761.197805073334
20
1569.608220650895
30
0.0
0
VERTEX
5
6e3
100
AcDbEntity
8
0-0
6
CONTINUOUS
62
  7
100
AcDbVertex
100
AcDb2dVertex
10
761.455502309346
20
1569.410760088780
30
0.0
0
VERTEX
5
6e4
100
AcDbEntity
8
0-0
6
CONTINUOUS
62
  7
100
AcDbVertex
100
AcDb2dVertex
10
761.892740410734
20
1569.060472770074
30
0.0
0
VERTEX
5
6e5
100
AcDbEntity
8
0-0
6
CONTINUOUS
62
  7
100
AcDbVertex
100
AcDb2dVertex
10
762.322446622465
20
1568.699700907099
30
0.0
0
VERTEX
5
6e6
100
AcDbEntity
8
0-0
6
CONTINUOUS
62
  7
100
AcDbVertex
100
AcDb2dVertex
10
762.746265461935
20
1568.330733701661
30
0.0
0
VERTEX
5
6e7
100
AcDbEntity
8
0-0
6
CONTINUOUS
62
  7
100
AcDbVertex
100
AcDb2dVertex
10
763.165841446532
20
1567.955860355565
30
0.0
0
VERTEX
5
6e8
100
AcDbEntity
8
0-0
6
CONTINUOUS
62
  7
100
AcDbVertex
100
AcDb2dVertex
10
763.582819093651
20
1567.577370070616
30
0.0
0
VERTEX
5
6e9
100
AcDbEntity
8
0-0
6
CONTINUOUS
62
  7
100
AcDbVertex
100
AcDb2dVertex
10
763.824123596114
20
1567.357090488513
30
0.0
0
SEQEND
5
6ea
100
AcDbEntity
8
0-0
0
LINE
5
6eb
100
AcDbEntity
8
0-0
6
CONTINUOUS
62
7
100
AcDbLine
10
772.768366735686
20
1567.402477703140
30
0.0
11
772.768366735686
21
1557.669384226979
31
0.0
0
LINE
5
6ec
100
AcDbEntity
8
0-0
6
CONTINUOUS
62
7
100
AcDbLine
10
764.768366735685
20
1567.469735855510
30
0.0
11
764.768366735685
21
1557.669384226979
31
0.0
0
LINE
5
6ed
100
AcDbEntity
8
0-0
6
CONTINUOUS
62
7
100
AcDbLine
10
756.377097046377
20
1609.591421152876
30
0.0
11
756.377097046377
21
1580.397976746987
31
0.0
0
POLYLINE
5
6ee
100
AcDbEntity
8
0-0
6
CONTINUOUS
62
  7
100
AcDb2dPolyline
66
1
10
0.0
20
0.0
30
0.0
70
0
0
VERTEX
5
6ef
100
AcDbEntity
8
0-0
6
CONTINUOUS
62
  7
100
AcDbVertex
100
AcDb2dVertex
10
763.790344953727
20
1604.610731564702
30
0.0
0
VERTEX
5
6f0
100
AcDbEntity
8
0-0
6
CONTINUOUS
62
  7
100
AcDbVertex
100
AcDb2dVertex
10
758.540344953727
20
1595.517464824965
30
0.0
0
VERTEX
5
6f1
100
AcDbEntity
8
0-0
6
CONTINUOUS
62
  7
100
AcDbVertex
100
AcDb2dVertex
10
763.790344953727
20
1586.424198085229
30
0.0
0
VERTEX
5
6f2
100
AcDbEntity
8
0-0
6
CONTINUOUS
62
  7
100
AcDbVertex
100
AcDb2dVertex
10
774.290344953726
20
1586.424198085229
30
0.0
0
SEQEND
5
6f3
100
AcDbEntity
8
0-0
0
LINE
5
6f4
100
AcDbEntity
8
0-0
6
CONTINUOUS
62
7
100
AcDbLine
10
774.290344953726
20
1604.610731564702
30
0.0
11
763.790344953727
21
1604.610731564702
31
0.0
0
ARC
5
6f5
100
AcDbEntity
8
0-0
6
CONTINUOUS
62
7
100
AcDbCircle
10
769.028525820632
20
1595.380429398186
30
0.0
40
8.000000000000
100
AcDbArc
50
87.277996028082
51
269.278324649109
0
LINE
5
6f6
100
AcDbEntity
8
0-0
6
CONTINUOUS
62
7
100
AcDbLine
10
775.369978813469
20
1602.740750866056
30
0.0
11
774.290344953726
21
1604.610731564702
31
0.0
0
LINE
5
6f7
100
AcDbEntity
8
0-0
6
CONTINUOUS
62
7
100
AcDbLine
10
774.290344953726
20
1586.424198085229
30
0.0
11
774.483135197794
21
1586.758120583157
31
0.0
0
LINE
5
6f8
100
AcDbEntity
8
0-0
6
CONTINUOUS
62
7
100
AcDbLine
10
780.968392328068
20
1609.611635580329
30
0.0
11
780.968392328068
21
1602.034392765573
31
0.0
0
LINE
5
6f9
100
AcDbEntity
8
0-0
6
CONTINUOUS
62
7
100
AcDbLine
10
780.968392328068
20
1586.094724992603
30
0.0
11
780.968392328068
21
1580.462558369847
31
0.0
0
POLYLINE
5
6fa
100
AcDbEntity
8
0-0
6
CONTINUOUS
62
  7
100
AcDb2dPolyline
66
1
10
0.0
20
0.0
30
0.0
70
0
0
VERTEX
5
6fb
100
AcDbEntity
8
0-0
6
CONTINUOUS
62
  7
100
AcDbVertex
100
AcDb2dVertex
10
770.908410186900
20
1603.381391319144
30
0.0
0
VERTEX
5
6fc
100
AcDbEntity
8
0-0
6
CONTINUOUS
62
  7
100
AcDbVertex
100
AcDb2dVertex
10
775.314971242446
20
1602.880762081800
30
0.0
0
VERTEX
5
6fd
100
AcDbEntity
8
0-0
6
CONTINUOUS
62
  7
100
AcDbVertex
100
AcDb2dVertex
10
782.913140793356
20
1602.033498427002
30
0.0
0
VERTEX
5
6fe
100
AcDbEntity
8
0-0
6
CONTINUOUS
62
  7
100
AcDbVertex
100
AcDb2dVertex
10
790.513117259894
20
1601.230374224126
30
0.0
0
VERTEX
5
6ff
100
AcDbEntity
8
0-0
6
CONTINUOUS
62
  7
100
AcDbVertex
100
AcDb2dVertex
10
798.116044259541
20
1600.499325835149
30
0.0
0
VERTEX
5
700
100
AcDbEntity
8
0-0
6
CONTINUOUS
62
  7
100
AcDbVertex
100
AcDb2dVertex
10
805.723065409787
20
1599.868289622046
30
0.0
0
VERTEX
5
701
100
AcDbEntity
8
0-0
6
CONTINUOUS
62
  7
100
AcDbVertex
100
AcDb2dVertex
10
813.335324328113
20
1599.365201946795
30
0.0
0
VERTEX
5
702
100
AcDbEntity
8
0-0
6
CONTINUOUS
62
  7
100
AcDbVertex
100
AcDb2dVertex
10
817.753285090834
20
1599.143045494503
30
0.0
0
VERTEX
5
703
100
AcDbEntity
8
0-0
6
CONTINUOUS
62
  7
100
AcDbVertex
100
AcDb2dVertex
10
822.742872564908
20
1598.959652167591
30
0.0
0
VERTEX
5
704
100
AcDbEntity
8
0-0
6
CONTINUOUS
62
  7
100
AcDbVertex
100
AcDb2dVertex
10
831.351871575754
20
1598.796424990062
30
0.0
0
VERTEX
5
705
100
AcDbEntity
8
0-0
6
CONTINUOUS
62
  7
100
AcDbVertex
100
AcDb2dVertex
10
837.633740890650
20
1598.796273875996
30
0.0
0
SEQEND
5
706
100
AcDbEntity
8
0-0
0
POLYLINE
5
707
100
AcDbEntity
8
0-0
6
CONTINUOUS
62
  7
100
AcDb2dPolyline
66
1
10
0.0
20
0.0
30
0.0
70
0
0
VERTEX
5
708
100
AcDbEntity
8
0-0
6
CONTINUOUS
62
  7
100
AcDbVertex
100
AcDb2dVertex
10
770.621573818913
20
1587.396470198027
30
0.0
0
VERTEX
5
709
100
AcDbEntity
8
0-0
6
CONTINUOUS
62
  7
100
AcDbVertex
100
AcDb2dVertex
10
775.028134874458
20
1586.895840960683
30
0.0
0
VERTEX
5
70a
100
AcDbEntity
8
0-0
6
CONTINUOUS
62
  7
100
AcDbVertex
100
AcDb2dVertex
10
782.626304425369
20
1586.048577305885
30
0.0
0
VERTEX
5
70b
100
AcDbEntity
8
0-0
6
CONTINUOUS
62
  7
100
AcDbVertex
100
AcDb2dVertex
10
790.226280891906
20
1585.245453103009
30
0.0
0
VERTEX
5
70c
100
AcDbEntity
8
0-0
6
CONTINUOUS
62
  7
100
AcDbVertex
100
AcDb2dVertex
10
797.829207891554
20
1584.514404714032
30
0.0
0
VERTEX
5
70d
100
AcDbEntity
8
0-0
6
CONTINUOUS
62
  7
100
AcDbVertex
100
AcDb2dVertex
10
805.436229041799
20
1583.883368500929
30
0.0
0
VERTEX
5
70e
100
AcDbEntity
8
0-0
6
CONTINUOUS
62
  7
100
AcDbVertex
100
AcDb2dVertex
10
813.048487960126
20
1583.380280825678
30
0.0
0
VERTEX
5
70f
100
AcDbEntity
8
0-0
6
CONTINUOUS
62
  7
100
AcDbVertex
100
AcDb2dVertex
10
817.466448722848
20
1583.158124373385
30
0.0
0
VERTEX
5
710
100
AcDbEntity
8
0-0
6
CONTINUOUS
62
  7
100
AcDbVertex
100
AcDb2dVertex
10
822.456036196921
20
1582.974731046474
30
0.0
0
VERTEX
5
711
100
AcDbEntity
8
0-0
6
CONTINUOUS
62
  7
100
AcDbVertex
100
AcDb2dVertex
10
825.562070699065
20
1582.915840431612
30
0.0
0
SEQEND
5
712
100
AcDbEntity
8
0-0
0
POLYLINE
5
713
100
AcDbEntity
8
0-0
6
DASHED
62
  7
100
AcDb2dPolyline
66
1
10
0.0
20
0.0
30
0.0
70
0
0
VERTEX
5
714
100
AcDbEntity
8
0-0
6
DASHED
62
  7
100
AcDbVertex
100
AcDb2dVertex
10
2022.504553456427
20
1054.440586459070
30
0.0
0
VERTEX
5
715
100
AcDbEntity
8
0-0
6
DASHED
62
  7
100
AcDbVertex
100
AcDb2dVertex
10
2022.398701234595
20
1055.790531613048
30
0.0
0
VERTEX
5
716
100
AcDbEntity
8
0-0
6
DASHED
62
  7
100
AcDbVertex
100
AcDb2dVertex
10
2022.217342202115
20
1058.117810749440
30
0.0
0
VERTEX
5
717
100
AcDbEntity
8
0-0
6
DASHED
62
  7
100
AcDbVertex
100
AcDb2dVertex
10
2022.039163164811
20
1060.444499584727
30
0.0
0
VERTEX
5
718
100
AcDbEntity
8
0-0
6
DASHED
62
  7
100
AcDbVertex
100
AcDb2dVertex
10
2021.866176777859
20
1062.770224510615
30
0.0
0
VERTEX
5
719
100
AcDbEntity
8
0-0
6
DASHED
62
  7
100
AcDbVertex
100
AcDb2dVertex
10
2021.700395696432
20
1065.094611918810
30
0.0
0
VERTEX
5
71a
100
AcDbEntity
8
0-0
6
DASHED
62
  7
100
AcDbVertex
100
AcDb2dVertex
10
2021.543832575708
20
1067.417288201018
30
0.0
0
VERTEX
5
71b
100
AcDbEntity
8
0-0
6
DASHED
62
  7
100
AcDbVertex
100
AcDb2dVertex
10
2021.398500070859
20
1069.737879748945
30
0.0
0
VERTEX
5
71c
100
AcDbEntity
8
0-0
6
DASHED
62
  7
100
AcDbVertex
100
AcDb2dVertex
10
2021.266410837062
20
1072.056012954296
30
0.0
0
VERTEX
5
71d
100
AcDbEntity
8
0-0
6
DASHED
62
  7
100
AcDbVertex
100
AcDb2dVertex
10
2021.149577529491
20
1074.371314208777
30
0.0
0
VERTEX
5
71e
100
AcDbEntity
8
0-0
6
DASHED
62
  7
100
AcDbVertex
100
AcDb2dVertex
10
2021.050012803321
20
1076.683409904094
30
0.0
0
VERTEX
5
71f
100
AcDbEntity
8
0-0
6
DASHED
62
  7
100
AcDbVertex
100
AcDb2dVertex
10
2020.969729313727
20
1078.991926431953
30
0.0
0
VERTEX
5
720
100
AcDbEntity
8
0-0
6
DASHED
62
  7
100
AcDbVertex
100
AcDb2dVertex
10
2020.910739715885
20
1081.296490184061
30
0.0
0
VERTEX
5
721
100
AcDbEntity
8
0-0
6
DASHED
62
  7
100
AcDbVertex
100
AcDb2dVertex
10
2020.875056664968
20
1083.596727552121
30
0.0
0
VERTEX
5
722
100
AcDbEntity
8
0-0
6
DASHED
62
  7
100
AcDbVertex
100
AcDb2dVertex
10
2020.864692816152
20
1085.892264927842
30
0.0
0
VERTEX
5
723
100
AcDbEntity
8
0-0
6
DASHED
62
  7
100
AcDbVertex
100
AcDb2dVertex
10
2020.881660824613
20
1088.182728702927
30
0.0
0
VERTEX
5
724
100
AcDbEntity
8
0-0
6
DASHED
62
  7
100
AcDbVertex
100
AcDb2dVertex
10
2020.927973345524
20
1090.467745269084
30
0.0
0
VERTEX
5
725
100
AcDbEntity
8
0-0
6
DASHED
62
  7
100
AcDbVertex
100
AcDb2dVertex
10
2021.005643034061
20
1092.746941018018
30
0.0
0
VERTEX
5
726
100
AcDbEntity
8
0-0
6
DASHED
62
  7
100
AcDbVertex
100
AcDb2dVertex
10
2021.116682545399
20
1095.019942341435
30
0.0
0
VERTEX
5
727
100
AcDbEntity
8
0-0
6
DASHED
62
  7
100
AcDbVertex
100
AcDb2dVertex
10
2021.263104534713
20
1097.286375631040
30
0.0
0
VERTEX
5
728
100
AcDbEntity
8
0-0
6
DASHED
62
  7
100
AcDbVertex
100
AcDb2dVertex
10
2021.446921657177
20
1099.545867278540
30
0.0
0
VERTEX
5
729
100
AcDbEntity
8
0-0
6
DASHED
62
  7
100
AcDbVertex
100
AcDb2dVertex
10
2021.670146567967
20
1101.798043675640
30
0.0
0
VERTEX
5
72a
100
AcDbEntity
8
0-0
6
DASHED
62
  7
100
AcDbVertex
100
AcDb2dVertex
10
2021.934791922258
20
1104.042531214047
30
0.0
0
VERTEX
5
72b
100
AcDbEntity
8
0-0
6
DASHED
62
  7
100
AcDbVertex
100
AcDb2dVertex
10
2022.242870375225
20
1106.278956285466
30
0.0
0
VERTEX
5
72c
100
AcDbEntity
8
0-0
6
DASHED
62
  7
100
AcDbVertex
100
AcDb2dVertex
10
2022.596394582042
20
1108.506945281602
30
0.0
0
VERTEX
5
72d
100
AcDbEntity
8
0-0
6
DASHED
62
  7
100
AcDbVertex
100
AcDb2dVertex
10
2022.997377197884
20
1110.726124594162
30
0.0
0
VERTEX
5
72e
100
AcDbEntity
8
0-0
6
DASHED
62
  7
100
AcDbVertex
100
AcDb2dVertex
10
2023.447830877927
20
1112.936120614852
30
0.0
0
VERTEX
5
72f
100
AcDbEntity
8
0-0
6
DASHED
62
  7
100
AcDbVertex
100
AcDb2dVertex
10
2023.949768277346
20
1115.136559735377
30
0.0
0
VERTEX
5
730
100
AcDbEntity
8
0-0
6
DASHED
62
  7
100
AcDbVertex
100
AcDb2dVertex
10
2024.505202051315
20
1117.327068347444
30
0.0
0
VERTEX
5
731
100
AcDbEntity
8
0-0
6
DASHED
62
  7
100
AcDbVertex
100
AcDb2dVertex
10
2025.116144855010
20
1119.507272842758
30
0.0
0
VERTEX
5
732
100
AcDbEntity
8
0-0
6
DASHED
62
  7
100
AcDbVertex
100
AcDb2dVertex
10
2025.496719009370
20
1120.766922882648
30
0.0
0
VERTEX
5
733
100
AcDbEntity
8
0-0
6
DASHED
62
  7
100
AcDbVertex
100
AcDb2dVertex
10
2025.706838004881
20
1121.434452603002
30
0.0
0
VERTEX
5
734
100
AcDbEntity
8
0-0
6
DASHED
62
  7
100
AcDbVertex
100
AcDb2dVertex
10
2026.082121132567
20
1122.582750698404
30
0.0
0
VERTEX
5
735
100
AcDbEntity
8
0-0
6
DASHED
62
  7
100
AcDbVertex
100
AcDb2dVertex
10
2026.473765814408
20
1123.727455047168
30
0.0
0
VERTEX
5
736
100
AcDbEntity
8
0-0
6
DASHED
62
  7
100
AcDbVertex
100
AcDb2dVertex
10
2026.881649339607
20
1124.868236175804
30
0.0
0
VERTEX
5
737
100
AcDbEntity
8
0-0
6
DASHED
62
  7
100
AcDbVertex
100
AcDb2dVertex
10
2027.305648997372
20
1126.004764610820
30
0.0
0
VERTEX
5
738
100
AcDbEntity
8
0-0
6
DASHED
62
  7
100
AcDbVertex
100
AcDb2dVertex
10
2027.745642076909
20
1127.136710878725
30
0.0
0
VERTEX
5
739
100
AcDbEntity
8
0-0
6
DASHED
62
  7
100
AcDbVertex
100
AcDb2dVertex
10
2028.201505867423
20
1128.263745506028
30
0.0
0
VERTEX
5
73a
100
AcDbEntity
8
0-0
6
DASHED
62
  7
100
AcDbVertex
100
AcDb2dVertex
10
2028.673117658122
20
1129.385539019237
30
0.0
0
VERTEX
5
73b
100
AcDbEntity
8
0-0
6
DASHED
62
  7
100
AcDbVertex
100
AcDb2dVertex
10
2029.160354738211
20
1130.501761944861
30
0.0
0
VERTEX
5
73c
100
AcDbEntity
8
0-0
6
DASHED
62
  7
100
AcDbVertex
100
AcDb2dVertex
10
2029.663094396895
20
1131.612084809410
30
0.0
0
VERTEX
5
73d
100
AcDbEntity
8
0-0
6
DASHED
62
  7
100
AcDbVertex
100
AcDb2dVertex
10
2030.181213923382
20
1132.716178139391
30
0.0
0
VERTEX
5
73e
100
AcDbEntity
8
0-0
6
DASHED
62
  7
100
AcDbVertex
100
AcDb2dVertex
10
2030.714590606877
20
1133.813712461314
30
0.0
0
VERTEX
5
73f
100
AcDbEntity
8
0-0
6
DASHED
62
  7
100
AcDbVertex
100
AcDb2dVertex
10
2031.263101736587
20
1134.904358301687
30
0.0
0
VERTEX
5
740
100
AcDbEntity
8
0-0
6
DASHED
62
  7
100
AcDbVertex
100
AcDb2dVertex
10
2031.826624601717
20
1135.987786187020
30
0.0
0
VERTEX
5
741
100
AcDbEntity
8
0-0
6
DASHED
62
  7
100
AcDbVertex
100
AcDb2dVertex
10
2032.405036491473
20
1137.063666643821
30
0.0
0
VERTEX
5
742
100
AcDbEntity
8
0-0
6
DASHED
62
  7
100
AcDbVertex
100
AcDb2dVertex
10
2032.998214695062
20
1138.131670198598
30
0.0
0
VERTEX
5
743
100
AcDbEntity
8
0-0
6
DASHED
62
  7
100
AcDbVertex
100
AcDb2dVertex
10
2033.606036501690
20
1139.191467377861
30
0.0
0
VERTEX
5
744
100
AcDbEntity
8
0-0
6
DASHED
62
  7
100
AcDbVertex
100
AcDb2dVertex
10
2034.228379200562
20
1140.242728708118
30
0.0
0
VERTEX
5
745
100
AcDbEntity
8
0-0
6
DASHED
62
  7
100
AcDbVertex
100
AcDb2dVertex
10
2034.865120080885
20
1141.285124715878
30
0.0
0
VERTEX
5
746
100
AcDbEntity
8
0-0
6
DASHED
62
  7
100
AcDbVertex
100
AcDb2dVertex
10
2035.516136431866
20
1142.318325927649
30
0.0
0
VERTEX
5
747
100
AcDbEntity
8
0-0
6
DASHED
62
  7
100
AcDbVertex
100
AcDb2dVertex
10
2036.181305542709
20
1143.342002869942
30
0.0
0
VERTEX
5
748
100
AcDbEntity
8
0-0
6
DASHED
62
  7
100
AcDbVertex
100
AcDb2dVertex
10
2036.860504702622
20
1144.355826069264
30
0.0
0
VERTEX
5
749
100
AcDbEntity
8
0-0
6
DASHED
62
  7
100
AcDbVertex
100
AcDb2dVertex
10
2037.553611200809
20
1145.359466052124
30
0.0
0
VERTEX
5
74a
100
AcDbEntity
8
0-0
6
DASHED
62
  7
100
AcDbVertex
100
AcDb2dVertex
10
2038.260502326478
20
1146.352593345030
30
0.0
0
VERTEX
5
74b
100
AcDbEntity
8
0-0
6
DASHED
62
  7
100
AcDbVertex
100
AcDb2dVertex
10
2038.981055368835
20
1147.334878474493
30
0.0
0
VERTEX
5
74c
100
AcDbEntity
8
0-0
6
DASHED
62
  7
100
AcDbVertex
100
AcDb2dVertex
10
2039.715147617085
20
1148.305991967020
30
0.0
0
VERTEX
5
74d
100
AcDbEntity
8
0-0
6
DASHED
62
  7
100
AcDbVertex
100
AcDb2dVertex
10
2040.462656360434
20
1149.265604349120
30
0.0
0
VERTEX
5
74e
100
AcDbEntity
8
0-0
6
DASHED
62
  7
100
AcDbVertex
100
AcDb2dVertex
10
2041.223458888089
20
1150.213386147302
30
0.0
0
VERTEX
5
74f
100
AcDbEntity
8
0-0
6
DASHED
62
  7
100
AcDbVertex
100
AcDb2dVertex
10
2041.997432489256
20
1151.149007888075
30
0.0
0
VERTEX
5
750
100
AcDbEntity
8
0-0
6
DASHED
62
  7
100
AcDbVertex
100
AcDb2dVertex
10
2042.452323809382
20
1151.685966929730
30
0.0
0
VERTEX
5
751
100
AcDbEntity
8
0-0
6
DASHED
62
  7
100
AcDbVertex
100
AcDb2dVertex
10
2042.920879270612
20
1152.229409998540
30
0.0
0
VERTEX
5
752
100
AcDbEntity
8
0-0
6
DASHED
62
  7
100
AcDbVertex
100
AcDb2dVertex
10
2043.738955837089
20
1153.156382927224
30
0.0
0
VERTEX
5
753
100
AcDbEntity
8
0-0
6
DASHED
62
  7
100
AcDbVertex
100
AcDb2dVertex
10
2044.569294790372
20
1154.071348239964
30
0.0
0
VERTEX
5
754
100
AcDbEntity
8
0-0
6
DASHED
62
  7
100
AcDbVertex
100
AcDb2dVertex
10
2045.411108615892
20
1154.975059341254
30
0.0
0
VERTEX
5
755
100
AcDbEntity
8
0-0
6
DASHED
62
  7
100
AcDbVertex
100
AcDb2dVertex
10
2046.263609799080
20
1155.868269635591
30
0.0
0
VERTEX
5
756
100
AcDbEntity
8
0-0
6
DASHED
62
  7
100
AcDbVertex
100
AcDb2dVertex
10
2047.126010825364
20
1156.751732527470
30
0.0
0
VERTEX
5
757
100
AcDbEntity
8
0-0
6
DASHED
62
  7
100
AcDbVertex
100
AcDb2dVertex
10
2047.997524180174
20
1157.626201421386
30
0.0
0
VERTEX
5
758
100
AcDbEntity
8
0-0
6
DASHED
62
  7
100
AcDbVertex
100
AcDb2dVertex
10
2048.877362348940
20
1158.492429721835
30
0.0
0
VERTEX
5
759
100
AcDbEntity
8
0-0
6
DASHED
62
  7
100
AcDbVertex
100
AcDb2dVertex
10
2049.764737817092
20
1159.351170833311
30
0.0
0
VERTEX
5
75a
100
AcDbEntity
8
0-0
6
DASHED
62
  7
100
AcDbVertex
100
AcDb2dVertex
10
2050.658863070060
20
1160.203178160310
30
0.0
0
VERTEX
5
75b
100
AcDbEntity
8
0-0
6
DASHED
62
  7
100
AcDbVertex
100
AcDb2dVertex
10
2051.558950593274
20
1161.049205107328
30
0.0
0
VERTEX
5
75c
100
AcDbEntity
8
0-0
6
DASHED
62
  7
100
AcDbVertex
100
AcDb2dVertex
10
2052.464212872163
20
1161.890005078859
30
0.0
0
VERTEX
5
75d
100
AcDbEntity
8
0-0
6
DASHED
62
  7
100
AcDbVertex
100
AcDb2dVertex
10
2053.373862392157
20
1162.726331479399
30
0.0
0
VERTEX
5
75e
100
AcDbEntity
8
0-0
6
DASHED
62
  7
100
AcDbVertex
100
AcDb2dVertex
10
2054.287111638687
20
1163.558937713444
30
0.0
0
VERTEX
5
75f
100
AcDbEntity
8
0-0
6
DASHED
62
  7
100
AcDbVertex
100
AcDb2dVertex
10
2055.203173097181
20
1164.388577185488
30
0.0
0
VERTEX
5
760
100
AcDbEntity
8
0-0
6
DASHED
62
  7
100
AcDbVertex
100
AcDb2dVertex
10
2056.121259253070
20
1165.216003300028
30
0.0
0
VERTEX
5
761
100
AcDbEntity
8
0-0
6
DASHED
62
  7
100
AcDbVertex
100
AcDb2dVertex
10
2057.040582591783
20
1166.041969461558
30
0.0
0
VERTEX
5
762
100
AcDbEntity
8
0-0
6
DASHED
62
  7
100
AcDbVertex
100
AcDb2dVertex
10
2057.960355598751
20
1166.867229074573
30
0.0
0
VERTEX
5
763
100
AcDbEntity
8
0-0
6
DASHED
62
  7
100
AcDbVertex
100
AcDb2dVertex
10
2058.879790759402
20
1167.692535543570
30
0.0
0
VERTEX
5
764
100
AcDbEntity
8
0-0
6
DASHED
62
  7
100
AcDbVertex
100
AcDb2dVertex
10
2059.798100559168
20
1168.518642273042
30
0.0
0
VERTEX
5
765
100
AcDbEntity
8
0-0
6
DASHED
62
  7
100
AcDbVertex
100
AcDb2dVertex
10
2060.714497483477
20
1169.346302667487
30
0.0
0
VERTEX
5
766
100
AcDbEntity
8
0-0
6
DASHED
62
  7
100
AcDbVertex
100
AcDb2dVertex
10
2061.628194017760
20
1170.176270131398
30
0.0
0
VERTEX
5
767
100
AcDbEntity
8
0-0
6
DASHED
62
  7
100
AcDbVertex
100
AcDb2dVertex
10
2062.538402647446
20
1171.009298069272
30
0.0
0
VERTEX
5
768
100
AcDbEntity
8
0-0
6
DASHED
62
  7
100
AcDbVertex
100
AcDb2dVertex
10
2063.444335857966
20
1171.846139885603
30
0.0
0
VERTEX
5
769
100
AcDbEntity
8
0-0
6
DASHED
62
  7
100
AcDbVertex
100
AcDb2dVertex
10
2064.345206134748
20
1172.687548984887
30
0.0
0
VERTEX
5
76a
100
AcDbEntity
8
0-0
6
DASHED
62
  7
100
AcDbVertex
100
AcDb2dVertex
10
2065.240225963223
20
1173.534278771620
30
0.0
0
VERTEX
5
76b
100
AcDbEntity
8
0-0
6
DASHED
62
  7
100
AcDbVertex
100
AcDb2dVertex
10
2066.128607828820
20
1174.387082650296
30
0.0
0
VERTEX
5
76c
100
AcDbEntity
8
0-0
6
DASHED
62
  7
100
AcDbVertex
100
AcDb2dVertex
10
2067.009564216970
20
1175.246714025411
30
0.0
0
VERTEX
5
76d
100
AcDbEntity
8
0-0
6
DASHED
62
  7
100
AcDbVertex
100
AcDb2dVertex
10
2067.882307613102
20
1176.113926301460
30
0.0
0
VERTEX
5
76e
100
AcDbEntity
8
0-0
6
DASHED
62
  7
100
AcDbVertex
100
AcDb2dVertex
10
2068.384425268225
20
1176.620679870925
30
0.0
0
VERTEX
5
76f
100
AcDbEntity
8
0-0
6
DASHED
62
  7
100
AcDbVertex
100
AcDb2dVertex
10
2068.945958033383
20
1177.194687692879
30
0.0
0
VERTEX
5
770
100
AcDbEntity
8
0-0
6
DASHED
62
  7
100
AcDbVertex
100
AcDb2dVertex
10
2069.904882097533
20
1178.192922300721
30
0.0
0
VERTEX
5
771
100
AcDbEntity
8
0-0
6
DASHED
62
  7
100
AcDbVertex
100
AcDb2dVertex
10
2070.852468704458
20
1179.201672000591
30
0.0
0
VERTEX
5
772
100
AcDbEntity
8
0-0
6
DASHED
62
  7
100
AcDbVertex
100
AcDb2dVertex
10
2071.789128929474
20
1180.220555534622
30
0.0
0
VERTEX
5
773
100
AcDbEntity
8
0-0
6
DASHED
62
  7
100
AcDbVertex
100
AcDb2dVertex
10
2072.715273847898
20
1181.249191644944
30
0.0
0
VERTEX
5
774
100
AcDbEntity
8
0-0
6
DASHED
62
  7
100
AcDbVertex
100
AcDb2dVertex
10
2073.631314535045
20
1182.287199073689
30
0.0
0
VERTEX
5
775
100
AcDbEntity
8
0-0
6
DASHED
62
  7
100
AcDbVertex
100
AcDb2dVertex
10
2074.537662066232
20
1183.334196562986
30
0.0
0
VERTEX
5
776
100
AcDbEntity
8
0-0
6
DASHED
62
  7
100
AcDbVertex
100
AcDb2dVertex
10
2075.434727516777
20
1184.389802854967
30
0.0
0
VERTEX
5
777
100
AcDbEntity
8
0-0
6
DASHED
62
  7
100
AcDbVertex
100
AcDb2dVertex
10
2076.322921961994
20
1185.453636691764
30
0.0
0
VERTEX
5
778
100
AcDbEntity
8
0-0
6
DASHED
62
  7
100
AcDbVertex
100
AcDb2dVertex
10
2077.202656477200
20
1186.525316815505
30
0.0
0
VERTEX
5
779
100
AcDbEntity
8
0-0
6
DASHED
62
  7
100
AcDbVertex
100
AcDb2dVertex
10
2078.074342137712
20
1187.604461968324
30
0.0
0
VERTEX
5
77a
100
AcDbEntity
8
0-0
6
DASHED
62
  7
100
AcDbVertex
100
AcDb2dVertex
10
2078.938390018846
20
1188.690690892351
30
0.0
0
VERTEX
5
77b
100
AcDbEntity
8
0-0
6
DASHED
62
  7
100
AcDbVertex
100
AcDb2dVertex
10
2079.795211195919
20
1189.783622329715
30
0.0
0
VERTEX
5
77c
100
AcDbEntity
8
0-0
6
DASHED
62
  7
100
AcDbVertex
100
AcDb2dVertex
10
2080.645216744246
20
1190.882875022550
30
0.0
0
VERTEX
5
77d
100
AcDbEntity
8
0-0
6
DASHED
62
  7
100
AcDbVertex
100
AcDb2dVertex
10
2081.488817739144
20
1191.988067712985
30
0.0
0
VERTEX
5
77e
100
AcDbEntity
8
0-0
6
DASHED
62
  7
100
AcDbVertex
100
AcDb2dVertex
10
2082.326425255929
20
1193.098819143150
30
0.0
0
VERTEX
5
77f
100
AcDbEntity
8
0-0
6
DASHED
62
  7
100
AcDbVertex
100
AcDb2dVertex
10
2083.158450369919
20
1194.214748055179
30
0.0
0
VERTEX
5
780
100
AcDbEntity
8
0-0
6
DASHED
62
  7
100
AcDbVertex
100
AcDb2dVertex
10
2083.985304156429
20
1195.335473191199
30
0.0
0
SEQEND
5
781
100
AcDbEntity
8
0-0
0
POLYLINE
5
782
100
AcDbEntity
8
0-0
6
DASHED
62
  7
100
AcDb2dPolyline
66
1
10
0.0
20
0.0
30
0.0
70
0
0
VERTEX
5
783
100
AcDbEntity
8
0-0
6
DASHED
62
  7
100
AcDbVertex
100
AcDb2dVertex
10
2039.970041461164
20
1055.044188334040
30
0.0
0
VERTEX
5
784
100
AcDbEntity
8
0-0
6
DASHED
62
  7
100
AcDbVertex
100
AcDb2dVertex
10
2039.864189239333
20
1056.394133488019
30
0.0
0
VERTEX
5
785
100
AcDbEntity
8
0-0
6
DASHED
62
  7
100
AcDbVertex
100
AcDb2dVertex
10
2039.682830206853
20
1058.721412624410
30
0.0
0
VERTEX
5
786
100
AcDbEntity
8
0-0
6
DASHED
62
  7
100
AcDbVertex
100
AcDb2dVertex
10
2039.504651169549
20
1061.048101459698
30
0.0
0
VERTEX
5
787
100
AcDbEntity
8
0-0
6
DASHED
62
  7
100
AcDbVertex
100
AcDb2dVertex
10
2039.331664782596
20
1063.373826385586
30
0.0
0
VERTEX
5
788
100
AcDbEntity
8
0-0
6
DASHED
62
  7
100
AcDbVertex
100
AcDb2dVertex
10
2039.165883701170
20
1065.698213793781
30
0.0
0
VERTEX
5
789
100
AcDbEntity
8
0-0
6
DASHED
62
  7
100
AcDbVertex
100
AcDb2dVertex
10
2039.009320580445
20
1068.020890075989
30
0.0
0
VERTEX
5
78a
100
AcDbEntity
8
0-0
6
DASHED
62
  7
100
AcDbVertex
100
AcDb2dVertex
10
2038.863988075597
20
1070.341481623915
30
0.0
0
VERTEX
5
78b
100
AcDbEntity
8
0-0
6
DASHED
62
  7
100
AcDbVertex
100
AcDb2dVertex
10
2038.731898841800
20
1072.659614829266
30
0.0
0
VERTEX
5
78c
100
AcDbEntity
8
0-0
6
DASHED
62
  7
100
AcDbVertex
100
AcDb2dVertex
10
2038.615065534229
20
1074.974916083748
30
0.0
0
VERTEX
5
78d
100
AcDbEntity
8
0-0
6
DASHED
62
  7
100
AcDbVertex
100
AcDb2dVertex
10
2038.515500808059
20
1077.287011779065
30
0.0
0
VERTEX
5
78e
100
AcDbEntity
8
0-0
6
DASHED
62
  7
100
AcDbVertex
100
AcDb2dVertex
10
2038.435217318465
20
1079.595528306924
30
0.0
0
VERTEX
5
78f
100
AcDbEntity
8
0-0
6
DASHED
62
  7
100
AcDbVertex
100
AcDb2dVertex
10
2038.376227720622
20
1081.900092059031
30
0.0
0
VERTEX
5
790
100
AcDbEntity
8
0-0
6
DASHED
62
  7
100
AcDbVertex
100
AcDb2dVertex
10
2038.340544669705
20
1084.200329427092
30
0.0
0
VERTEX
5
791
100
AcDbEntity
8
0-0
6
DASHED
62
  7
100
AcDbVertex
100
AcDb2dVertex
10
2038.330180820890
20
1086.495866802812
30
0.0
0
VERTEX
5
792
100
AcDbEntity
8
0-0
6
DASHED
62
  7
100
AcDbVertex
100
AcDb2dVertex
10
2038.347148829350
20
1088.786330577898
30
0.0
0
VERTEX
5
793
100
AcDbEntity
8
0-0
6
DASHED
62
  7
100
AcDbVertex
100
AcDb2dVertex
10
2038.393461350262
20
1091.071347144055
30
0.0
0
VERTEX
5
794
100
AcDbEntity
8
0-0
6
DASHED
62
  7
100
AcDbVertex
100
AcDb2dVertex
10
2038.471131038798
20
1093.350542892988
30
0.0
0
VERTEX
5
795
100
AcDbEntity
8
0-0
6
DASHED
62
  7
100
AcDbVertex
100
AcDb2dVertex
10
2038.582170550137
20
1095.623544216405
30
0.0
0
VERTEX
5
796
100
AcDbEntity
8
0-0
6
DASHED
62
  7
100
AcDbVertex
100
AcDb2dVertex
10
2038.728592539450
20
1097.889977506010
30
0.0
0
VERTEX
5
797
100
AcDbEntity
8
0-0
6
DASHED
62
  7
100
AcDbVertex
100
AcDb2dVertex
10
2038.912409661915
20
1100.149469153510
30
0.0
0
VERTEX
5
798
100
AcDbEntity
8
0-0
6
DASHED
62
  7
100
AcDbVertex
100
AcDb2dVertex
10
2039.135634572705
20
1102.401645550611
30
0.0
0
VERTEX
5
799
100
AcDbEntity
8
0-0
6
DASHED
62
  7
100
AcDbVertex
100
AcDb2dVertex
10
2039.400279926996
20
1104.646133089017
30
0.0
0
VERTEX
5
79a
100
AcDbEntity
8
0-0
6
DASHED
62
  7
100
AcDbVertex
100
AcDb2dVertex
10
2039.708358379962
20
1106.882558160436
30
0.0
0
VERTEX
5
79b
100
AcDbEntity
8
0-0
6
DASHED
62
  7
100
AcDbVertex
100
AcDb2dVertex
10
2040.061882586779
20
1109.110547156573
30
0.0
0
VERTEX
5
79c
100
AcDbEntity
8
0-0
6
DASHED
62
  7
100
AcDbVertex
100
AcDb2dVertex
10
2040.462865202622
20
1111.329726469133
30
0.0
0
VERTEX
5
79d
100
AcDbEntity
8
0-0
6
DASHED
62
  7
100
AcDbVertex
100
AcDb2dVertex
10
2040.913318882665
20
1113.539722489823
30
0.0
0
VERTEX
5
79e
100
AcDbEntity
8
0-0
6
DASHED
62
  7
100
AcDbVertex
100
AcDb2dVertex
10
2041.415256282084
20
1115.740161610348
30
0.0
0
VERTEX
5
79f
100
AcDbEntity
8
0-0
6
DASHED
62
  7
100
AcDbVertex
100
AcDb2dVertex
10
2041.970690056053
20
1117.930670222415
30
0.0
0
VERTEX
5
7a0
100
AcDbEntity
8
0-0
6
DASHED
62
  7
100
AcDbVertex
100
AcDb2dVertex
10
2042.581632859748
20
1120.110874717729
30
0.0
0
VERTEX
5
7a1
100
AcDbEntity
8
0-0
6
DASHED
62
  7
100
AcDbVertex
100
AcDb2dVertex
10
2042.962207014107
20
1121.370524757619
30
0.0
0
VERTEX
5
7a2
100
AcDbEntity
8
0-0
6
DASHED
62
  7
100
AcDbVertex
100
AcDb2dVertex
10
2043.172326009619
20
1122.038054477973
30
0.0
0
VERTEX
5
7a3
100
AcDbEntity
8
0-0
6
DASHED
62
  7
100
AcDbVertex
100
AcDb2dVertex
10
2043.547609137305
20
1123.186352573375
30
0.0
0
VERTEX
5
7a4
100
AcDbEntity
8
0-0
6
DASHED
62
  7
100
AcDbVertex
100
AcDb2dVertex
10
2043.939253819145
20
1124.331056922139
30
0.0
0
VERTEX
5
7a5
100
AcDbEntity
8
0-0
6
DASHED
62
  7
100
AcDbVertex
100
AcDb2dVertex
10
2044.347137344344
20
1125.471838050775
30
0.0
0
VERTEX
5
7a6
100
AcDbEntity
8
0-0
6
DASHED
62
  7
100
AcDbVertex
100
AcDb2dVertex
10
2044.771137002110
20
1126.608366485791
30
0.0
0
VERTEX
5
7a7
100
AcDbEntity
8
0-0
6
DASHED
62
  7
100
AcDbVertex
100
AcDb2dVertex
10
2045.211130081647
20
1127.740312753695
30
0.0
0
VERTEX
5
7a8
100
AcDbEntity
8
0-0
6
DASHED
62
  7
100
AcDbVertex
100
AcDb2dVertex
10
2045.666993872161
20
1128.867347380998
30
0.0
0
VERTEX
5
7a9
100
AcDbEntity
8
0-0
6
DASHED
62
  7
100
AcDbVertex
100
AcDb2dVertex
10
2046.138605662860
20
1129.989140894207
30
0.0
0
VERTEX
5
7aa
100
AcDbEntity
8
0-0
6
DASHED
62
  7
100
AcDbVertex
100
AcDb2dVertex
10
2046.625842742948
20
1131.105363819832
30
0.0
0
VERTEX
5
7ab
100
AcDbEntity
8
0-0
6
DASHED
62
  7
100
AcDbVertex
100
AcDb2dVertex
10
2047.128582401633
20
1132.215686684380
30
0.0
0
VERTEX
5
7ac
100
AcDbEntity
8
0-0
6
DASHED
62
  7
100
AcDbVertex
100
AcDb2dVertex
10
2047.646701928120
20
1133.319780014362
30
0.0
0
VERTEX
5
7ad
100
AcDbEntity
8
0-0
6
DASHED
62
  7
100
AcDbVertex
100
AcDb2dVertex
10
2048.180078611615
20
1134.417314336285
30
0.0
0
VERTEX
5
7ae
100
AcDbEntity
8
0-0
6
DASHED
62
  7
100
AcDbVertex
100
AcDb2dVertex
10
2048.728589741324
20
1135.507960176658
30
0.0
0
VERTEX
5
7af
100
AcDbEntity
8
0-0
6
DASHED
62
  7
100
AcDbVertex
100
AcDb2dVertex
10
2049.292112606454
20
1136.591388061991
30
0.0
0
VERTEX
5
7b0
100
AcDbEntity
8
0-0
6
DASHED
62
  7
100
AcDbVertex
100
AcDb2dVertex
10
2049.870524496211
20
1137.667268518791
30
0.0
0
VERTEX
5
7b1
100
AcDbEntity
8
0-0
6
DASHED
62
  7
100
AcDbVertex
100
AcDb2dVertex
10
2050.463702699800
20
1138.735272073569
30
0.0
0
VERTEX
5
7b2
100
AcDbEntity
8
0-0
6
DASHED
62
  7
100
AcDbVertex
100
AcDb2dVertex
10
2051.071524506428
20
1139.795069252831
30
0.0
0
VERTEX
5
7b3
100
AcDbEntity
8
0-0
6
DASHED
62
  7
100
AcDbVertex
100
AcDb2dVertex
10
2051.693867205300
20
1140.846330583089
30
0.0
0
VERTEX
5
7b4
100
AcDbEntity
8
0-0
6
DASHED
62
  7
100
AcDbVertex
100
AcDb2dVertex
10
2052.330608085623
20
1141.888726590848
30
0.0
0
VERTEX
5
7b5
100
AcDbEntity
8
0-0
6
DASHED
62
  7
100
AcDbVertex
100
AcDb2dVertex
10
2052.981624436604
20
1142.921927802620
30
0.0
0
VERTEX
5
7b6
100
AcDbEntity
8
0-0
6
DASHED
62
  7
100
AcDbVertex
100
AcDb2dVertex
10
2053.646793547447
20
1143.945604744913
30
0.0
0
VERTEX
5
7b7
100
AcDbEntity
8
0-0
6
DASHED
62
  7
100
AcDbVertex
100
AcDb2dVertex
10
2054.325992707359
20
1144.959427944234
30
0.0
0
VERTEX
5
7b8
100
AcDbEntity
8
0-0
6
DASHED
62
  7
100
AcDbVertex
100
AcDb2dVertex
10
2055.019099205547
20
1145.963067927094
30
0.0
0
VERTEX
5
7b9
100
AcDbEntity
8
0-0
6
DASHED
62
  7
100
AcDbVertex
100
AcDb2dVertex
10
2055.725990331216
20
1146.956195220001
30
0.0
0
VERTEX
5
7ba
100
AcDbEntity
8
0-0
6
DASHED
62
  7
100
AcDbVertex
100
AcDb2dVertex
10
2056.446543373573
20
1147.938480349464
30
0.0
0
VERTEX
5
7bb
100
AcDbEntity
8
0-0
6
DASHED
62
  7
100
AcDbVertex
100
AcDb2dVertex
10
2057.180635621822
20
1148.909593841991
30
0.0
0
VERTEX
5
7bc
100
AcDbEntity
8
0-0
6
DASHED
62
  7
100
AcDbVertex
100
AcDb2dVertex
10
2057.928144365172
20
1149.869206224091
30
0.0
0
VERTEX
5
7bd
100
AcDbEntity
8
0-0
6
DASHED
62
  7
100
AcDbVertex
100
AcDb2dVertex
10
2058.688946892827
20
1150.816988022273
30
0.0
0
VERTEX
5
7be
100
AcDbEntity
8
0-0
6
DASHED
62
  7
100
AcDbVertex
100
AcDb2dVertex
10
2059.462920493994
20
1151.752609763046
30
0.0
0
VERTEX
5
7bf
100
AcDbEntity
8
0-0
6
DASHED
62
  7
100
AcDbVertex
100
AcDb2dVertex
10
2059.917811814120
20
1152.289568804701
30
0.0
0
VERTEX
5
7c0
100
AcDbEntity
8
0-0
6
DASHED
62
  7
100
AcDbVertex
100
AcDb2dVertex
10
2060.386367275350
20
1152.833011873511
30
0.0
0
VERTEX
5
7c1
100
AcDbEntity
8
0-0
6
DASHED
62
  7
100
AcDbVertex
100
AcDb2dVertex
10
2061.204443841826
20
1153.759984802195
30
0.0
0
VERTEX
5
7c2
100
AcDbEntity
8
0-0
6
DASHED
62
  7
100
AcDbVertex
100
AcDb2dVertex
10
2062.034782795110
20
1154.674950114934
30
0.0
0
VERTEX
5
7c3
100
AcDbEntity
8
0-0
6
DASHED
62
  7
100
AcDbVertex
100
AcDb2dVertex
10
2062.876596620630
20
1155.578661216225
30
0.0
0
VERTEX
5
7c4
100
AcDbEntity
8
0-0
6
DASHED
62
  7
100
AcDbVertex
100
AcDb2dVertex
10
2063.729097803817
20
1156.471871510562
30
0.0
0
VERTEX
5
7c5
100
AcDbEntity
8
0-0
6
DASHED
62
  7
100
AcDbVertex
100
AcDb2dVertex
10
2064.591498830101
20
1157.355334402441
30
0.0
0
VERTEX
5
7c6
100
AcDbEntity
8
0-0
6
DASHED
62
  7
100
AcDbVertex
100
AcDb2dVertex
10
2065.463012184911
20
1158.229803296357
30
0.0
0
VERTEX
5
7c7
100
AcDbEntity
8
0-0
6
DASHED
62
  7
100
AcDbVertex
100
AcDb2dVertex
10
2066.342850353678
20
1159.096031596806
30
0.0
0
VERTEX
5
7c8
100
AcDbEntity
8
0-0
6
DASHED
62
  7
100
AcDbVertex
100
AcDb2dVertex
10
2067.230225821830
20
1159.954772708281
30
0.0
0
VERTEX
5
7c9
100
AcDbEntity
8
0-0
6
DASHED
62
  7
100
AcDbVertex
100
AcDb2dVertex
10
2068.124351074798
20
1160.806780035281
30
0.0
0
VERTEX
5
7ca
100
AcDbEntity
8
0-0
6
DASHED
62
  7
100
AcDbVertex
100
AcDb2dVertex
10
2069.024438598011
20
1161.652806982298
30
0.0
0
VERTEX
5
7cb
100
AcDbEntity
8
0-0
6
DASHED
62
  7
100
AcDbVertex
100
AcDb2dVertex
10
2069.929700876901
20
1162.493606953829
30
0.0
0
VERTEX
5
7cc
100
AcDbEntity
8
0-0
6
DASHED
62
  7
100
AcDbVertex
100
AcDb2dVertex
10
2070.839350396895
20
1163.329933354370
30
0.0
0
VERTEX
5
7cd
100
AcDbEntity
8
0-0
6
DASHED
62
  7
100
AcDbVertex
100
AcDb2dVertex
10
2071.752599643424
20
1164.162539588415
30
0.0
0
VERTEX
5
7ce
100
AcDbEntity
8
0-0
6
DASHED
62
  7
100
AcDbVertex
100
AcDb2dVertex
10
2072.668661101919
20
1164.992179060459
30
0.0
0
VERTEX
5
7cf
100
AcDbEntity
8
0-0
6
DASHED
62
  7
100
AcDbVertex
100
AcDb2dVertex
10
2073.586747257808
20
1165.819605174998
30
0.0
0
VERTEX
5
7d0
100
AcDbEntity
8
0-0
6
DASHED
62
  7
100
AcDbVertex
100
AcDb2dVertex
10
2074.506070596521
20
1166.645571336528
30
0.0
0
VERTEX
5
7d1
100
AcDbEntity
8
0-0
6
DASHED
62
  7
100
AcDbVertex
100
AcDb2dVertex
10
2075.425843603488
20
1167.470830949544
30
0.0
0
VERTEX
5
7d2
100
AcDbEntity
8
0-0
6
DASHED
62
  7
100
AcDbVertex
100
AcDb2dVertex
10
2076.345278764140
20
1168.296137418540
30
0.0
0
VERTEX
5
7d3
100
AcDbEntity
8
0-0
6
DASHED
62
  7
100
AcDbVertex
100
AcDb2dVertex
10
2077.263588563906
20
1169.122244148013
30
0.0
0
VERTEX
5
7d4
100
AcDbEntity
8
0-0
6
DASHED
62
  7
100
AcDbVertex
100
AcDb2dVertex
10
2078.179985488215
20
1169.949904542458
30
0.0
0
VERTEX
5
7d5
100
AcDbEntity
8
0-0
6
DASHED
62
  7
100
AcDbVertex
100
AcDb2dVertex
10
2079.093682022498
20
1170.779872006369
30
0.0
0
VERTEX
5
7d6
100
AcDbEntity
8
0-0
6
DASHED
62
  7
100
AcDbVertex
100
AcDb2dVertex
10
2080.003890652184
20
1171.612899944243
30
0.0
0
VERTEX
5
7d7
100
AcDbEntity
8
0-0
6
DASHED
62
  7
100
AcDbVertex
100
AcDb2dVertex
10
2080.909823862703
20
1172.449741760574
30
0.0
0
VERTEX
5
7d8
100
AcDbEntity
8
0-0
6
DASHED
62
  7
100
AcDbVertex
100
AcDb2dVertex
10
2081.810694139485
20
1173.291150859858
30
0.0
0
VERTEX
5
7d9
100
AcDbEntity
8
0-0
6
DASHED
62
  7
100
AcDbVertex
100
AcDb2dVertex
10
2082.705713967961
20
1174.137880646591
30
0.0
0
VERTEX
5
7da
100
AcDbEntity
8
0-0
6
DASHED
62
  7
100
AcDbVertex
100
AcDb2dVertex
10
2083.594095833558
20
1174.990684525267
30
0.0
0
VERTEX
5
7db
100
AcDbEntity
8
0-0
6
DASHED
62
  7
100
AcDbVertex
100
AcDb2dVertex
10
2084.475052221708
20
1175.850315900382
30
0.0
0
VERTEX
5
7dc
100
AcDbEntity
8
0-0
6
DASHED
62
  7
100
AcDbVertex
100
AcDb2dVertex
10
2085.347795617840
20
1176.717528176431
30
0.0
0
VERTEX
5
7dd
100
AcDbEntity
8
0-0
6
DASHED
62
  7
100
AcDbVertex
100
AcDb2dVertex
10
2085.849913272963
20
1177.224281745896
30
0.0
0
VERTEX
5
7de
100
AcDbEntity
8
0-0
6
DASHED
62
  7
100
AcDbVertex
100
AcDb2dVertex
10
2086.411446038121
20
1177.798289567850
30
0.0
0
SEQEND
5
7df
100
AcDbEntity
8
0-0
0
LINE
5
7e0
100
AcDbEntity
8
0-0
6
CONTINUOUS
62
7
100
AcDbLine
10
3331.329859968671
20
1025.358819011379
30
0.0
11
3341.130211597202
21
1025.358819011379
31
0.0
0
LINE
5
7e1
100
AcDbEntity
8
0-0
6
CONTINUOUS
62
7
100
AcDbLine
10
3318.413639359233
20
1033.899050996237
30
0.0
11
3318.413639359233
21
1008.899050996237
31
0.0
0
LINE
5
7e2
100
AcDbEntity
8
0-0
6
CONTINUOUS
62
7
100
AcDbLine
10
3254.605881157876
20
1037.358819011378
30
0.0
11
3254.605881157876
21
1005.358819011378
31
0.0
0
ARC
5
7e3
100
AcDbEntity
8
0-0
6
CONTINUOUS
62
7
100
AcDbCircle
10
3242.605881157876
20
1005.358819011378
30
0.0
40
12.000000000000
100
AcDbArc
50
270.000000000000
51
360.000000000000
0
ARC
5
7e4
100
AcDbEntity
8
0-0
6
CONTINUOUS
62
7
100
AcDbCircle
10
3242.605881157876
20
1037.358819011378
30
0.0
40
12.000000000000
100
AcDbArc
50
0.000000000000
51
90.000000000000
0
LINE
5
7e5
100
AcDbEntity
8
0-0
6
CONTINUOUS
62
7
100
AcDbLine
10
3242.888584327833
20
1049.110525213937
30
0.0
11
3242.888584327832
21
993.504837229075
31
0.0
0
LINE
5
7e6
100
AcDbEntity
8
0-0
6
CONTINUOUS
62
7
100
AcDbLine
10
3289.121173576103
20
1008.899050996237
30
0.0
11
3289.121173576103
21
1033.899050996237
31
0.0
0
LINE
5
7e7
100
AcDbEntity
8
0-0
6
CONTINUOUS
62
7
100
AcDbLine
10
3281.121173576103
20
1033.899050996237
30
0.0
11
3281.121173576103
21
1008.899050996237
31
0.0
0
ARC
5
7e8
100
AcDbEntity
8
0-0
6
CONTINUOUS
62
7
100
AcDbCircle
10
3285.160851503189
20
1021.349791249311
30
0.0
40
13.134414676531
100
AcDbArc
50
72.702435514475
51
107.723236616886
0
ARC
5
7e9
100
AcDbEntity
8
0-0
6
CONTINUOUS
62
7
100
AcDbCircle
10
3285.160851503189
20
1021.349791249311
30
0.0
40
13.134414676531
100
AcDbArc
50
251.982390785310
51
287.478114533726
0
CIRCLE
5
7ea
100
AcDbEntity
8
0-0
6
CONTINUOUS
62
7
100
AcDbCircle
10
3285.148133797553
20
1021.366249456604
30
0.0
40
3.389457447208
0
ARC
5
7eb
100
AcDbEntity
8
0-0
6
CONTINUOUS
62
7
100
AcDbCircle
10
3285.144870256819
20
1008.697655569069
30
0.0
40
3.389457447208
100
AcDbArc
50
0.021929785002
51
180.028490417393
0
ARC
5
7ec
100
AcDbEntity
8
0-0
6
CONTINUOUS
62
7
100
AcDbCircle
10
3285.158634509473
20
1034.007016411846
30
0.0
40
3.389457447208
100
AcDbArc
50
180.232247779006
51
359.660169619824
0
LINE
5
7ed
100
AcDbEntity
8
0-0
6
CONTINUOUS
62
7
100
AcDbLine
10
3255.083174672893
20
1013.358819011378
30
0.0
11
3280.982752235711
21
1013.358819011378
31
0.0
0
LINE
5
7ee
100
AcDbEntity
8
0-0
6
CONTINUOUS
62
7
100
AcDbLine
10
3254.834945292237
20
1029.358819011378
30
0.0
11
3281.048631899863
21
1029.358819011378
31
0.0
0
ARC
5
7ef
100
AcDbEntity
8
0-0
6
CONTINUOUS
62
7
100
AcDbCircle
10
3350.087343058624
20
1025.678819011378
30
0.0
40
3.240000000000
100
AcDbArc
50
0.000000000000
51
90.000000000000
0
ARC
5
7f0
100
AcDbEntity
8
0-0
6
CONTINUOUS
62
7
100
AcDbCircle
10
3350.087343058624
20
1017.038819011379
30
0.0
40
3.240000000000
100
AcDbArc
50
270.000000000000
51
360.000000000000
0
LINE
5
7f1
100
AcDbEntity
8
0-0
6
CONTINUOUS
62
7
100
AcDbLine
10
3353.327343058626
20
1025.678819011378
30
0.0
11
3353.327343058626
21
1017.038819011379
31
0.0
0
ARC
5
7f2
100
AcDbEntity
8
0-0
6
CONTINUOUS
62
7
100
AcDbCircle
10
3344.057977859713
20
999.467865924848
30
0.0
40
3.000000000000
100
AcDbArc
50
180.000000000000
51
270.000000000000
0
LINE
5
7f3
100
AcDbEntity
8
0-0
6
CONTINUOUS
62
7
100
AcDbLine
10
3347.057977859713
20
996.467865924848
30
0.0
11
3344.057977859713
21
996.467865924848
31
0.0
0
ARC
5
7f4
100
AcDbEntity
8
0-0
6
CONTINUOUS
62
7
100
AcDbCircle
10
3347.057977859713
20
999.467865924848
30
0.0
40
3.000000000000
100
AcDbArc
50
270.000000000000
51
360.000000000000
0
LINE
5
7f5
100
AcDbEntity
8
0-0
6
CONTINUOUS
62
7
100
AcDbLine
10
3341.057977859713
20
1043.467865924848
30
0.0
11
3341.057977859713
21
999.467865924848
31
0.0
0
ARC
5
7f6
100
AcDbEntity
8
0-0
6
CONTINUOUS
62
7
100
AcDbCircle
10
3344.057977859713
20
1043.467865924848
30
0.0
40
3.000000000000
100
AcDbArc
50
90.000000000000
51
180.000000000000
0
LINE
5
7f7
100
AcDbEntity
8
0-0
6
CONTINUOUS
62
7
100
AcDbLine
10
3347.057977859713
20
1046.467865924848
30
0.0
11
3344.057977859713
21
1046.467865924848
31
0.0
0
LINE
5
7f8
100
AcDbEntity
8
0-0
6
CONTINUOUS
62
7
100
AcDbLine
10
3350.057977859713
20
1043.467865924848
30
0.0
11
3350.057977859713
21
999.467865924848
31
0.0
0
ARC
5
7f9
100
AcDbEntity
8
0-0
6
CONTINUOUS
62
7
100
AcDbCircle
10
3347.057977859713
20
1043.467865924848
30
0.0
40
3.000000000000
100
AcDbArc
50
0.000000000000
51
90.000000000000
0
LINE
5
7fa
100
AcDbEntity
8
0-0
6
CONTINUOUS
62
7
100
AcDbLine
10
3293.477587237128
20
1056.365205964437
30
0.0
11
3313.477587237128
21
1056.365205964437
31
0.0
0
LINE
5
7fb
100
AcDbEntity
8
0-0
6
CONTINUOUS
62
7
100
AcDbLine
10
3294.592516550387
20
1042.365205964437
30
0.0
11
3312.362657923866
21
1042.365205964437
31
0.0
0
LINE
5
7fc
100
AcDbEntity
8
0-0
6
CONTINUOUS
62
7
100
AcDbLine
10
3293.477587237128
20
1044.365205964437
30
0.0
11
3313.477587237128
21
1044.365205964437
31
0.0
0
ARC
5
7fd
100
AcDbEntity
8
0-0
6
CONTINUOUS
62
7
100
AcDbCircle
10
3285.950401519669
20
1050.365205964437
30
0.0
40
9.625929816131
100
AcDbArc
50
321.441277284353
51
398.558722715647
0
ARC
5
7fe
100
AcDbEntity
8
0-0
6
CONTINUOUS
62
7
100
AcDbCircle
10
3301.135370163880
20
1050.365205964437
30
0.0
40
6.440961171922
100
AcDbArc
50
291.324157753203
51
428.675842246797
0
ARC
5
7ff
100
AcDbEntity
8
0-0
6
CONTINUOUS
62
7
100
AcDbCircle
10
3305.819804310373
20
1050.365205964437
30
0.0
40
6.440961171922
100
AcDbArc
50
111.324157753203
51
248.675842246797
0
ARC
5
800
100
AcDbEntity
8
0-0
6
CONTINUOUS
62
7
100
AcDbCircle
10
3301.004772954584
20
1050.365205964437
30
0.0
40
9.625929816131
100
AcDbArc
50
141.441277284353
51
218.558722715647
0
ARC
5
801
100
AcDbEntity
8
0-0
6
CONTINUOUS
62
7
100
AcDbCircle
10
3321.004772954584
20
1050.365205964437
30
0.0
40
9.625929816131
100
AcDbArc
50
141.441277284353
51
218.558722715647
0
ARC
5
802
100
AcDbEntity
8
0-0
6
CONTINUOUS
62
7
100
AcDbCircle
10
3305.950401519669
20
1050.365205964437
30
0.0
40
9.625929816131
100
AcDbArc
50
321.441277284353
51
398.558722715647
0
POLYLINE
5
803
100
AcDbEntity
8
0-0
6
CONTINUOUS
62
  7
100
AcDb2dPolyline
66
1
10
0.0
20
0.0
30
0.0
70
0
0
VERTEX
5
804
100
AcDbEntity
8
0-0
6
CONTINUOUS
62
  7
100
AcDbVertex
100
AcDb2dVertex
10
3289.155715642701
20
1033.813381750640
30
0.0
0
VERTEX
5
805
100
AcDbEntity
8
0-0
6
CONTINUOUS
62
  7
100
AcDbVertex
100
AcDb2dVertex
10
3289.305058389915
20
1033.966157188445
30
0.0
0
VERTEX
5
806
100
AcDbEntity
8
0-0
6
CONTINUOUS
62
  7
100
AcDbVertex
100
AcDb2dVertex
10
3289.562263812757
20
1034.229655287446
30
0.0
0
VERTEX
5
807
100
AcDbEntity
8
0-0
6
CONTINUOUS
62
  7
100
AcDbVertex
100
AcDb2dVertex
10
3289.818685701282
20
1034.493409419091
30
0.0
0
VERTEX
5
808
100
AcDbEntity
8
0-0
6
CONTINUOUS
62
  7
100
AcDbVertex
100
AcDb2dVertex
10
3290.073828147695
20
1034.757581629356
30
0.0
0
VERTEX
5
809
100
AcDbEntity
8
0-0
6
CONTINUOUS
62
  7
100
AcDbVertex
100
AcDb2dVertex
10
3290.327195244201
20
1035.022333964218
30
0.0
0
VERTEX
5
80a
100
AcDbEntity
8
0-0
6
CONTINUOUS
62
  7
100
AcDbVertex
100
AcDb2dVertex
10
3290.578291083004
20
1035.287828469652
30
0.0
0
VERTEX
5
80b
100
AcDbEntity
8
0-0
6
CONTINUOUS
62
  7
100
AcDbVertex
100
AcDb2dVertex
10
3290.826619756310
20
1035.554227191638
30
0.0
0
VERTEX
5
80c
100
AcDbEntity
8
0-0
6
CONTINUOUS
62
  7
100
AcDbVertex
100
AcDb2dVertex
10
3291.071685356321
20
1035.821692176150
30
0.0
0
VERTEX
5
80d
100
AcDbEntity
8
0-0
6
CONTINUOUS
62
  7
100
AcDbVertex
100
AcDb2dVertex
10
3291.312991975245
20
1036.090385469166
30
0.0
0
VERTEX
5
80e
100
AcDbEntity
8
0-0
6
CONTINUOUS
62
  7
100
AcDbVertex
100
AcDb2dVertex
10
3291.550043705283
20
1036.360469116663
30
0.0
0
VERTEX
5
80f
100
AcDbEntity
8
0-0
6
CONTINUOUS
62
  7
100
AcDbVertex
100
AcDb2dVertex
10
3291.782344638643
20
1036.632105164618
30
0.0
0
VERTEX
5
810
100
AcDbEntity
8
0-0
6
CONTINUOUS
62
  7
100
AcDbVertex
100
AcDb2dVertex
10
3292.009398867528
20
1036.905455659005
30
0.0
0
VERTEX
5
811
100
AcDbEntity
8
0-0
6
CONTINUOUS
62
  7
100
AcDbVertex
100
AcDb2dVertex
10
3292.230710484142
20
1037.180682645804
30
0.0
0
VERTEX
5
812
100
AcDbEntity
8
0-0
6
CONTINUOUS
62
  7
100
AcDbVertex
100
AcDb2dVertex
10
3292.445783580691
20
1037.457948170990
30
0.0
0
VERTEX
5
813
100
AcDbEntity
8
0-0
6
CONTINUOUS
62
  7
100
AcDbVertex
100
AcDb2dVertex
10
3292.654122249379
20
1037.737414280541
30
0.0
0
VERTEX
5
814
100
AcDbEntity
8
0-0
6
CONTINUOUS
62
  7
100
AcDbVertex
100
AcDb2dVertex
10
3292.855230582411
20
1038.019243020433
30
0.0
0
VERTEX
5
815
100
AcDbEntity
8
0-0
6
CONTINUOUS
62
  7
100
AcDbVertex
100
AcDb2dVertex
10
3293.048612671992
20
1038.303596436643
30
0.0
0
VERTEX
5
816
100
AcDbEntity
8
0-0
6
CONTINUOUS
62
  7
100
AcDbVertex
100
AcDb2dVertex
10
3293.233772610325
20
1038.590636575147
30
0.0
0
VERTEX
5
817
100
AcDbEntity
8
0-0
6
CONTINUOUS
62
  7
100
AcDbVertex
100
AcDb2dVertex
10
3293.410214489616
20
1038.880525481922
30
0.0
0
VERTEX
5
818
100
AcDbEntity
8
0-0
6
CONTINUOUS
62
  7
100
AcDbVertex
100
AcDb2dVertex
10
3293.577442402070
20
1039.173425202945
30
0.0
0
VERTEX
5
819
100
AcDbEntity
8
0-0
6
CONTINUOUS
62
  7
100
AcDbVertex
100
AcDb2dVertex
10
3293.734960439890
20
1039.469497784193
30
0.0
0
VERTEX
5
81a
100
AcDbEntity
8
0-0
6
CONTINUOUS
62
  7
100
AcDbVertex
100
AcDb2dVertex
10
3293.882272695283
20
1039.768905271643
30
0.0
0
VERTEX
5
81b
100
AcDbEntity
8
0-0
6
CONTINUOUS
62
  7
100
AcDbVertex
100
AcDb2dVertex
10
3294.018883260451
20
1040.071809711271
30
0.0
0
VERTEX
5
81c
100
AcDbEntity
8
0-0
6
CONTINUOUS
62
  7
100
AcDbVertex
100
AcDb2dVertex
10
3294.144296227601
20
1040.378373149054
30
0.0
0
VERTEX
5
81d
100
AcDbEntity
8
0-0
6
CONTINUOUS
62
  7
100
AcDbVertex
100
AcDb2dVertex
10
3294.258015688936
20
1040.688757630969
30
0.0
0
VERTEX
5
81e
100
AcDbEntity
8
0-0
6
CONTINUOUS
62
  7
100
AcDbVertex
100
AcDb2dVertex
10
3294.359545736661
20
1041.003125202992
30
0.0
0
VERTEX
5
81f
100
AcDbEntity
8
0-0
6
CONTINUOUS
62
  7
100
AcDbVertex
100
AcDb2dVertex
10
3294.448390462982
20
1041.321637911101
30
0.0
0
VERTEX
5
820
100
AcDbEntity
8
0-0
6
CONTINUOUS
62
  7
100
AcDbVertex
100
AcDb2dVertex
10
3294.524053960102
20
1041.644457801272
30
0.0
0
VERTEX
5
821
100
AcDbEntity
8
0-0
6
CONTINUOUS
62
  7
100
AcDbVertex
100
AcDb2dVertex
10
3294.586040320226
20
1041.971746919482
30
0.0
0
VERTEX
5
822
100
AcDbEntity
8
0-0
6
CONTINUOUS
62
  7
100
AcDbVertex
100
AcDb2dVertex
10
3294.615530131468
20
1042.163686262872
30
0.0
0
VERTEX
5
823
100
AcDbEntity
8
0-0
6
CONTINUOUS
62
  7
100
AcDbVertex
100
AcDb2dVertex
10
3294.620956763997
20
1042.203066579231
30
0.0
0
VERTEX
5
824
100
AcDbEntity
8
0-0
6
CONTINUOUS
62
  7
100
AcDbVertex
100
AcDb2dVertex
10
3294.629848622535
20
1042.271115428142
30
0.0
0
VERTEX
5
825
100
AcDbEntity
8
0-0
6
CONTINUOUS
62
  7
100
AcDbVertex
100
AcDb2dVertex
10
3294.638170403515
20
1042.339350559212
30
0.0
0
VERTEX
5
826
100
AcDbEntity
8
0-0
6
CONTINUOUS
62
  7
100
AcDbVertex
100
AcDb2dVertex
10
3294.645942776899
20
1042.407765218193
30
0.0
0
VERTEX
5
827
100
AcDbEntity
8
0-0
6
CONTINUOUS
62
  7
100
AcDbVertex
100
AcDb2dVertex
10
3294.653186412649
20
1042.476352650837
30
0.0
0
VERTEX
5
828
100
AcDbEntity
8
0-0
6
CONTINUOUS
62
  7
100
AcDbVertex
100
AcDb2dVertex
10
3294.659921980728
20
1042.545106102896
30
0.0
0
VERTEX
5
829
100
AcDbEntity
8
0-0
6
CONTINUOUS
62
  7
100
AcDbVertex
100
AcDb2dVertex
10
3294.666170151097
20
1042.614018820122
30
0.0
0
VERTEX
5
82a
100
AcDbEntity
8
0-0
6
CONTINUOUS
62
  7
100
AcDbVertex
100
AcDb2dVertex
10
3294.671951593719
20
1042.683084048267
30
0.0
0
VERTEX
5
82b
100
AcDbEntity
8
0-0
6
CONTINUOUS
62
  7
100
AcDbVertex
100
AcDb2dVertex
10
3294.677286978556
20
1042.752295033084
30
0.0
0
VERTEX
5
82c
100
AcDbEntity
8
0-0
6
CONTINUOUS
62
  7
100
AcDbVertex
100
AcDb2dVertex
10
3294.682196975571
20
1042.821645020323
30
0.0
0
VERTEX
5
82d
100
AcDbEntity
8
0-0
6
CONTINUOUS
62
  7
100
AcDbVertex
100
AcDb2dVertex
10
3294.686702254726
20
1042.891127255738
30
0.0
0
VERTEX
5
82e
100
AcDbEntity
8
0-0
6
CONTINUOUS
62
  7
100
AcDbVertex
100
AcDb2dVertex
10
3294.690823485983
20
1042.960734985079
30
0.0
0
VERTEX
5
82f
100
AcDbEntity
8
0-0
6
CONTINUOUS
62
  7
100
AcDbVertex
100
AcDb2dVertex
10
3294.694581339303
20
1043.030461454100
30
0.0
0
VERTEX
5
830
100
AcDbEntity
8
0-0
6
CONTINUOUS
62
  7
100
AcDbVertex
100
AcDb2dVertex
10
3294.697996484650
20
1043.100299908553
30
0.0
0
VERTEX
5
831
100
AcDbEntity
8
0-0
6
CONTINUOUS
62
  7
100
AcDbVertex
100
AcDb2dVertex
10
3294.701089591986
20
1043.170243594189
30
0.0
0
VERTEX
5
832
100
AcDbEntity
8
0-0
6
CONTINUOUS
62
  7
100
AcDbVertex
100
AcDb2dVertex
10
3294.703881331272
20
1043.240285756760
30
0.0
0
VERTEX
5
833
100
AcDbEntity
8
0-0
6
CONTINUOUS
62
  7
100
AcDbVertex
100
AcDb2dVertex
10
3294.706392372471
20
1043.310419642018
30
0.0
0
VERTEX
5
834
100
AcDbEntity
8
0-0
6
CONTINUOUS
62
  7
100
AcDbVertex
100
AcDb2dVertex
10
3294.708643385545
20
1043.380638495716
30
0.0
0
VERTEX
5
835
100
AcDbEntity
8
0-0
6
CONTINUOUS
62
  7
100
AcDbVertex
100
AcDb2dVertex
10
3294.710655040457
20
1043.450935563605
30
0.0
0
VERTEX
5
836
100
AcDbEntity
8
0-0
6
CONTINUOUS
62
  7
100
AcDbVertex
100
AcDb2dVertex
10
3294.712448007169
20
1043.521304091437
30
0.0
0
VERTEX
5
837
100
AcDbEntity
8
0-0
6
CONTINUOUS
62
  7
100
AcDbVertex
100
AcDb2dVertex
10
3294.714042955642
20
1043.591737324965
30
0.0
0
VERTEX
5
838
100
AcDbEntity
8
0-0
6
CONTINUOUS
62
  7
100
AcDbVertex
100
AcDb2dVertex
10
3294.715460555840
20
1043.662228509941
30
0.0
0
VERTEX
5
839
100
AcDbEntity
8
0-0
6
CONTINUOUS
62
  7
100
AcDbVertex
100
AcDb2dVertex
10
3294.716721477724
20
1043.732770892117
30
0.0
0
VERTEX
5
83a
100
AcDbEntity
8
0-0
6
CONTINUOUS
62
  7
100
AcDbVertex
100
AcDb2dVertex
10
3294.717846391256
20
1043.803357717244
30
0.0
0
VERTEX
5
83b
100
AcDbEntity
8
0-0
6
CONTINUOUS
62
  7
100
AcDbVertex
100
AcDb2dVertex
10
3294.718855966400
20
1043.873982231075
30
0.0
0
VERTEX
5
83c
100
AcDbEntity
8
0-0
6
CONTINUOUS
62
  7
100
AcDbVertex
100
AcDb2dVertex
10
3294.719770873116
20
1043.944637679361
30
0.0
0
VERTEX
5
83d
100
AcDbEntity
8
0-0
6
CONTINUOUS
62
  7
100
AcDbVertex
100
AcDb2dVertex
10
3294.720611781367
20
1044.015317307855
30
0.0
0
VERTEX
5
83e
100
AcDbEntity
8
0-0
6
CONTINUOUS
62
  7
100
AcDbVertex
100
AcDb2dVertex
10
3294.721399361116
20
1044.086014362308
30
0.0
0
VERTEX
5
83f
100
AcDbEntity
8
0-0
6
CONTINUOUS
62
  7
100
AcDbVertex
100
AcDb2dVertex
10
3294.722154282325
20
1044.156722088474
30
0.0
0
VERTEX
5
840
100
AcDbEntity
8
0-0
6
CONTINUOUS
62
  7
100
AcDbVertex
100
AcDb2dVertex
10
3294.722585317523
20
1044.197734797903
30
0.0
0
SEQEND
5
841
100
AcDbEntity
8
0-0
0
ARC
5
842
100
AcDbEntity
8
0-0
6
CONTINUOUS
62
7
100
AcDbCircle
10
3322.453317286319
20
1021.349791249311
30
0.0
40
13.134414676531
100
AcDbArc
50
72.702435514475
51
107.723236616886
0
ARC
5
843
100
AcDbEntity
8
0-0
6
CONTINUOUS
62
7
100
AcDbCircle
10
3322.453317286319
20
1021.349791249311
30
0.0
40
13.134414676531
100
AcDbArc
50
251.982390785310
51
287.478114533726
0
CIRCLE
5
844
100
AcDbEntity
8
0-0
6
CONTINUOUS
62
7
100
AcDbCircle
10
3322.440599580683
20
1021.366249456605
30
0.0
40
3.389457447208
0
ARC
5
845
100
AcDbEntity
8
0-0
6
CONTINUOUS
62
7
100
AcDbCircle
10
3322.437336039949
20
1008.697655569069
30
0.0
40
3.389457447208
100
AcDbArc
50
0.021929785002
51
180.028490417393
0
ARC
5
846
100
AcDbEntity
8
0-0
6
CONTINUOUS
62
7
100
AcDbCircle
10
3322.451100292603
20
1034.007016411847
30
0.0
40
3.389457447208
100
AcDbArc
50
180.232247779006
51
359.660169619824
0
LINE
5
847
100
AcDbEntity
8
0-0
6
CONTINUOUS
62
7
100
AcDbLine
10
3326.140023151754
20
1009.001637445851
30
0.0
11
3326.140023151754
21
1033.869513044235
31
0.0
0
LINE
5
848
100
AcDbEntity
8
0-0
6
CONTINUOUS
62
7
100
AcDbLine
10
3289.187960243853
20
1009.158793418996
30
0.0
11
3318.337037454335
21
1009.158793418996
31
0.0
0
POLYLINE
5
849
100
AcDbEntity
8
0-0
6
CONTINUOUS
62
  7
100
AcDb2dPolyline
66
1
10
0.0
20
0.0
30
0.0
70
0
0
VERTEX
5
84a
100
AcDbEntity
8
0-0
6
CONTINUOUS
62
  7
100
AcDbVertex
100
AcDb2dVertex
10
3312.213387928961
20
1044.276599313446
30
0.0
0
VERTEX
5
84b
100
AcDbEntity
8
0-0
6
CONTINUOUS
62
  7
100
AcDbVertex
100
AcDb2dVertex
10
3312.435221190278
20
1043.591193837232
30
0.0
0
VERTEX
5
84c
100
AcDbEntity
8
0-0
6
CONTINUOUS
62
  7
100
AcDbVertex
100
AcDb2dVertex
10
3312.826989497818
20
1042.415485919746
30
0.0
0
VERTEX
5
84d
100
AcDbEntity
8
0-0
6
CONTINUOUS
62
  7
100
AcDbVertex
100
AcDb2dVertex
10
3313.244583270184
20
1041.256515952797
30
0.0
0
VERTEX
5
84e
100
AcDbEntity
8
0-0
6
CONTINUOUS
62
  7
100
AcDbVertex
100
AcDb2dVertex
10
3313.704347738280
20
1040.124877575966
30
0.0
0
VERTEX
5
84f
100
AcDbEntity
8
0-0
6
CONTINUOUS
62
  7
100
AcDbVertex
100
AcDb2dVertex
10
3314.222628133009
20
1039.031164428833
30
0.0
0
VERTEX
5
850
100
AcDbEntity
8
0-0
6
CONTINUOUS
62
  7
100
AcDbVertex
100
AcDb2dVertex
10
3314.815769685275
20
1037.985970150977
30
0.0
0
VERTEX
5
851
100
AcDbEntity
8
0-0
6
CONTINUOUS
62
  7
100
AcDbVertex
100
AcDb2dVertex
10
3315.200534038900
20
1037.406163260589
30
0.0
0
VERTEX
5
852
100
AcDbEntity
8
0-0
6
CONTINUOUS
62
  7
100
AcDbVertex
100
AcDb2dVertex
10
3315.455948809030
20
1037.056854024537
30
0.0
0
VERTEX
5
853
100
AcDbEntity
8
0-0
6
CONTINUOUS
62
  7
100
AcDbVertex
100
AcDb2dVertex
10
3315.923400941149
20
1036.472148950213
30
0.0
0
VERTEX
5
854
100
AcDbEntity
8
0-0
6
CONTINUOUS
62
  7
100
AcDbVertex
100
AcDb2dVertex
10
3316.419714489329
20
1035.906149481293
30
0.0
0
VERTEX
5
855
100
AcDbEntity
8
0-0
6
CONTINUOUS
62
  7
100
AcDbVertex
100
AcDb2dVertex
10
3316.938587834344
20
1035.354771424459
30
0.0
0
VERTEX
5
856
100
AcDbEntity
8
0-0
6
CONTINUOUS
62
  7
100
AcDbVertex
100
AcDb2dVertex
10
3317.473719356965
20
1034.813930586391
30
0.0
0
VERTEX
5
857
100
AcDbEntity
8
0-0
6
CONTINUOUS
62
  7
100
AcDbVertex
100
AcDb2dVertex
10
3318.018807437965
20
1034.279542773768
30
0.0
0
VERTEX
5
858
100
AcDbEntity
8
0-0
6
CONTINUOUS
62
  7
100
AcDbVertex
100
AcDb2dVertex
10
3318.337037454335
20
1033.970945234160
30
0.0
0
SEQEND
5
859
100
AcDbEntity
8
0-0
0
POLYLINE
5
85a
100
AcDbEntity
8
0-0
6
CONTINUOUS
62
  7
100
AcDb2dPolyline
66
1
10
0.0
20
0.0
30
0.0
70
0
0
VERTEX
5
85b
100
AcDbEntity
8
0-0
6
CONTINUOUS
62
  7
100
AcDbVertex
100
AcDb2dVertex
10
3326.136269952910
20
1008.830004223886
30
0.0
0
VERTEX
5
85c
100
AcDbEntity
8
0-0
6
CONTINUOUS
62
  7
100
AcDbVertex
100
AcDb2dVertex
10
3326.411417724714
20
1009.302073317985
30
0.0
0
VERTEX
5
85d
100
AcDbEntity
8
0-0
6
CONTINUOUS
62
  7
100
AcDbVertex
100
AcDb2dVertex
10
3326.888556972159
20
1010.113978423164
30
0.0
0
VERTEX
5
85e
100
AcDbEntity
8
0-0
6
CONTINUOUS
62
  7
100
AcDbVertex
100
AcDb2dVertex
10
3327.373325490258
20
1010.920308178273
30
0.0
0
VERTEX
5
85f
100
AcDbEntity
8
0-0
6
CONTINUOUS
62
  7
100
AcDbVertex
100
AcDb2dVertex
10
3327.870551931324
20
1011.717533880739
30
0.0
0
VERTEX
5
860
100
AcDbEntity
8
0-0
6
CONTINUOUS
62
  7
100
AcDbVertex
100
AcDb2dVertex
10
3328.385064947672
20
1012.502126827985
30
0.0
0
VERTEX
5
861
100
AcDbEntity
8
0-0
6
CONTINUOUS
62
  7
100
AcDbVertex
100
AcDb2dVertex
10
3328.921693191614
20
1013.270558317436
30
0.0
0
VERTEX
5
862
100
AcDbEntity
8
0-0
6
CONTINUOUS
62
  7
100
AcDbVertex
100
AcDb2dVertex
10
3329.244973510485
20
1013.707452909048
30
0.0
0
VERTEX
5
863
100
AcDbEntity
8
0-0
6
CONTINUOUS
62
  7
100
AcDbVertex
100
AcDb2dVertex
10
3329.436586164083
20
1013.957180974443
30
0.0
0
VERTEX
5
864
100
AcDbEntity
8
0-0
6
CONTINUOUS
62
  7
100
AcDbVertex
100
AcDb2dVertex
10
3329.773909812045
20
1014.382662536307
30
0.0
0
VERTEX
5
865
100
AcDbEntity
8
0-0
6
CONTINUOUS
62
  7
100
AcDbVertex
100
AcDb2dVertex
10
3330.118647616170
20
1014.802725950362
30
0.0
0
VERTEX
5
866
100
AcDbEntity
8
0-0
6
CONTINUOUS
62
  7
100
AcDbVertex
100
AcDb2dVertex
10
3330.469180765069
20
1015.218554218313
30
0.0
0
VERTEX
5
867
100
AcDbEntity
8
0-0
6
CONTINUOUS
62
  7
100
AcDbVertex
100
AcDb2dVertex
10
3330.823890447354
20
1015.631330341866
30
0.0
0
VERTEX
5
868
100
AcDbEntity
8
0-0
6
CONTINUOUS
62
  7
100
AcDbVertex
100
AcDb2dVertex
10
3331.181157851634
20
1016.042237322725
30
0.0
0
VERTEX
5
869
100
AcDbEntity
8
0-0
6
CONTINUOUS
62
  7
100
AcDbVertex
100
AcDb2dVertex
10
3331.388906998468
20
1016.280173094628
30
0.0
0
SEQEND
5
86a
100
AcDbEntity
8
0-0
0
LINE
5
86b
100
AcDbEntity
8
0-0
6
CONTINUOUS
62
7
100
AcDbLine
10
3331.418991874450
20
1026.358819011378
30
0.0
11
3331.418991874450
21
1016.358819011378
31
0.0
0
POLYLINE
5
86c
100
AcDbEntity
8
0-0
6
CONTINUOUS
62
  7
100
AcDb2dPolyline
66
1
10
0.0
20
0.0
30
0.0
70
0
0
VERTEX
5
86d
100
AcDbEntity
8
0-0
6
CONTINUOUS
62
  7
100
AcDbVertex
100
AcDb2dVertex
10
3326.189868290109
20
1033.967624370490
30
0.0
0
VERTEX
5
86e
100
AcDbEntity
8
0-0
6
CONTINUOUS
62
  7
100
AcDbVertex
100
AcDb2dVertex
10
3326.448555201263
20
1033.476058828071
30
0.0
0
VERTEX
5
86f
100
AcDbEntity
8
0-0
6
CONTINUOUS
62
  7
100
AcDbVertex
100
AcDb2dVertex
10
3326.898309906264
20
1032.631220776696
30
0.0
0
VERTEX
5
870
100
AcDbEntity
8
0-0
6
CONTINUOUS
62
  7
100
AcDbVertex
100
AcDb2dVertex
10
3327.358461247987
20
1031.793851463929
30
0.0
0
VERTEX
5
871
100
AcDbEntity
8
0-0
6
CONTINUOUS
62
  7
100
AcDbVertex
100
AcDb2dVertex
10
3327.835589376254
20
1030.968677939522
30
0.0
0
VERTEX
5
872
100
AcDbEntity
8
0-0
6
CONTINUOUS
62
  7
100
AcDbVertex
100
AcDb2dVertex
10
3328.336274440889
20
1030.160427253225
30
0.0
0
VERTEX
5
873
100
AcDbEntity
8
0-0
6
CONTINUOUS
62
  7
100
AcDbVertex
100
AcDb2dVertex
10
3328.867096591715
20
1029.373826454793
30
0.0
0
VERTEX
5
874
100
AcDbEntity
8
0-0
6
CONTINUOUS
62
  7
100
AcDbVertex
100
AcDb2dVertex
10
3329.191375173286
20
1028.929380673730
30
0.0
0
VERTEX
5
875
100
AcDbEntity
8
0-0
6
CONTINUOUS
62
  7
100
AcDbVertex
100
AcDb2dVertex
10
3329.388835735401
20
1028.671683437717
30
0.0
0
VERTEX
5
876
100
AcDbEntity
8
0-0
6
CONTINUOUS
62
  7
100
AcDbVertex
100
AcDb2dVertex
10
3329.739123054107
20
1028.234445336330
30
0.0
0
VERTEX
5
877
100
AcDbEntity
8
0-0
6
CONTINUOUS
62
  7
100
AcDbVertex
100
AcDb2dVertex
10
3330.099894917082
20
1027.804739124598
30
0.0
0
VERTEX
5
878
100
AcDbEntity
8
0-0
6
CONTINUOUS
62
  7
100
AcDbVertex
100
AcDb2dVertex
10
3330.468862122520
20
1027.380920285129
30
0.0
0
VERTEX
5
879
100
AcDbEntity
8
0-0
6
CONTINUOUS
62
  7
100
AcDbVertex
100
AcDb2dVertex
10
3330.843735468617
20
1026.961344300531
30
0.0
0
VERTEX
5
87a
100
AcDbEntity
8
0-0
6
CONTINUOUS
62
  7
100
AcDbVertex
100
AcDb2dVertex
10
3331.222225753566
20
1026.544366653413
30
0.0
0
VERTEX
5
87b
100
AcDbEntity
8
0-0
6
CONTINUOUS
62
  7
100
AcDbVertex
100
AcDb2dVertex
10
3331.442505335668
20
1026.303062150950
30
0.0
0
SEQEND
5
87c
100
AcDbEntity
8
0-0
0
LINE
5
87d
100
AcDbEntity
8
0-0
6
CONTINUOUS
62
7
100
AcDbLine
10
3331.397118121040
20
1017.358819011378
30
0.0
11
3341.130211597202
21
1017.358819011378
31
0.0
0
POLYLINE
5
87e
100
AcDbEntity
8
0-0
6
CONTINUOUS
62
  7
100
AcDb2dPolyline
66
1
10
0.0
20
0.0
30
0.0
70
0
0
VERTEX
5
87f
100
AcDbEntity
8
0-0
6
CONTINUOUS
62
  7
100
AcDbVertex
100
AcDb2dVertex
10
3295.350499737800
20
1056.301354593027
30
0.0
0
VERTEX
5
880
100
AcDbEntity
8
0-0
6
CONTINUOUS
62
  7
100
AcDbVertex
100
AcDb2dVertex
10
3293.681206410493
20
1063.606538210100
30
0.0
0
VERTEX
5
881
100
AcDbEntity
8
0-0
6
CONTINUOUS
62
  7
100
AcDbVertex
100
AcDb2dVertex
10
3290.875134695781
20
1076.200398853359
30
0.0
0
VERTEX
5
882
100
AcDbEntity
8
0-0
6
CONTINUOUS
62
  7
100
AcDbVertex
100
AcDb2dVertex
10
3288.269119172521
20
1088.790694151875
30
0.0
0
VERTEX
5
883
100
AcDbEntity
8
0-0
6
CONTINUOUS
62
  7
100
AcDbVertex
100
AcDb2dVertex
10
3285.989777683405
20
1101.375167558341
30
0.0
0
VERTEX
5
884
100
AcDbEntity
8
0-0
6
CONTINUOUS
62
  7
100
AcDbVertex
100
AcDb2dVertex
10
3284.163728071122
20
1113.951562525450
30
0.0
0
VERTEX
5
885
100
AcDbEntity
8
0-0
6
CONTINUOUS
62
  7
100
AcDbVertex
100
AcDb2dVertex
10
3282.917588178365
20
1126.517622505898
30
0.0
0
VERTEX
5
886
100
AcDbEntity
8
0-0
6
CONTINUOUS
62
  7
100
AcDbVertex
100
AcDb2dVertex
10
3282.510435688200
20
1133.800312606690
30
0.0
0
VERTEX
5
887
100
AcDbEntity
8
0-0
6
CONTINUOUS
62
  7
100
AcDbVertex
100
AcDb2dVertex
10
3282.433433591893
20
1147.494989543980
30
0.0
0
VERTEX
5
888
100
AcDbEntity
8
0-0
6
CONTINUOUS
62
  7
100
AcDbVertex
100
AcDb2dVertex
10
3284.228283423726
20
1171.072148148899
30
0.0
0
VERTEX
5
889
100
AcDbEntity
8
0-0
6
CONTINUOUS
62
  7
100
AcDbVertex
100
AcDb2dVertex
10
3288.077410821211
20
1194.612696001270
30
0.0
0
VERTEX
5
88a
100
AcDbEntity
8
0-0
6
CONTINUOUS
62
  7
100
AcDbVertex
100
AcDb2dVertex
10
3293.532283564774
20
1218.124626715188
30
0.0
0
VERTEX
5
88b
100
AcDbEntity
8
0-0
6
CONTINUOUS
62
  7
100
AcDbVertex
100
AcDb2dVertex
10
3300.144369434840
20
1241.615933904744
30
0.0
0
VERTEX
5
88c
100
AcDbEntity
8
0-0
6
CONTINUOUS
62
  7
100
AcDbVertex
100
AcDb2dVertex
10
3302.233217212233
20
1248.315147845702
30
0.0
0
SEQEND
5
88d
100
AcDbEntity
8
0-0
0
POLYLINE
5
88e
100
AcDbEntity
8
0-0
6
CONTINUOUS
62
  7
100
AcDb2dPolyline
66
1
10
0.0
20
0.0
30
0.0
70
0
0
VERTEX
5
88f
100
AcDbEntity
8
0-0
6
CONTINUOUS
62
  7
100
AcDbVertex
100
AcDb2dVertex
10
3313.116390290694
20
1056.301354593027
30
0.0
0
VERTEX
5
890
100
AcDbEntity
8
0-0
6
CONTINUOUS
62
  7
100
AcDbVertex
100
AcDb2dVertex
10
3311.447096963386
20
1063.606538210100
30
0.0
0
VERTEX
5
891
100
AcDbEntity
8
0-0
6
CONTINUOUS
62
  7
100
AcDbVertex
100
AcDb2dVertex
10
3308.641025248674
20
1076.200398853359
30
0.0
0
VERTEX
5
892
100
AcDbEntity
8
0-0
6
CONTINUOUS
62
  7
100
AcDbVertex
100
AcDb2dVertex
10
3306.035009725415
20
1088.790694151875
30
0.0
0
VERTEX
5
893
100
AcDbEntity
8
0-0
6
CONTINUOUS
62
  7
100
AcDbVertex
100
AcDb2dVertex
10
3303.755668236298
20
1101.375167558341
30
0.0
0
VERTEX
5
894
100
AcDbEntity
8
0-0
6
CONTINUOUS
62
  7
100
AcDbVertex
100
AcDb2dVertex
10
3301.929618624015
20
1113.951562525450
30
0.0
0
VERTEX
5
895
100
AcDbEntity
8
0-0
6
CONTINUOUS
62
  7
100
AcDbVertex
100
AcDb2dVertex
10
3300.683478731258
20
1126.517622505898
30
0.0
0
VERTEX
5
896
100
AcDbEntity
8
0-0
6
CONTINUOUS
62
  7
100
AcDbVertex
100
AcDb2dVertex
10
3300.276326241093
20
1133.800312606690
30
0.0
0
VERTEX
5
897
100
AcDbEntity
8
0-0
6
CONTINUOUS
62
  7
100
AcDbVertex
100
AcDb2dVertex
10
3300.199324144786
20
1147.494989543980
30
0.0
0
VERTEX
5
898
100
AcDbEntity
8
0-0
6
CONTINUOUS
62
  7
100
AcDbVertex
100
AcDb2dVertex
10
3301.994173976619
20
1171.072148148899
30
0.0
0
VERTEX
5
899
100
AcDbEntity
8
0-0
6
CONTINUOUS
62
  7
100
AcDbVertex
100
AcDb2dVertex
10
3305.843301374105
20
1194.612696001270
30
0.0
0
VERTEX
5
89a
100
AcDbEntity
8
0-0
6
CONTINUOUS
62
  7
100
AcDbVertex
100
AcDb2dVertex
10
3306.968953774765
20
1199.464552771628
30
0.0
0
SEQEND
5
89b
100
AcDbEntity
8
0-0
0
ARC
5
89c
100
AcDbEntity
8
0-0
6
CONTINUOUS
62
7
100
AcDbCircle
10
2028.757769253271
20
1048.345311981990
30
0.0
40
9.625929816131
100
AcDbArc
50
141.441277284353
51
218.558722715647
0
ARC
5
89d
100
AcDbEntity
8
0-0
6
CONTINUOUS
62
7
100
AcDbCircle
10
2048.757769253271
20
1048.345311981990
30
0.0
40
9.625929816131
100
AcDbArc
50
141.441277284353
51
218.558722715647
0
ARC
5
89e
100
AcDbEntity
8
0-0
6
CONTINUOUS
62
7
100
AcDbCircle
10
2033.703397818360
20
1048.345311981990
30
0.0
40
9.625929816131
100
AcDbArc
50
321.441277284353
51
398.558722715647
0
ARC
5
89f
100
AcDbEntity
8
0-0
6
CONTINUOUS
62
7
100
AcDbCircle
10
2013.703397818360
20
1048.345311981990
30
0.0
40
9.625929816131
100
AcDbArc
50
321.441277284353
51
398.558722715647
0
ARC
5
8a0
100
AcDbEntity
8
0-0
6
CONTINUOUS
62
7
100
AcDbCircle
10
2033.572800609064
20
1048.345311981990
30
0.0
40
6.440961171922
100
AcDbArc
50
111.324157753203
51
217.825680452866
0
ARC
5
8a1
100
AcDbEntity
8
0-0
6
CONTINUOUS
62
7
100
AcDbCircle
10
2028.888366462567
20
1048.345311981990
30
0.0
40
6.440961171922
100
AcDbArc
50
322.174319547135
51
428.675842246797
0
CIRCLE
5
8a2
100
AcDbEntity
8
0-0
6
CONTINUOUS
62
7
100
AcDbCircle
10
2031.230583535816
20
1019.345311981990
30
0.0
40
5.560000000000
0
LINE
5
8a3
100
AcDbEntity
8
0-0
6
CONTINUOUS
62
7
100
AcDbLine
10
2021.230583535816
20
1054.345311981990
30
0.0
11
2041.230583535816
21
1054.345311981990
31
0.0
0
ELLIPSE
  5
8a4
100
AcDbEntity
8
0-0
6
CONTINUOUS
62
7
100
AcDbEllipse
10
2030.947325156218
20
1019.383042728533
30
0.0
11
0.000000000000
21
24.534999686935
31
0.0
210
0.0
220
0.0
230
1.0
40
0.500000000000
41
0.000000000000
42
6.283185307180
0
LINE
5
8a5
100
AcDbEntity
8
0-0
6
CONTINUOUS
62
7
100
AcDbLine
10
2021.138306047488
20
1042.312018786501
30
0.0
11
2026.468218220382
21
1042.312018786501
31
0.0
0
LINE
5
8a6
100
AcDbEntity
8
0-0
6
CONTINUOUS
62
7
100
AcDbLine
10
2035.351405175205
20
1042.312018786501
30
0.0
11
2041.125476695840
21
1042.312018786501
31
0.0
0
LINE
5
8a7
100
AcDbEntity
8
0-0
6
CONTINUOUS
62
7
100
AcDbLine
10
2021.487739467986
20
1042.261498291971
30
0.0
11
2021.487739467986
21
1035.286863352718
31
0.0
0
LINE
5
8a8
100
AcDbEntity
8
0-0
6
CONTINUOUS
62
7
100
AcDbLine
10
2041.036364156878
20
1042.261498291971
30
0.0
11
2041.036364156878
21
1033.322177454337
31
0.0
0
LINE
5
8a9
100
AcDbEntity
8
0-0
6
CONTINUOUS
62
7
100
AcDbLine
10
3814.835492269542
20
922.129216648478
30
0.0
11
3335.055868791791
21
922.129216648478
31
0.0
0
LINE
5
8aa
100
AcDbEntity
8
0-0
6
CONTINUOUS
62
7
100
AcDbLine
10
3372.448747046833
20
947.128216648478
30
0.0
11
3633.234194392131
21
947.128216648478
31
0.0
0
LINE
5
8ab
100
AcDbEntity
8
0-0
6
CONTINUOUS
62
7
100
AcDbLine
10
3375.049803825519
20
947.933131274442
30
0.0
11
3421.398194392132
21
1307.128216648478
31
0.0
0
LINE
5
8ac
100
AcDbEntity
8
0-0
6
CONTINUOUS
62
7
100
AcDbLine
10
4930.609450764894
20
922.119581059231
30
0.0
11
5030.609450764894
21
922.119581059231
31
0.0
0
LINE
5
8ad
100
AcDbEntity
8
0-0
6
CONTINUOUS
62
7
100
AcDbLine
10
5153.999816972711
20
947.128216648478
30
0.0
11
4901.398316972714
21
947.128216648478
31
0.0
0
LINE
5
8ae
100
AcDbEntity
8
0-0
6
CONTINUOUS
62
7
100
AcDbLine
10
4582.685816972712
20
1307.128216648478
30
0.0
11
5084.686316972711
21
1307.128216648478
31
0.0
0
LINE
5
8af
100
AcDbEntity
8
0-0
6
CONTINUOUS
62
7
100
AcDbLine
10
5158.958816972712
20
952.768216648478
30
0.0
11
5113.234316972712
21
1307.128216648478
31
0.0
0
LINE
5
8b0
100
AcDbEntity
8
0-0
6
CONTINUOUS
62
7
100
AcDbLine
10
5109.685316972711
20
1652.128216648478
30
0.0
11
5109.685316972711
21
1677.128716648478
31
0.0
0
ARC
5
8b1
100
AcDbEntity
8
0-0
6
CONTINUOUS
62
7
100
AcDbCircle
10
4998.161816972714
20
942.482716648478
30
0.0
40
51.831000000000
100
AcDbArc
50
106.185039607740
51
174.856664564135
0
ARC
5
8b2
100
AcDbEntity
8
0-0
6
CONTINUOUS
62
7
100
AcDbCircle
10
5097.275816972713
20
469.901716648478
30
0.0
40
534.558000000000
100
AcDbArc
50
88.225766711256
51
102.265353935034
0
ARC
5
8b3
100
AcDbEntity
8
0-0
6
CONTINUOUS
62
7
100
AcDbCircle
10
5294.269316972713
20
1029.329716648478
30
0.0
40
182.184000000000
100
AcDbArc
50
154.406881880417
51
187.926995486826
0
ARC
5
8b4
100
AcDbEntity
8
0-0
6
CONTINUOUS
62
7
100
AcDbCircle
10
5126.987816972713
20
1112.584216648478
30
0.0
40
5.439000000000
100
AcDbArc
50
303.129193391630
51
437.486670368452
0
ARC
5
8b5
100
AcDbEntity
8
0-0
6
CONTINUOUS
62
7
100
AcDbCircle
10
5189.977316972712
20
927.124216648478
30
0.0
40
200.532000000000
100
AcDbArc
50
107.952959828159
51
137.499244470918
0
ARC
5
8b6
100
AcDbEntity
8
0-0
6
CONTINUOUS
62
7
100
AcDbCircle
10
4910.732816972713
20
1176.269716648478
30
0.0
40
173.740500000000
100
AcDbArc
50
262.380925916259
51
319.138943890197
0
ARC
5
8b7
100
AcDbEntity
8
0-0
6
CONTINUOUS
62
7
100
AcDbCircle
10
5216.951816972713
20
1053.182716648478
30
0.0
40
332.898000000000
100
AcDbArc
50
165.429277061806
51
198.576938361796
0
ARC
5
8b8
100
AcDbEntity
8
0-0
6
CONTINUOUS
62
7
100
AcDbCircle
10
4654.258316972711
20
1301.677216648478
30
0.0
40
74.611500000000
100
AcDbArc
50
178.117408261904
51
220.656247073203
0
ARC
5
8b9
100
AcDbEntity
8
0-0
6
CONTINUOUS
62
7
100
AcDbCircle
10
3563.410316972712
20
513.940216648477
30
0.0
40
1271.208000000000
100
AcDbArc
50
30.314798010132
51
35.551637374024
0
ARC
5
8ba
100
AcDbEntity
8
0-0
6
CONTINUOUS
62
7
100
AcDbCircle
10
4130.450816972712
20
897.655216648478
30
0.0
40
589.743000000000
100
AcDbArc
50
2.378433228466
51
25.935359637940
0
ARC
5
8bb
100
AcDbEntity
8
0-0
6
CONTINUOUS
62
7
100
AcDbCircle
10
4872.806816972711
20
1261.234216648478
30
0.0
40
139.263000000000
100
AcDbArc
50
277.717007852443
51
355.269375981742
0
ARC
5
8bc
100
AcDbEntity
8
0-0
6
CONTINUOUS
62
7
100
AcDbCircle
10
4610.825816972712
20
1311.550216648478
30
0.0
40
29.235000000000
100
AcDbArc
50
104.952000000000
51
184.608000000000
0
ARC
5
8bd
100
AcDbEntity
8
0-0
6
CONTINUOUS
62
7
100
AcDbCircle
10
5084.686316972711
20
1312.129216648478
30
0.0
40
4.999500000000
100
AcDbArc
50
270.000000000000
51
360.000000000000
0
ARC
5
8be
100
AcDbEntity
8
0-0
6
CONTINUOUS
62
7
100
AcDbCircle
10
4582.685816972712
20
1304.128216648478
30
0.0
40
3.000000000000
100
AcDbArc
50
90.000000000000
51
180.000000000000
0
ARC
5
8bf
100
AcDbEntity
8
0-0
6
CONTINUOUS
62
7
100
AcDbCircle
10
4876.699316972713
20
1294.073716648478
30
0.0
40
187.314000000000
100
AcDbArc
50
273.597802995097
51
348.624669641654
0
ARC
5
8c0
100
AcDbEntity
8
0-0
6
CONTINUOUS
62
7
100
AcDbCircle
10
5116.459316972712
20
1240.930216648478
30
0.0
40
10.261500000000
100
AcDbArc
50
66.431163945871
51
116.763606466802
0
ARC
5
8c1
100
AcDbEntity
8
0-0
6
CONTINUOUS
62
7
100
AcDbCircle
10
5170.073816972712
20
1137.770716648478
30
0.0
40
126.522000000000
100
AcDbArc
50
117.404958525381
51
153.611189990428
0
ARC
5
8c2
100
AcDbEntity
8
0-0
6
CONTINUOUS
62
7
100
AcDbCircle
10
4878.932816972712
20
1275.412216648478
30
0.0
40
195.553500000000
100
AcDbArc
50
271.816379594271
51
335.399104092012
0
ARC
5
8c3
100
AcDbEntity
8
0-0
6
CONTINUOUS
62
7
100
AcDbCircle
10
5114.686316972713
20
1677.128716648478
30
0.0
40
4.999500000000
100
AcDbArc
50
90.000000000000
51
180.000000000000
0
ARC
5
8c4
100
AcDbEntity
8
0-0
6
CONTINUOUS
62
7
100
AcDbCircle
10
8978.059316972713
20
1253.989216648478
30
0.0
40
3888.808500000000
100
AcDbArc
50
174.124000000000
51
179.143000000000
0
LINE
5
8c5
100
AcDbEntity
8
0-0
6
CONTINUOUS
62
7
100
AcDbLine
10
4598.877580659637
20
1257.128716648478
30
0.0
11
5119.685816972713
21
1257.128716648478
31
0.0
0
LINE
5
8c6
100
AcDbEntity
8
0-0
6
CONTINUOUS
62
7
100
AcDbLine
10
4719.797019095302
20
922.129216648478
30
0.0
11
5189.686316972712
21
922.129216648478
31
0.0
0
LINE
5
8c7
100
AcDbEntity
8
0-0
6
CONTINUOUS
62
7
100
AcDbLine
10
5014.407278374233
20
1322.821216648478
30
0.0
11
5014.684778374232
21
1307.128216648478
31
0.0
0
ARC
5
8c8
100
AcDbEntity
8
0-0
6
CONTINUOUS
62
7
100
AcDbCircle
10
4991.494778374234
20
1342.187716648478
30
0.0
40
30.000000000000
100
AcDbArc
50
269.856000000000
51
337.236000000000
0
LINE
5
8c9
100
AcDbEntity
8
0-0
6
CONTINUOUS
62
7
100
AcDbLine
10
5026.947278374232
20
1349.141716648478
30
0.0
11
5019.157778374231
21
1330.579216648478
31
0.0
0
LINE
5
8ca
100
AcDbEntity
8
0-0
6
CONTINUOUS
62
7
100
AcDbLine
10
5032.312778374233
20
1328.446216648478
30
0.0
11
5032.579778374231
21
1313.216716648478
31
0.0
0
ARC
5
8cb
100
AcDbEntity
8
0-0
6
CONTINUOUS
62
7
100
AcDbCircle
10
5023.317278374232
20
1328.107216648478
30
0.0
40
9.001500000000
100
AcDbArc
50
359.856000000000
51
459.394000000000
0
ARC
5
8cc
100
AcDbEntity
8
0-0
6
CONTINUOUS
62
7
100
AcDbCircle
10
5023.317278374232
20
1328.107216648478
30
0.0
40
14.002500000000
100
AcDbArc
50
311.008000000000
51
447.247000000000
0
LINE
5
8cd
100
AcDbEntity
8
0-0
6
CONTINUOUS
62
7
100
AcDbLine
10
5019.580778374231
20
1313.216716648478
30
0.0
11
5060.172278374232
21
1313.216716648478
31
0.0
0
LINE
5
8ce
100
AcDbEntity
8
0-0
6
CONTINUOUS
62
7
100
AcDbLine
10
5060.172278374232
20
1307.128216648478
30
0.0
11
5060.172278374232
21
1313.216716648478
31
0.0
0
ARC
5
8cf
100
AcDbEntity
8
0-0
6
CONTINUOUS
62
7
100
AcDbCircle
10
5006.640278374232
20
1316.857216648478
30
0.0
40
3.000000000000
100
AcDbArc
50
269.856000000000
51
358.805000000000
0
LINE
5
8d0
100
AcDbEntity
8
0-0
6
CONTINUOUS
62
7
100
AcDbLine
10
5006.632778374233
20
1313.857216648478
30
0.0
11
5001.402278374233
21
1313.869216648478
31
0.0
0
LINE
5
8d1
100
AcDbEntity
8
0-0
6
CONTINUOUS
62
7
100
AcDbLine
10
5009.640278374232
20
1316.794216648478
30
0.0
11
5009.613278374231
21
1318.276216648478
31
0.0
0
ARC
5
8d2
100
AcDbEntity
8
0-0
6
CONTINUOUS
62
7
100
AcDbCircle
10
4872.443816972711
20
245.998216648478
30
0.0
40
1126.428000000001
100
AcDbArc
50
82.252000000000
51
82.288585308776
0
ARC
5
8d3
100
AcDbEntity
8
0-0
6
CONTINUOUS
62
7
100
AcDbCircle
10
4872.443816972711
20
245.998216648478
30
0.0
40
1126.428000000001
100
AcDbArc
50
82.953072053044
51
103.825000000000
0
LINE
5
8d4
100
AcDbEntity
8
0-0
6
CONTINUOUS
62
7
100
AcDbLine
10
5035.473278374231
20
1335.053716648478
30
0.0
11
5030.510947455125
21
1347.637568642998
31
0.0
0
ARC
5
8d5
100
AcDbEntity
8
0-0
6
CONTINUOUS
62
7
100
AcDbCircle
10
5009.193278374232
20
1340.826857354531
30
0.0
40
22.998000000000
100
AcDbArc
50
14.571263323694
51
87.206000000000
0
LINE
5
8d6
100
AcDbEntity
8
0-0
6
CONTINUOUS
62
7
100
AcDbLine
10
4996.294251813714
20
1312.123447525404
30
0.0
11
4581.685316972712
21
1309.201216648478
31
0.0
0
ARC
5
8d7
100
AcDbEntity
8
0-0
6
CONTINUOUS
62
7
100
AcDbCircle
10
4215.070316972713
20
1317.676216648478
30
0.0
40
1019.734500000000
100
AcDbArc
50
348.612182448522
51
359.126367669420
0
LINE
5
8d8
100
AcDbEntity
8
0-0
6
CONTINUOUS
62
7
100
AcDbLine
10
5289.685316972713
20
1317.128716648478
30
0.0
11
5089.763816972713
21
1317.128716648478
31
0.0
0
LINE
5
8d9
100
AcDbEntity
8
0-0
6
CONTINUOUS
62
7
100
AcDbLine
10
5286.685316972712
20
1302.128716648478
30
0.0
11
5234.686316972712
21
1302.128716648478
31
0.0
0
LINE
5
8da
100
AcDbEntity
8
0-0
6
CONTINUOUS
62
7
100
AcDbLine
10
5289.685316972713
20
1305.128716648478
30
0.0
11
5289.685316972713
21
1677.128716648478
31
0.0
0
ARC
5
8db
100
AcDbEntity
8
0-0
6
CONTINUOUS
62
7
100
AcDbCircle
10
5286.685316972712
20
1305.128716648478
30
0.0
40
3.000000000000
100
AcDbArc
50
270.000000000000
51
360.000000000000
0
LINE
5
8dc
100
AcDbEntity
8
0-0
6
CONTINUOUS
62
7
100
AcDbLine
10
5289.685316972713
20
1652.128216648478
30
0.0
11
5109.685316972711
21
1652.128216648478
31
0.0
0
LINE
5
8dd
100
AcDbEntity
8
0-0
6
CONTINUOUS
62
7
100
AcDbLine
10
5284.685816972713
20
1682.128216648478
30
0.0
11
5114.686316972713
21
1682.128216648478
31
0.0
0
ARC
5
8de
100
AcDbEntity
8
0-0
6
CONTINUOUS
62
7
100
AcDbCircle
10
6737.186816972713
20
900.715216648478
30
0.0
40
1537.650000000000
100
AcDbArc
50
175.687379973351
51
179.202082832221
0
ARC
5
8df
100
AcDbEntity
8
0-0
6
CONTINUOUS
62
7
100
AcDbCircle
10
6737.186816972713
20
900.715216648478
30
0.0
40
1537.650000000000
100
AcDbArc
50
171.939181114469
51
175.228009902609
0
LINE
5
8e0
100
AcDbEntity
8
0-0
6
CONTINUOUS
62
7
100
AcDbLine
10
4930.609450764894
20
2430.725252101691
30
0.0
11
5030.609450764894
21
2430.725252101691
31
0.0
0
LINE
5
8e1
100
AcDbEntity
8
0-0
6
CONTINUOUS
62
7
100
AcDbLine
10
5153.999816972711
20
2455.733887690938
30
0.0
11
4901.398316972714
21
2455.733887690938
31
0.0
0
LINE
5
8e2
100
AcDbEntity
8
0-0
6
CONTINUOUS
62
7
100
AcDbLine
10
4582.685816972712
20
2815.733887690938
30
0.0
11
5084.686316972711
21
2815.733887690938
31
0.0
0
LINE
5
8e3
100
AcDbEntity
8
0-0
6
CONTINUOUS
62
7
100
AcDbLine
10
5158.958816972712
20
2461.373887690939
30
0.0
11
5113.234316972712
21
2815.733887690938
31
0.0
0
LINE
5
8e4
100
AcDbEntity
8
0-0
6
CONTINUOUS
62
7
100
AcDbLine
10
5109.685316972711
20
3160.733887690938
30
0.0
11
5109.685316972711
21
3185.734387690938
31
0.0
0
ARC
5
8e5
100
AcDbEntity
8
0-0
6
CONTINUOUS
62
7
100
AcDbCircle
10
4998.161816972714
20
2451.088387690938
30
0.0
40
51.831000000000
100
AcDbArc
50
106.185039607740
51
174.856664564135
0
ARC
5
8e6
100
AcDbEntity
8
0-0
6
CONTINUOUS
62
7
100
AcDbCircle
10
5097.275816972713
20
1978.507387690939
30
0.0
40
534.558000000000
100
AcDbArc
50
88.225766711256
51
102.265353935034
0
ARC
5
8e7
100
AcDbEntity
8
0-0
6
CONTINUOUS
62
7
100
AcDbCircle
10
5294.269316972713
20
2537.935387690939
30
0.0
40
182.184000000000
100
AcDbArc
50
154.406881880417
51
187.926995486826
0
ARC
5
8e8
100
AcDbEntity
8
0-0
6
CONTINUOUS
62
7
100
AcDbCircle
10
5126.987816972713
20
2621.189887690939
30
0.0
40
5.439000000000
100
AcDbArc
50
303.129193391630
51
437.486670368452
0
ARC
5
8e9
100
AcDbEntity
8
0-0
6
CONTINUOUS
62
7
100
AcDbCircle
10
5189.977316972712
20
2435.729887690939
30
0.0
40
200.532000000000
100
AcDbArc
50
107.952959828159
51
137.499244470918
0
ARC
5
8ea
100
AcDbEntity
8
0-0
6
CONTINUOUS
62
7
100
AcDbCircle
10
4910.732816972713
20
2684.875387690939
30
0.0
40
173.740500000000
100
AcDbArc
50
262.380925916259
51
319.138943890197
0
ARC
5
8eb
100
AcDbEntity
8
0-0
6
CONTINUOUS
62
7
100
AcDbCircle
10
5216.951816972713
20
2561.788387690939
30
0.0
40
332.898000000000
100
AcDbArc
50
165.429277061806
51
198.576938361796
0
ARC
5
8ec
100
AcDbEntity
8
0-0
6
CONTINUOUS
62
7
100
AcDbCircle
10
4654.258316972711
20
2810.282887690939
30
0.0
40
74.611500000000
100
AcDbArc
50
178.117408261904
51
220.656247073203
0
ARC
5
8ed
100
AcDbEntity
8
0-0
6
CONTINUOUS
62
7
100
AcDbCircle
10
3563.410316972712
20
2022.545887690938
30
0.0
40
1271.208000000000
100
AcDbArc
50
30.314798010132
51
35.551637374024
0
ARC
5
8ee
100
AcDbEntity
8
0-0
6
CONTINUOUS
62
7
100
AcDbCircle
10
4130.450816972712
20
2406.260887690939
30
0.0
40
589.743000000000
100
AcDbArc
50
2.378433228466
51
25.935359637940
0
ARC
5
8ef
100
AcDbEntity
8
0-0
6
CONTINUOUS
62
7
100
AcDbCircle
10
4872.806816972711
20
2769.839887690939
30
0.0
40
139.263000000000
100
AcDbArc
50
277.717007852443
51
355.269375981742
0
ARC
5
8f0
100
AcDbEntity
8
0-0
6
CONTINUOUS
62
7
100
AcDbCircle
10
4610.825816972712
20
2820.155887690939
30
0.0
40
29.235000000000
100
AcDbArc
50
104.952000000000
51
184.608000000000
0
ARC
5
8f1
100
AcDbEntity
8
0-0
6
CONTINUOUS
62
7
100
AcDbCircle
10
5084.686316972711
20
2820.734887690939
30
0.0
40
4.999500000000
100
AcDbArc
50
270.000000000000
51
360.000000000000
0
ARC
5
8f2
100
AcDbEntity
8
0-0
6
CONTINUOUS
62
7
100
AcDbCircle
10
4582.685816972712
20
2812.733887690939
30
0.0
40
3.000000000000
100
AcDbArc
50
90.000000000000
51
180.000000000000
0
ARC
5
8f3
100
AcDbEntity
8
0-0
6
CONTINUOUS
62
7
100
AcDbCircle
10
4876.699316972713
20
2802.679387690939
30
0.0
40
187.314000000000
100
AcDbArc
50
273.597802995097
51
348.624669641654
0
ARC
5
8f4
100
AcDbEntity
8
0-0
6
CONTINUOUS
62
7
100
AcDbCircle
10
5116.459316972712
20
2749.535887690939
30
0.0
40
10.261500000000
100
AcDbArc
50
66.431163945871
51
116.763606466802
0
ARC
5
8f5
100
AcDbEntity
8
0-0
6
CONTINUOUS
62
7
100
AcDbCircle
10
5170.073816972712
20
2646.376387690939
30
0.0
40
126.522000000000
100
AcDbArc
50
117.404958525381
51
153.611189990428
0
ARC
5
8f6
100
AcDbEntity
8
0-0
6
CONTINUOUS
62
7
100
AcDbCircle
10
4878.932816972712
20
2784.017887690939
30
0.0
40
195.553500000000
100
AcDbArc
50
271.816379594271
51
335.399104092012
0
ARC
5
8f7
100
AcDbEntity
8
0-0
6
CONTINUOUS
62
7
100
AcDbCircle
10
5114.686316972713
20
3185.734387690938
30
0.0
40
4.999500000000
100
AcDbArc
50
90.000000000000
51
180.000000000000
0
ARC
5
8f8
100
AcDbEntity
8
0-0
6
CONTINUOUS
62
7
100
AcDbCircle
10
8978.059316972713
20
2762.594887690939
30
0.0
40
3888.808500000000
100
AcDbArc
50
174.124000000000
51
179.143000000000
0
LINE
5
8f9
100
AcDbEntity
8
0-0
6
CONTINUOUS
62
7
100
AcDbLine
10
4598.877580659637
20
2765.734387690939
30
0.0
11
5119.685816972713
21
2765.734387690939
31
0.0
0
LINE
5
8fa
100
AcDbEntity
8
0-0
6
CONTINUOUS
62
7
100
AcDbLine
10
4719.797019095302
20
2430.734887690939
30
0.0
11
5189.686316972712
21
2430.734887690939
31
0.0
0
LINE
5
8fb
100
AcDbEntity
8
0-0
6
CONTINUOUS
62
7
100
AcDbLine
10
5014.407278374233
20
2831.426887690939
30
0.0
11
5014.684778374232
21
2815.733887690938
31
0.0
0
ARC
5
8fc
100
AcDbEntity
8
0-0
6
CONTINUOUS
62
7
100
AcDbCircle
10
4991.494778374234
20
2850.793387690939
30
0.0
40
30.000000000000
100
AcDbArc
50
269.856000000000
51
337.236000000000
0
LINE
5
8fd
100
AcDbEntity
8
0-0
6
CONTINUOUS
62
7
100
AcDbLine
10
5026.947278374232
20
2857.747387690939
30
0.0
11
5019.157778374231
21
2839.184887690939
31
0.0
0
LINE
5
8fe
100
AcDbEntity
8
0-0
6
CONTINUOUS
62
7
100
AcDbLine
10
5032.312778374233
20
2837.051887690939
30
0.0
11
5032.579778374231
21
2821.822387690939
31
0.0
0
ARC
5
8ff
100
AcDbEntity
8
0-0
6
CONTINUOUS
62
7
100
AcDbCircle
10
5023.317278374232
20
2836.712887690939
30
0.0
40
9.001500000000
100
AcDbArc
50
359.856000000000
51
459.394000000000
0
ARC
5
900
100
AcDbEntity
8
0-0
6
CONTINUOUS
62
7
100
AcDbCircle
10
5023.317278374232
20
2836.712887690939
30
0.0
40
14.002500000000
100
AcDbArc
50
311.008000000000
51
447.247000000000
0
LINE
5
901
100
AcDbEntity
8
0-0
6
CONTINUOUS
62
7
100
AcDbLine
10
5019.580778374231
20
2821.822387690939
30
0.0
11
5060.172278374232
21
2821.822387690939
31
0.0
0
LINE
5
902
100
AcDbEntity
8
0-0
6
CONTINUOUS
62
7
100
AcDbLine
10
5060.172278374232
20
2815.733887690938
30
0.0
11
5060.172278374232
21
2821.822387690939
31
0.0
0
ARC
5
903
100
AcDbEntity
8
0-0
6
CONTINUOUS
62
7
100
AcDbCircle
10
5006.640278374232
20
2825.462887690939
30
0.0
40
3.000000000000
100
AcDbArc
50
269.856000000000
51
358.805000000000
0
LINE
5
904
100
AcDbEntity
8
0-0
6
CONTINUOUS
62
7
100
AcDbLine
10
5006.632778374233
20
2822.462887690939
30
0.0
11
5001.402278374233
21
2822.474887690939
31
0.0
0
LINE
5
905
100
AcDbEntity
8
0-0
6
CONTINUOUS
62
7
100
AcDbLine
10
5009.640278374232
20
2825.399887690939
30
0.0
11
5009.613278374231
21
2826.881887690939
31
0.0
0
ARC
5
906
100
AcDbEntity
8
0-0
6
CONTINUOUS
62
7
100
AcDbCircle
10
4872.443816972711
20
1754.603887690939
30
0.0
40
1126.428000000001
100
AcDbArc
50
82.252000000000
51
82.288585308776
0
ARC
5
907
100
AcDbEntity
8
0-0
6
CONTINUOUS
62
7
100
AcDbCircle
10
4872.443816972711
20
1754.603887690939
30
0.0
40
1126.428000000001
100
AcDbArc
50
82.953072053044
51
103.825000000000
0
LINE
5
908
100
AcDbEntity
8
0-0
6
CONTINUOUS
62
7
100
AcDbLine
10
5035.473278374231
20
2843.659387690939
30
0.0
11
5030.510947455125
21
2856.243239685458
31
0.0
0
ARC
5
909
100
AcDbEntity
8
0-0
6
CONTINUOUS
62
7
100
AcDbCircle
10
5009.193278374232
20
2849.432528396991
30
0.0
40
22.998000000000
100
AcDbArc
50
14.571263323694
51
87.206000000000
0
LINE
5
90a
100
AcDbEntity
8
0-0
6
CONTINUOUS
62
7
100
AcDbLine
10
4996.294251813714
20
2820.729118567865
30
0.0
11
4581.685316972712
21
2817.806887690939
31
0.0
0
ARC
5
90b
100
AcDbEntity
8
0-0
6
CONTINUOUS
62
7
100
AcDbCircle
10
4215.070316972713
20
2826.281887690939
30
0.0
40
1019.734500000000
100
AcDbArc
50
348.612182448522
51
359.126367669420
0
LINE
5
90c
100
AcDbEntity
8
0-0
6
CONTINUOUS
62
7
100
AcDbLine
10
5289.685316972713
20
2825.734387690939
30
0.0
11
5089.763816972713
21
2825.734387690939
31
0.0
0
LINE
5
90d
100
AcDbEntity
8
0-0
6
CONTINUOUS
62
7
100
AcDbLine
10
5286.685316972712
20
2810.734387690939
30
0.0
11
5234.686316972712
21
2810.734387690939
31
0.0
0
LINE
5
90e
100
AcDbEntity
8
0-0
6
CONTINUOUS
62
7
100
AcDbLine
10
5289.685316972713
20
2813.734387690939
30
0.0
11
5289.685316972713
21
3185.734387690938
31
0.0
0
ARC
5
90f
100
AcDbEntity
8
0-0
6
CONTINUOUS
62
7
100
AcDbCircle
10
5286.685316972712
20
2813.734387690939
30
0.0
40
3.000000000000
100
AcDbArc
50
270.000000000000
51
360.000000000000
0
LINE
5
910
100
AcDbEntity
8
0-0
6
CONTINUOUS
62
7
100
AcDbLine
10
5289.685316972713
20
3160.733887690938
30
0.0
11
5109.685316972711
21
3160.733887690938
31
0.0
0
LINE
5
911
100
AcDbEntity
8
0-0
6
CONTINUOUS
62
7
100
AcDbLine
10
5284.685816972713
20
3190.733887690938
30
0.0
11
5114.686316972713
21
3190.733887690938
31
0.0
0
ARC
5
912
100
AcDbEntity
8
0-0
6
CONTINUOUS
62
7
100
AcDbCircle
10
6737.186816972713
20
2409.320887690938
30
0.0
40
1537.650000000000
100
AcDbArc
50
175.687379973351
51
179.202082832221
0
ARC
5
913
100
AcDbEntity
8
0-0
6
CONTINUOUS
62
7
100
AcDbCircle
10
6737.186816972713
20
2409.320887690938
30
0.0
40
1537.650000000000
100
AcDbArc
50
171.939181114469
51
175.228009902609
0
ENDSEC
 0
SECTION
  2
OBJECTS
 0
DICTIONARY
  5
C
100
AcDbDictionary
  3
ACAD_GROUP
350
D
  3
ACAD_MLINESTYLE
350
E
 0
DICTIONARY
  5
D
100
AcDbDictionary
 0
DICTIONARY
  5
E
100
AcDbDictionary
  3
STANDARD
350
13
0
MLINESTYLE
  5
13
100
AcDbMlineStyle
  2
STANDARD
 70
    0
3

62
256
51
90.0
52
90.0
71
0
0
ENDSEC
0
EOF
