0
SECTION
2
HEADER
9
$ACADVER
1
AC1012
9
$DWGCODEPAGE
3
dos932
9
$EXTMIN
10
0.000
20
0.000
30
0.0
9
$EXTMAX
10
5940.000
20
4200.000
30
0.0
9
$LIMMIN
10
0.000
20
0.000
9
$LIMMAX
10
5940.000
20
4200.000
9
$DIMSCALE
40
20.000000
9
$LTSCALE
40
20.000
9
$PDMODE
70
0
9
$PDSIZE
40
40.0
9
$HANDSEED
5
62011
9
$UNITMODE
70
0
9
$VISRETAIN
70
0
9
$PLINEGEN
70
0
9
$PSLTSCALE
70
1
9
$TREEDEPTH
70
3020
9
$CMLSTYLE
2
STANDARD
9
$CMLJUST
70
0
9
$CMLSCALE
40
1.0
0
ENDSEC
0
SECTION
2
TABLES
0
TABLE
2
VPORT
5
190
100
AcDbSymbolTable
70
2
0
VPORT
5
191
100
AcDbSymbolTableRecord
100
AcDbViewportTableRecord
2
*ACTIVE
70
0
10
0.0
20
0.0
11
1.0
21
1.0
12
2970.000
22
2100.000
13
0.0
23
0.0
14
1.0
24
1.0
15
0.0
25
0.0
16
0.0
26
0.0
36
1.0
17
0.0
27
0.0
37
0.0
40
4304.348
41
2.0
42
50.0
43
0.0
44
0.0
50
0.0
51
0.0
71
0
72
1000
73
1
74
1
75
0
76
0
77
0
78
0
0
ENDTAB
0
TABLE
2
LTYPE
5
1f4
100
AcDbSymbolTable
70
9
0
LTYPE
5
1f5
100
AcDbSymbolTableRecord
100
AcDbLinetypeTableRecord
2
BYBLOCK
70
 64
3

72
 65
73
  0
40
0.0
0
LTYPE
5
1f6
100
AcDbSymbolTableRecord
100
AcDbLinetypeTableRecord
2
BYLAYER
70
 64
3

72
 65
73
  0
40
0.0
0
LTYPE
5
1f7
100
AcDbSymbolTableRecord
100
AcDbLinetypeTableRecord
2
CONTINUOUS
70
64
3
SolidLine
72
65
73
0
40
0.0
0
LTYPE
5
1f8
100
AcDbSymbolTableRecord
100
AcDbLinetypeTableRecord
2
DOT
70
64
3
--  --  --  --  --  --  --  --     
72
65
73
2
40
3.000
49
1.000
74
0
49
-2.000
74
0
0
LTYPE
5
1f9
100
AcDbSymbolTableRecord
100
AcDbLinetypeTableRecord
2
DASHED
70
64
3
----    ----    ----    ----    
72
65
73
2
40
5.000
49
2.000
74
0
49
-3.000
74
0
0
LTYPE
5
1fa
100
AcDbSymbolTableRecord
100
AcDbLinetypeTableRecord
2
DASHED2
70
64
3
------  ------  ------  ------ 
72
65
73
2
40
10.000
49
4.000
74
0
49
-6.000
74
0
0
LTYPE
5
1fb
100
AcDbSymbolTableRecord
100
AcDbLinetypeTableRecord
2
CENTER
70
64
3
----- - ----- - ----- - ----- - 
72
65
73
4
40
10.000
49
6.000
74
0
49
-3.000
74
0
49
1.000
74
0
49
-3.000
74
0
0
LTYPE
5
1fc
100
AcDbSymbolTableRecord
100
AcDbLinetypeTableRecord
2
CENTER2
70
64
3
----------  --  ----------  -- 
72
65
73
4
40
17.000
49
12.000
74
0
49
-5.000
74
0
49
2.000
74
0
49
-5.000
74
0
0
LTYPE
5
1fd
100
AcDbSymbolTableRecord
100
AcDbLinetypeTableRecord
2
PHANTOM
70
64
3
--- - - --- - - --- - - --- - -
72
65
73
6
40
13.000
49
5.000
74
0
49
-3.000
74
0
49
1.000
74
0
49
-3.000
74
0
49
1.000
74
0
49
-3.000
74
0
0
LTYPE
5
1fe
100
AcDbSymbolTableRecord
100
AcDbLinetypeTableRecord
2
PHANTOM2
70
64
3
--------  -  -  --------  -  -
72
65
73
6
40
20.000
49
6.000
74
0
49
-5.000
74
0
49
2.000
74
0
49
-5.000
74
0
49
2.000
74
0
49
-5.000
74
0
0
LTYPE
5
1ff
100
AcDbSymbolTableRecord
100
AcDbLinetypeTableRecord
2
HIDDEN
70
64
3
-   -   -   -   -   -   -   -   
72
65
73
2
40
3.000
49
0.500
74
0
49
-2.500
74
0
0
ENDTAB
0
TABLE
2
STYLE
5
200
100
AcDbSymbolTable
70
1
0
STYLE
5
201
100
AcDbSymbolTableRecord
100
AcDbTextStyleTableRecord
2
STANDARD
70
0
40
0.0
41
1.0
50
0.0
71
0
42
0.0
3
txt.shx
4
extfont.shx
0
STYLE
5
202
100
AcDbSymbolTableRecord
100
AcDbTextStyleTableRecord
2
TATEGAKI
70
4
40
0.0
41
1.0
50
0.0
71
0
42
0.0
3
txt.shx
4
extfont.shx
0
STYLE
5
203
100
AcDbSymbolTableRecord
100
AcDbTextStyleTableRecord
2
DIM
70
0
40
0.0
41
0.75
50
0.0
71
0
42
0.0
3
txt.shx
4
extfont.shx
0
STYLE
5
204
100
AcDbSymbolTableRecord
100
AcDbTextStyleTableRecord
2
_Gothic_
70
0
40
1.0
41
1.0
50
0.0
71
0
42
10.0
3

4

1001
ACAD
1000
MS Gothic
1071
32817
0
STYLE
5
205
100
AcDbSymbolTableRecord
100
AcDbTextStyleTableRecord
2
_TateGothic_
70
4
40
0.0
41
1.0
50
0.0
71
0
42
0.0
3
@MS Gothic
4

0
ENDTAB
0
TABLE
2
VIEW
5
206
100
AcDbSymbolTable
70
0
0
ENDTAB
0
TABLE
2
UCS
5
207
100
AcDbSymbolTable
70
0
0
ENDTAB
0
TABLE
2
APPID
5
208
100
AcDbSymbolTable
70
1
0
APPID
5
209
100
AcDbSymbolTableRecord
100
AcDbRegAppTableRecord
2
ACAD
70
0
0
ENDTAB
0
TABLE
2
DIMSTYLE
5
403
100
AcDbSymbolTable
70
1
0
DIMSTYLE
105
404
330
402
100
AcDbSymbolTableRecord
100
AcDbDimStyleTableRecord
2
JAC_DIM
70
0
41
40.000
42
0.000
44
0.0
73
0
74
0
77
1
78
8
79
2
140
0.000
170
0
171
2
172
0
173
0
174
0
175
0
176
0
177
0
178
0
270
2
271
0
272
0
273
2
274
2
340
201
275
0
280
0
281
0
282
0
283
0
284
0
285
0
286
0
287
3
288
0
0
ENDTAB
0
TABLE
2
BLOCK_RECORD
5
405
100
AcDbSymbolTable
70
0
0
BLOCK_RECORD
5
406
100
AcDbSymbolTableRecord
100
AcDbBlockTableRecord
2
*MODEL_SPACE
0
BLOCK_RECORD
5
407
100
AcDbSymbolTableRecord
100
AcDbBlockTableRecord
2
*PAPER_SPACE
0
BLOCK_RECORD
5
408
100
AcDbSymbolTableRecord
100
AcDbBlockTableRecord
2
_JACCONVERT_
0
ENDTAB
0
TABLE
2
LAYER
5
409
100
AcDbSymbolTable
70
10
0
LAYER
5
40a
100
AcDbSymbolTableRecord
100
AcDbLayerTableRecord
2
0
70
0
62
7
6
CONTINUOUS
0
LAYER
5
40b
100
AcDbSymbolTableRecord
100
AcDbLayerTableRecord
2
0-0
70
0
62
7
6
CONTINUOUS
0
LAYER
5
40c
100
AcDbSymbolTableRecord
100
AcDbLayerTableRecord
2
F-F_J_ADD
70
0
62
-7
6
CONTINUOUS
0
ENDTAB
0
ENDSEC
0
SECTION
2
BLOCKS
0
BLOCK
5
40d
100
AcDbEntity
67
1
8
0
100
AcDbBlockBegin
2
*MODEL_SPACE
70
0
10
0.0
20
0.0
30
0.0
3
*MODEL_SPACE
1

0
ENDBLK
5
40e
100
AcDbEntity
8
0
100
AcDbBlockEnd
0
BLOCK
5
40f
100
AcDbEntity
67
1
8
0
100
AcDbBlockBegin
2
*PAPER_SPACE
70
0
10
0.0
20
0.0
30
0.0
3
*PAPER_SPACE
1

0
ENDBLK
5
410
100
AcDbEntity
67
1
8
0
100
AcDbBlockEnd
0
BLOCK
5
411
100
AcDbEntity
8
0
100
AcDbBlockBegin
2
_JACCONVERT_
70
2
10
0.0
20
0.0
30
0.0
3
_JACCONVERT_
1
_JACCONVERT_
0
ATTDEF
5
412
100
AcDbEntity
8
0
62
0
100
AcDbText
10
0.0
20
0.0
30
0.0
40
1.0
1
User:HARUOWAKUDA
100
AcDbAttributeDefinition
3

2
USER
70
8
0
ATTDEF
5
413
100
AcDbEntity
8
0
62
0
100
AcDbText
10
0.0
20
2.0
30
0.0
40
1.0
1
Date:06/09/14 11:36
100
AcDbAttributeDefinition
3

2
REVDATE
70
8
0
ATTDEF
5
414
100
AcDbEntity
8
0
62
0
100
AcDbText
10
0.0
20
4.0
30
0.0
40
1.0
1
File:d_24000_cad_20060914.dxf
100
AcDbAttributeDefinition
3

2
FNAME
70
8
0
ATTDEF
5
415
100
AcDbEntity
8
0
62
0
100
AcDbText
10
0.0
20
6.0
30
0.0
40
1.0
1
JacConvert Version2.75 Copyright (c) 2001-2006 K.Nakahara
100
AcDbAttributeDefinition
3

2
VER
70
8
0
ENDBLK
5
416
100
AcDbEntity
67
1
8
0
100
AcDbBlockEnd
0
ENDSEC
0
SECTION
2
ENTITIES
0
CIRCLE
5
417
100
AcDbEntity
8
0-0
6
CONTINUOUS
62
7
100
AcDbCircle
10
848.639335858124
20
3161.662693775235
30
0.0
40
5.560000000000
0
ELLIPSE
  5
418
100
AcDbEntity
8
0-0
6
CONTINUOUS
62
7
100
AcDbEllipse
10
848.677066604666
20
3161.945952154833
30
0.0
11
24.534999686935
21
0.000000000000
31
0.0
210
0.0
220
0.0
230
1.0
40
0.500000000000
41
0.000000000000
42
6.283185307180
0
LINE
5
419
100
AcDbEntity
8
0-0
6
CONTINUOUS
62
7
100
AcDbLine
10
866.805871046528
20
3172.069470908294
30
0.0
11
862.778958834992
21
3172.069470908294
31
0.0
0
LINE
5
41a
100
AcDbEntity
8
0-0
6
CONTINUOUS
62
7
100
AcDbLine
10
866.805871046528
20
3151.934909850613
30
0.0
11
862.603875695359
21
3151.934909850613
31
0.0
0
LINE
5
41b
100
AcDbEntity
8
0-0
6
CONTINUOUS
62
7
100
AcDbLine
10
866.895997429314
20
3172.019794050382
30
0.0
11
866.895997429314
21
3170.104953356610
31
0.0
0
LINE
5
41c
100
AcDbEntity
8
0-0
6
CONTINUOUS
62
7
100
AcDbLine
10
866.895997429314
20
3153.826514388544
30
0.0
11
866.895997429314
21
3152.032623402030
31
0.0
0
ARC
5
41d
100
AcDbEntity
8
0-0
6
CONTINUOUS
62
7
100
AcDbCircle
10
872.929290624803
20
3179.454702279511
30
0.0
40
9.625929816131
100
AcDbArc
50
231.441277284353
51
308.558722715647
0
ARC
5
41e
100
AcDbEntity
8
0-0
6
CONTINUOUS
62
7
100
AcDbCircle
10
872.929290624803
20
3164.400330844599
30
0.0
40
9.625929816131
100
AcDbArc
50
51.441277284353
51
128.558722715647
0
ARC
5
41f
100
AcDbEntity
8
0-0
6
CONTINUOUS
62
7
100
AcDbCircle
10
872.929290624803
20
3159.585299488806
30
0.0
40
6.440961171922
100
AcDbArc
50
21.324157753203
51
99.333630495641
0
ARC
5
420
100
AcDbEntity
8
0-0
6
CONTINUOUS
62
7
100
AcDbCircle
10
872.929290624803
20
3164.269733635303
30
0.0
40
6.440961171922
100
AcDbArc
50
259.784091500290
51
338.675842246797
0
ARC
5
421
100
AcDbEntity
8
0-0
6
CONTINUOUS
62
7
100
AcDbCircle
10
872.929290624803
20
3144.400330844599
30
0.0
40
9.625929816131
100
AcDbArc
50
51.441277284353
51
128.558722715647
0
ARC
5
422
100
AcDbEntity
8
0-0
6
CONTINUOUS
62
7
100
AcDbCircle
10
872.929290624803
20
3159.454702279511
30
0.0
40
9.625929816131
100
AcDbArc
50
231.441277284353
51
308.558722715647
0
LINE
5
423
100
AcDbEntity
8
0-0
6
CONTINUOUS
62
7
100
AcDbLine
10
878.929290624803
20
3171.927516562055
30
0.0
11
878.929290624803
21
3151.927516562055
31
0.0
0
POLYLINE
5
424
100
AcDbEntity
8
0-0
6
CONTINUOUS
62
  7
100
AcDb2dPolyline
66
1
10
0.0
20
0.0
30
0.0
70
0
0
VERTEX
5
425
100
AcDbEntity
8
0-0
6
CONTINUOUS
62
  7
100
AcDbVertex
100
AcDb2dVertex
10
875.175344870240
20
3170.667449033530
30
0.0
0
VERTEX
5
426
100
AcDbEntity
8
0-0
6
CONTINUOUS
62
  7
100
AcDbVertex
100
AcDb2dVertex
10
878.108183339556
20
3170.272851279123
30
0.0
0
VERTEX
5
427
100
AcDbEntity
8
0-0
6
CONTINUOUS
62
  7
100
AcDbVertex
100
AcDb2dVertex
10
883.162724288104
20
3169.628391577784
30
0.0
0
VERTEX
5
428
100
AcDbEntity
8
0-0
6
CONTINUOUS
62
  7
100
AcDbVertex
100
AcDb2dVertex
10
888.211495508883
20
3169.083602027932
30
0.0
0
VERTEX
5
429
100
AcDbEntity
8
0-0
6
CONTINUOUS
62
  7
100
AcDbVertex
100
AcDb2dVertex
10
893.250845275458
20
3168.701565003925
30
0.0
0
VERTEX
5
42a
100
AcDbEntity
8
0-0
6
CONTINUOUS
62
  7
100
AcDbVertex
100
AcDb2dVertex
10
898.277121861393
20
3168.545362880122
30
0.0
0
VERTEX
5
42b
100
AcDbEntity
8
0-0
6
CONTINUOUS
62
  7
100
AcDbVertex
100
AcDb2dVertex
10
898.653670476369
20
3168.555338564457
30
0.0
0
SEQEND
5
42c
100
AcDbEntity
8
0-0
0
POLYLINE
5
42d
100
AcDbEntity
8
0-0
6
CONTINUOUS
62
  7
100
AcDb2dPolyline
66
1
10
0.0
20
0.0
30
0.0
70
0
0
VERTEX
5
42e
100
AcDbEntity
8
0-0
6
CONTINUOUS
62
  7
100
AcDbVertex
100
AcDb2dVertex
10
875.175344870240
20
3153.588572874423
30
0.0
0
VERTEX
5
42f
100
AcDbEntity
8
0-0
6
CONTINUOUS
62
  7
100
AcDbVertex
100
AcDb2dVertex
10
878.108183339556
20
3153.193975120016
30
0.0
0
VERTEX
5
430
100
AcDbEntity
8
0-0
6
CONTINUOUS
62
  7
100
AcDbVertex
100
AcDb2dVertex
10
883.162724288104
20
3152.549515418677
30
0.0
0
VERTEX
5
431
100
AcDbEntity
8
0-0
6
CONTINUOUS
62
  7
100
AcDbVertex
100
AcDb2dVertex
10
888.211495508883
20
3152.004725868825
30
0.0
0
VERTEX
5
432
100
AcDbEntity
8
0-0
6
CONTINUOUS
62
  7
100
AcDbVertex
100
AcDb2dVertex
10
893.250845275458
20
3151.622688844818
30
0.0
0
VERTEX
5
433
100
AcDbEntity
8
0-0
6
CONTINUOUS
62
  7
100
AcDbVertex
100
AcDb2dVertex
10
898.277121861393
20
3151.466486721016
30
0.0
0
VERTEX
5
434
100
AcDbEntity
8
0-0
6
CONTINUOUS
62
  7
100
AcDbVertex
100
AcDb2dVertex
10
900.728789887862
20
3151.531437341871
30
0.0
0
SEQEND
5
435
100
AcDbEntity
8
0-0
0
CIRCLE
5
436
100
AcDbEntity
8
0-0
6
CONTINUOUS
62
7
100
AcDbCircle
10
1048.513531392410
20
3134.552985050885
30
0.0
40
15.000000000000
0
LINE
5
437
100
AcDbEntity
8
0-0
6
CONTINUOUS
62
7
100
AcDbLine
10
906.013531392409
20
3042.052985050885
30
0.0
11
1191.013531392410
21
3042.052985050885
31
0.0
0
LINE
5
438
100
AcDbEntity
8
0-0
6
CONTINUOUS
62
7
100
AcDbLine
10
918.513531392410
20
3042.052985050885
30
0.0
11
921.013531392410
21
2952.052985050885
31
0.0
0
LINE
5
439
100
AcDbEntity
8
0-0
6
CONTINUOUS
62
7
100
AcDbLine
10
1178.513531392410
20
3042.052985050885
30
0.0
11
1176.013531392410
21
2952.052985050885
31
0.0
0
LINE
5
43a
100
AcDbEntity
8
0-0
6
CONTINUOUS
62
7
100
AcDbLine
10
903.513531392410
20
3222.052985050885
30
0.0
11
1193.513531392410
21
3222.052985050885
31
0.0
0
LINE
5
43b
100
AcDbEntity
8
0-0
6
CONTINUOUS
62
7
100
AcDbLine
10
938.513531392410
20
2967.052985050885
30
0.0
11
963.513531392410
21
2967.052985050885
31
0.0
0
POLYLINE
5
43c
100
AcDbEntity
8
0-0
6
CONTINUOUS
62
  7
100
AcDb2dPolyline
66
1
10
0.0
20
0.0
30
0.0
70
0
0
VERTEX
5
43d
100
AcDbEntity
8
0-0
6
CONTINUOUS
62
  7
100
AcDbVertex
100
AcDb2dVertex
10
938.513531392410
20
2967.052985050885
30
0.0
0
VERTEX
5
43e
100
AcDbEntity
8
0-0
6
CONTINUOUS
62
  7
100
AcDbVertex
100
AcDb2dVertex
10
963.513531392410
20
2967.052985050885
30
0.0
0
VERTEX
5
43f
100
AcDbEntity
8
0-0
6
CONTINUOUS
62
  7
100
AcDbVertex
100
AcDb2dVertex
10
963.513531392410
20
2987.052985050885
30
0.0
0
SEQEND
5
440
100
AcDbEntity
8
0-0
0
LINE
5
441
100
AcDbEntity
8
0-0
6
CONTINUOUS
62
7
100
AcDbLine
10
993.513531392410
20
2962.052985050885
30
0.0
11
993.513531392410
21
2987.052985050885
31
0.0
0
LINE
5
442
100
AcDbEntity
8
0-0
6
CONTINUOUS
62
7
100
AcDbLine
10
968.513531392410
20
2992.052985050885
30
0.0
11
988.513531392409
21
2992.052985050885
31
0.0
0
LINE
5
443
100
AcDbEntity
8
0-0
6
CONTINUOUS
62
7
100
AcDbLine
10
1133.513531392410
20
2967.052985050885
30
0.0
11
1133.513531392410
21
2987.052985050885
31
0.0
0
LINE
5
444
100
AcDbEntity
8
0-0
6
CONTINUOUS
62
7
100
AcDbLine
10
1103.513531392410
20
2962.052985050885
30
0.0
11
1103.513531392410
21
2987.052985050885
31
0.0
0
LINE
5
445
100
AcDbEntity
8
0-0
6
CONTINUOUS
62
7
100
AcDbLine
10
1108.513531392410
20
2992.052985050885
30
0.0
11
1128.513531392410
21
2992.052985050885
31
0.0
0
LINE
5
446
100
AcDbEntity
8
0-0
6
CONTINUOUS
62
7
100
AcDbLine
10
938.513531392410
20
2952.052985050885
30
0.0
11
1158.513531392410
21
2952.052985050885
31
0.0
0
LINE
5
447
100
AcDbEntity
8
0-0
6
CONTINUOUS
62
7
100
AcDbLine
10
951.013531392410
20
2967.052985050885
30
0.0
11
951.013531392410
21
2957.052985050885
31
0.0
0
LINE
5
448
100
AcDbEntity
8
0-0
6
CONTINUOUS
62
7
100
AcDbLine
10
1146.013531392410
20
2967.052985050885
30
0.0
11
1146.013531392410
21
2957.052985050885
31
0.0
0
LINE
5
449
100
AcDbEntity
8
0-0
6
CONTINUOUS
62
7
100
AcDbLine
10
1133.513531392410
20
2967.052985050885
30
0.0
11
1133.513531392410
21
2962.052985050885
31
0.0
0
LINE
5
44a
100
AcDbEntity
8
0-0
6
CONTINUOUS
62
7
100
AcDbLine
10
963.513531392410
20
2967.052985050885
30
0.0
11
963.513531392410
21
2962.052985050885
31
0.0
0
LINE
5
44b
100
AcDbEntity
8
0-0
6
CONTINUOUS
62
7
100
AcDbLine
10
951.013531392410
20
2957.052985050885
30
0.0
11
1146.013531392410
21
2957.052985050885
31
0.0
0
LINE
5
44c
100
AcDbEntity
8
0-0
6
CONTINUOUS
62
7
100
AcDbLine
10
963.513531392410
20
2962.052985050885
30
0.0
11
1133.513531392410
21
2962.052985050885
31
0.0
0
LINE
5
44d
100
AcDbEntity
8
0-0
6
CONTINUOUS
62
7
100
AcDbLine
10
1133.513531392410
20
2967.052985050885
30
0.0
11
1158.513531392410
21
2967.052985050885
31
0.0
0
POLYLINE
5
44e
100
AcDbEntity
8
0-0
6
CONTINUOUS
62
  7
100
AcDb2dPolyline
66
1
10
0.0
20
0.0
30
0.0
70
0
0
VERTEX
5
44f
100
AcDbEntity
8
0-0
6
CONTINUOUS
62
  7
100
AcDbVertex
100
AcDb2dVertex
10
1133.513531392410
20
2967.052985050885
30
0.0
0
VERTEX
5
450
100
AcDbEntity
8
0-0
6
CONTINUOUS
62
  7
100
AcDbVertex
100
AcDb2dVertex
10
1158.513531392410
20
2967.052985050885
30
0.0
0
VERTEX
5
451
100
AcDbEntity
8
0-0
6
CONTINUOUS
62
  7
100
AcDbVertex
100
AcDb2dVertex
10
1158.513531392410
20
2952.052985050885
30
0.0
0
SEQEND
5
452
100
AcDbEntity
8
0-0
0
LINE
5
453
100
AcDbEntity
8
0-0
6
CONTINUOUS
62
7
100
AcDbLine
10
938.513531392410
20
2967.052985050885
30
0.0
11
938.513531392410
21
2952.052985050885
31
0.0
0
LINE
5
454
100
AcDbEntity
8
0-0
6
CONTINUOUS
62
7
100
AcDbLine
10
898.513531392410
20
3217.052985050885
30
0.0
11
901.013531392410
21
3047.052985050885
31
0.0
0
LINE
5
455
100
AcDbEntity
8
0-0
6
CONTINUOUS
62
7
100
AcDbLine
10
1198.513531392410
20
3217.052985050885
30
0.0
11
1196.013531392410
21
3047.052985050885
31
0.0
0
LINE
5
456
100
AcDbEntity
8
0-0
6
CONTINUOUS
62
7
100
AcDbLine
10
906.013531392409
20
3047.052985050885
30
0.0
11
1191.013531392410
21
3047.052985050885
31
0.0
0
ARC
5
457
100
AcDbEntity
8
0-0
6
CONTINUOUS
62
7
100
AcDbCircle
10
1042.303531392410
20
2637.609985050885
30
0.0
40
135.699000000000
100
AcDbArc
50
272.623009619164
51
318.835714706161
0
ARC
5
458
100
AcDbEntity
8
0-0
6
CONTINUOUS
62
7
100
AcDbCircle
10
890.813531392409
20
2771.225985050884
30
0.0
40
337.695000000000
100
AcDbArc
50
318.687177965981
51
392.376159605862
0
ARC
5
459
100
AcDbEntity
8
0-0
6
CONTINUOUS
62
7
100
AcDbCircle
10
988.513531392409
20
2987.052985050885
30
0.0
40
5.000000000000
100
AcDbArc
50
0.000000000000
51
90.000000000000
0
ARC
5
45a
100
AcDbEntity
8
0-0
6
CONTINUOUS
62
7
100
AcDbCircle
10
968.513531392410
20
2987.052985050885
30
0.0
40
5.000000000000
100
AcDbArc
50
90.000000000000
51
180.000000000000
0
ARC
5
45b
100
AcDbEntity
8
0-0
6
CONTINUOUS
62
7
100
AcDbCircle
10
1128.513531392410
20
2987.052985050885
30
0.0
40
5.000000000000
100
AcDbArc
50
0.000000000000
51
90.000000000000
0
ARC
5
45c
100
AcDbEntity
8
0-0
6
CONTINUOUS
62
7
100
AcDbCircle
10
1108.513531392410
20
2987.052985050885
30
0.0
40
5.000000000000
100
AcDbArc
50
90.000000000000
51
180.000000000000
0
ARC
5
45d
100
AcDbEntity
8
0-0
6
CONTINUOUS
62
7
100
AcDbCircle
10
1120.374531392410
20
2797.514985050885
30
0.0
40
247.327000000000
100
AcDbArc
50
142.597893592999
51
183.513898372031
0
ARC
5
45e
100
AcDbEntity
8
0-0
6
CONTINUOUS
62
7
100
AcDbCircle
10
555.294531392410
20
3241.865985050885
30
0.0
40
471.571000000000
100
AcDbArc
50
321.412436371091
51
324.354985905584
0
ARC
5
45f
100
AcDbEntity
8
0-0
6
CONTINUOUS
62
7
100
AcDbCircle
10
1130.360531392410
20
2779.933985050885
30
0.0
40
256.859000000000
100
AcDbArc
50
143.493380269305
51
179.459521265988
0
ARC
5
460
100
AcDbEntity
8
0-0
6
CONTINUOUS
62
7
100
AcDbCircle
10
555.294531392410
20
3226.865985050885
30
0.0
40
471.571000000000
100
AcDbArc
50
321.412436371091
51
324.354985905584
0
ARC
5
461
100
AcDbEntity
8
0-0
6
CONTINUOUS
62
7
100
AcDbCircle
10
966.666531392410
20
2779.933985050885
30
0.0
40
256.859000000000
100
AcDbArc
50
0.540478734012
51
36.506619730695
0
ARC
5
462
100
AcDbEntity
8
0-0
6
CONTINUOUS
62
7
100
AcDbCircle
10
1541.732531392410
20
3226.865985050885
30
0.0
40
471.571000000000
100
AcDbArc
50
215.645014094416
51
218.587563628909
0
ARC
5
463
100
AcDbEntity
8
0-0
6
CONTINUOUS
62
7
100
AcDbCircle
10
976.651531392409
20
2797.514985050885
30
0.0
40
247.327000000000
100
AcDbArc
50
356.486101627969
51
397.402106407001
0
ARC
5
464
100
AcDbEntity
8
0-0
6
CONTINUOUS
62
7
100
AcDbCircle
10
1541.732531392410
20
3241.865985050885
30
0.0
40
471.571000000000
100
AcDbArc
50
215.645014094416
51
218.587563628909
0
ARC
5
465
100
AcDbEntity
8
0-0
6
CONTINUOUS
62
7
100
AcDbCircle
10
1054.723531392410
20
2637.609985050885
30
0.0
40
135.699000000000
100
AcDbArc
50
221.164285060303
51
267.376990147301
0
ARC
5
466
100
AcDbEntity
8
0-0
6
CONTINUOUS
62
7
100
AcDbCircle
10
1206.213531392409
20
2771.225985050884
30
0.0
40
337.695000000000
100
AcDbArc
50
147.623840535182
51
221.312822175062
0
ELLIPSE
  5
467
100
AcDbEntity
8
0-0
6
CONTINUOUS
62
7
100
AcDbEllipse
10
1048.513531392410
20
2782.356985050885
30
0.0
11
0.000000001408
21
275.805000000000
31
0.0
210
0.0
220
0.0
230
1.0
40
0.634505000000
41
1.570796326780
42
4.712388980359
0
CIRCLE
5
468
100
AcDbEntity
8
0-0
6
CONTINUOUS
62
7
100
AcDbCircle
10
1048.513531392410
20
3134.552985050885
30
0.0
40
25.000000000000
0
ARC
5
469
100
AcDbEntity
8
0-0
6
CONTINUOUS
62
7
100
AcDbCircle
10
903.513531392410
20
3217.052985050885
30
0.0
40
5.000000000000
100
AcDbArc
50
90.000000000000
51
180.000000000000
0
ARC
5
46a
100
AcDbEntity
8
0-0
6
CONTINUOUS
62
7
100
AcDbCircle
10
1193.513531392410
20
3217.052985050885
30
0.0
40
5.000000000000
100
AcDbArc
50
0.000000000000
51
90.000000000000
0
ARC
5
46b
100
AcDbEntity
8
0-0
6
CONTINUOUS
62
7
100
AcDbCircle
10
906.013531392409
20
3052.052985050885
30
0.0
40
5.000000000000
100
AcDbArc
50
180.000000000000
51
270.000000000000
0
ARC
5
46c
100
AcDbEntity
8
0-0
6
CONTINUOUS
62
7
100
AcDbCircle
10
1191.013531392410
20
3052.052985050885
30
0.0
40
5.000000000000
100
AcDbArc
50
270.000000000000
51
360.000000000000
0
ARC
5
46d
100
AcDbEntity
8
0-0
6
CONTINUOUS
62
7
100
AcDbCircle
10
1191.013531392410
20
3047.052985050885
30
0.0
40
5.000000000000
100
AcDbArc
50
270.000000000000
51
360.000000000000
0
ARC
5
46e
100
AcDbEntity
8
0-0
6
CONTINUOUS
62
7
100
AcDbCircle
10
906.013531392409
20
3047.052985050885
30
0.0
40
5.000000000000
100
AcDbArc
50
180.000000000000
51
270.000000000000
0
LINE
5
46f
100
AcDbEntity
8
0-0
6
CONTINUOUS
62
7
100
AcDbLine
10
873.667326083251
20
3149.746915429707
30
0.0
11
899.881443205909
21
3149.008489595266
31
0.0
0
LINE
5
470
100
AcDbEntity
8
0-0
6
CONTINUOUS
62
7
100
AcDbLine
10
885.112926517088
20
3165.623070870190
30
0.0
11
898.773804454248
21
3165.253857952969
31
0.0
0
LINE
5
471
100
AcDbEntity
8
0-0
6
CONTINUOUS
62
7
100
AcDbLine
10
789.147765307122
20
1721.311168541069
30
0.0
11
844.753453291984
21
1721.311168541069
31
0.0
0
POLYLINE
5
472
100
AcDbEntity
8
0-0
6
CONTINUOUS
62
  7
100
AcDb2dPolyline
66
1
10
0.0
20
0.0
30
0.0
70
0
0
VERTEX
5
473
100
AcDbEntity
8
0-0
6
CONTINUOUS
62
  7
100
AcDbVertex
100
AcDb2dVertex
10
819.039514960896
20
1668.781548363864
30
0.0
0
VERTEX
5
474
100
AcDbEntity
8
0-0
6
CONTINUOUS
62
  7
100
AcDbVertex
100
AcDb2dVertex
10
823.446076016441
20
1668.280919126520
30
0.0
0
VERTEX
5
475
100
AcDbEntity
8
0-0
6
CONTINUOUS
62
  7
100
AcDbVertex
100
AcDb2dVertex
10
831.044245567351
20
1667.433655471722
30
0.0
0
VERTEX
5
476
100
AcDbEntity
8
0-0
6
CONTINUOUS
62
  7
100
AcDbVertex
100
AcDb2dVertex
10
838.644222033889
20
1666.630531268846
30
0.0
0
VERTEX
5
477
100
AcDbEntity
8
0-0
6
CONTINUOUS
62
  7
100
AcDbVertex
100
AcDb2dVertex
10
846.247149033537
20
1665.899482879869
30
0.0
0
VERTEX
5
478
100
AcDbEntity
8
0-0
6
CONTINUOUS
62
  7
100
AcDbVertex
100
AcDb2dVertex
10
853.854170183782
20
1665.268446666767
30
0.0
0
VERTEX
5
479
100
AcDbEntity
8
0-0
6
CONTINUOUS
62
  7
100
AcDbVertex
100
AcDb2dVertex
10
861.466429102108
20
1664.765358991516
30
0.0
0
VERTEX
5
47a
100
AcDbEntity
8
0-0
6
CONTINUOUS
62
  7
100
AcDbVertex
100
AcDb2dVertex
10
865.884389864830
20
1664.543202539223
30
0.0
0
VERTEX
5
47b
100
AcDbEntity
8
0-0
6
CONTINUOUS
62
  7
100
AcDbVertex
100
AcDb2dVertex
10
870.873977338902
20
1664.359809212311
30
0.0
0
VERTEX
5
47c
100
AcDbEntity
8
0-0
6
CONTINUOUS
62
  7
100
AcDbVertex
100
AcDb2dVertex
10
879.482976349749
20
1664.196582034782
30
0.0
0
VERTEX
5
47d
100
AcDbEntity
8
0-0
6
CONTINUOUS
62
  7
100
AcDbVertex
100
AcDb2dVertex
10
885.764845664645
20
1664.196430920716
30
0.0
0
SEQEND
5
47e
100
AcDbEntity
8
0-0
0
POLYLINE
5
47f
100
AcDbEntity
8
0-0
6
CONTINUOUS
62
  7
100
AcDb2dPolyline
66
1
10
0.0
20
0.0
30
0.0
70
0
0
VERTEX
5
480
100
AcDbEntity
8
0-0
6
CONTINUOUS
62
  7
100
AcDbVertex
100
AcDb2dVertex
10
818.752678592909
20
1652.796627242748
30
0.0
0
VERTEX
5
481
100
AcDbEntity
8
0-0
6
CONTINUOUS
62
  7
100
AcDbVertex
100
AcDb2dVertex
10
823.159239648453
20
1652.295998005403
30
0.0
0
VERTEX
5
482
100
AcDbEntity
8
0-0
6
CONTINUOUS
62
  7
100
AcDbVertex
100
AcDb2dVertex
10
830.757409199364
20
1651.448734350605
30
0.0
0
VERTEX
5
483
100
AcDbEntity
8
0-0
6
CONTINUOUS
62
  7
100
AcDbVertex
100
AcDb2dVertex
10
838.357385665901
20
1650.645610147729
30
0.0
0
VERTEX
5
484
100
AcDbEntity
8
0-0
6
CONTINUOUS
62
  7
100
AcDbVertex
100
AcDb2dVertex
10
845.960312665550
20
1649.914561758752
30
0.0
0
VERTEX
5
485
100
AcDbEntity
8
0-0
6
CONTINUOUS
62
  7
100
AcDbVertex
100
AcDb2dVertex
10
853.567333815795
20
1649.283525545650
30
0.0
0
VERTEX
5
486
100
AcDbEntity
8
0-0
6
CONTINUOUS
62
  7
100
AcDbVertex
100
AcDb2dVertex
10
861.179592734121
20
1648.780437870398
30
0.0
0
VERTEX
5
487
100
AcDbEntity
8
0-0
6
CONTINUOUS
62
  7
100
AcDbVertex
100
AcDb2dVertex
10
865.597553496843
20
1648.558281418106
30
0.0
0
VERTEX
5
488
100
AcDbEntity
8
0-0
6
CONTINUOUS
62
  7
100
AcDbVertex
100
AcDb2dVertex
10
870.587140970916
20
1648.374888091194
30
0.0
0
VERTEX
5
489
100
AcDbEntity
8
0-0
6
CONTINUOUS
62
  7
100
AcDbVertex
100
AcDb2dVertex
10
873.693175473061
20
1648.315997476333
30
0.0
0
SEQEND
5
48a
100
AcDbEntity
8
0-0
0
ARC
5
48b
100
AcDbEntity
8
0-0
6
CONTINUOUS
62
7
100
AcDbCircle
10
817.159630594627
20
1660.780586442907
30
0.0
40
8.000000000000
100
AcDbArc
50
87.277996028082
51
269.278324649109
0
LINE
5
48c
100
AcDbEntity
8
0-0
6
CONTINUOUS
62
7
100
AcDbLine
10
822.421449727722
20
1670.010888609422
30
0.0
11
811.921449727722
21
1670.010888609422
31
0.0
0
LINE
5
48d
100
AcDbEntity
8
0-0
6
CONTINUOUS
62
7
100
AcDbLine
10
823.501083587464
20
1668.140907910777
30
0.0
11
822.421449727722
21
1670.010888609422
31
0.0
0
LINE
5
48e
100
AcDbEntity
8
0-0
6
CONTINUOUS
62
7
100
AcDbLine
10
829.099497102063
20
1675.011792625049
30
0.0
11
829.099497102063
21
1667.434549810293
31
0.0
0
LINE
5
48f
100
AcDbEntity
8
0-0
6
CONTINUOUS
62
7
100
AcDbLine
10
829.099497102063
20
1651.494882037323
30
0.0
11
829.099497102063
21
1645.862715414567
31
0.0
0
POLYLINE
5
490
100
AcDbEntity
8
0-0
6
CONTINUOUS
62
  7
100
AcDb2dPolyline
66
1
10
0.0
20
0.0
30
0.0
70
0
0
VERTEX
5
491
100
AcDbEntity
8
0-0
6
CONTINUOUS
62
  7
100
AcDbVertex
100
AcDb2dVertex
10
811.921449727722
20
1670.010888609422
30
0.0
0
VERTEX
5
492
100
AcDbEntity
8
0-0
6
CONTINUOUS
62
  7
100
AcDbVertex
100
AcDb2dVertex
10
806.671449727722
20
1660.917621869685
30
0.0
0
VERTEX
5
493
100
AcDbEntity
8
0-0
6
CONTINUOUS
62
  7
100
AcDbVertex
100
AcDb2dVertex
10
811.921449727722
20
1651.824355129949
30
0.0
0
VERTEX
5
494
100
AcDbEntity
8
0-0
6
CONTINUOUS
62
  7
100
AcDbVertex
100
AcDb2dVertex
10
822.421449727722
20
1651.824355129949
30
0.0
0
SEQEND
5
495
100
AcDbEntity
8
0-0
0
LINE
5
496
100
AcDbEntity
8
0-0
6
CONTINUOUS
62
7
100
AcDbLine
10
804.359239524822
20
1645.786113509669
30
0.0
11
829.359239524822
21
1645.786113509669
31
0.0
0
LINE
5
497
100
AcDbEntity
8
0-0
6
CONTINUOUS
62
7
100
AcDbLine
10
800.899471509681
20
1709.593871711025
30
0.0
11
832.899471509681
21
1709.593871711025
31
0.0
0
ARC
5
498
100
AcDbEntity
8
0-0
6
CONTINUOUS
62
7
100
AcDbCircle
10
832.899471509681
20
1721.593871711025
30
0.0
40
12.000000000000
100
AcDbArc
50
270.000000000000
51
360.000000000000
0
ARC
5
499
100
AcDbEntity
8
0-0
6
CONTINUOUS
62
7
100
AcDbCircle
10
800.899471509681
20
1721.593871711025
30
0.0
40
12.000000000000
100
AcDbArc
50
180.000000000000
51
270.000000000000
0
LINE
5
49a
100
AcDbEntity
8
0-0
6
CONTINUOUS
62
7
100
AcDbLine
10
829.359239524822
20
1675.078579292799
30
0.0
11
804.359239524822
21
1675.078579292799
31
0.0
0
LINE
5
49b
100
AcDbEntity
8
0-0
6
CONTINUOUS
62
7
100
AcDbLine
10
804.359239524822
20
1683.078579292799
30
0.0
11
829.359239524822
21
1683.078579292799
31
0.0
0
ARC
5
49c
100
AcDbEntity
8
0-0
6
CONTINUOUS
62
7
100
AcDbCircle
10
816.908499271748
20
1679.038901365713
30
0.0
40
13.134414676531
100
AcDbArc
50
162.276763383113
51
197.297564485525
0
ARC
5
49d
100
AcDbEntity
8
0-0
6
CONTINUOUS
62
7
100
AcDbCircle
10
816.908499271748
20
1679.038901365713
30
0.0
40
13.134414676531
100
AcDbArc
50
342.521885466274
51
378.017609214690
0
CIRCLE
5
49e
100
AcDbEntity
8
0-0
6
CONTINUOUS
62
7
100
AcDbCircle
10
816.892041064455
20
1679.051619071349
30
0.0
40
3.389457447208
0
ARC
5
49f
100
AcDbEntity
8
0-0
6
CONTINUOUS
62
7
100
AcDbCircle
10
829.560634951990
20
1679.054882612083
30
0.0
40
3.389457447208
100
AcDbArc
50
89.971509582607
51
269.978070214998
0
ARC
5
4a0
100
AcDbEntity
8
0-0
6
CONTINUOUS
62
7
100
AcDbCircle
10
804.251274109213
20
1679.041118359428
30
0.0
40
3.389457447208
100
AcDbArc
50
270.339830380176
51
449.767752220994
0
LINE
5
4a1
100
AcDbEntity
8
0-0
6
CONTINUOUS
62
7
100
AcDbLine
10
824.899471509681
20
1709.116578196009
30
0.0
11
824.899471509681
21
1683.217000633190
31
0.0
0
LINE
5
4a2
100
AcDbEntity
8
0-0
6
CONTINUOUS
62
7
100
AcDbLine
10
808.899471509681
20
1709.364807576665
30
0.0
11
808.899471509681
21
1683.151120969038
31
0.0
0
ARC
5
4a3
100
AcDbEntity
8
0-0
6
CONTINUOUS
62
7
100
AcDbCircle
10
812.579471509681
20
1614.112409810277
30
0.0
40
3.240000000000
100
AcDbArc
50
180.000000000000
51
270.000000000000
0
ARC
5
4a4
100
AcDbEntity
8
0-0
6
CONTINUOUS
62
7
100
AcDbCircle
10
821.219471509680
20
1614.112409810277
30
0.0
40
3.240000000000
100
AcDbArc
50
270.000000000000
51
360.000000000000
0
LINE
5
4a5
100
AcDbEntity
8
0-0
6
CONTINUOUS
62
7
100
AcDbLine
10
812.579471509681
20
1610.872409810276
30
0.0
11
821.219471509680
21
1610.872409810276
31
0.0
0
ARC
5
4a6
100
AcDbEntity
8
0-0
6
CONTINUOUS
62
7
100
AcDbCircle
10
838.790424596211
20
1620.141775009188
30
0.0
40
3.000000000000
100
AcDbArc
50
0.000000000000
51
90.000000000000
0
LINE
5
4a7
100
AcDbEntity
8
0-0
6
CONTINUOUS
62
7
100
AcDbLine
10
841.790424596211
20
1617.141775009188
30
0.0
11
841.790424596211
21
1620.141775009188
31
0.0
0
ARC
5
4a8
100
AcDbEntity
8
0-0
6
CONTINUOUS
62
7
100
AcDbCircle
10
838.790424596211
20
1617.141775009188
30
0.0
40
3.000000000000
100
AcDbArc
50
270.000000000000
51
360.000000000000
0
LINE
5
4a9
100
AcDbEntity
8
0-0
6
CONTINUOUS
62
7
100
AcDbLine
10
794.790424596211
20
1623.141775009188
30
0.0
11
838.790424596211
21
1623.141775009188
31
0.0
0
ARC
5
4aa
100
AcDbEntity
8
0-0
6
CONTINUOUS
62
7
100
AcDbCircle
10
794.790424596211
20
1620.141775009188
30
0.0
40
3.000000000000
100
AcDbArc
50
90.000000000000
51
180.000000000000
0
LINE
5
4ab
100
AcDbEntity
8
0-0
6
CONTINUOUS
62
7
100
AcDbLine
10
791.790424596211
20
1617.141775009188
30
0.0
11
791.790424596211
21
1620.141775009188
31
0.0
0
LINE
5
4ac
100
AcDbEntity
8
0-0
6
CONTINUOUS
62
7
100
AcDbLine
10
794.790424596211
20
1614.141775009188
30
0.0
11
838.790424596211
21
1614.141775009188
31
0.0
0
ARC
5
4ad
100
AcDbEntity
8
0-0
6
CONTINUOUS
62
7
100
AcDbCircle
10
794.790424596211
20
1617.141775009188
30
0.0
40
3.000000000000
100
AcDbArc
50
180.000000000000
51
270.000000000000
0
ARC
5
4ae
100
AcDbEntity
8
0-0
6
CONTINUOUS
62
7
100
AcDbCircle
10
816.908499271748
20
1641.746435582583
30
0.0
40
13.134414676531
100
AcDbArc
50
162.276763383113
51
197.297564485525
0
ARC
5
4af
100
AcDbEntity
8
0-0
6
CONTINUOUS
62
7
100
AcDbCircle
10
816.908499271748
20
1641.746435582583
30
0.0
40
13.134414676531
100
AcDbArc
50
342.521885466274
51
378.017609214690
0
CIRCLE
5
4b0
100
AcDbEntity
8
0-0
6
CONTINUOUS
62
7
100
AcDbCircle
10
816.892041064454
20
1641.759153288219
30
0.0
40
3.389457447208
0
ARC
5
4b1
100
AcDbEntity
8
0-0
6
CONTINUOUS
62
7
100
AcDbCircle
10
829.560634951990
20
1641.762416828952
30
0.0
40
3.389457447208
100
AcDbArc
50
89.971509582607
51
269.978070214998
0
ARC
5
4b2
100
AcDbEntity
8
0-0
6
CONTINUOUS
62
7
100
AcDbCircle
10
804.251274109212
20
1641.748652576298
30
0.0
40
3.389457447208
100
AcDbArc
50
270.339830380176
51
449.767752220994
0
LINE
5
4b3
100
AcDbEntity
8
0-0
6
CONTINUOUS
62
7
100
AcDbLine
10
829.256653075208
20
1638.059729717148
30
0.0
11
804.388777476824
21
1638.059729717148
31
0.0
0
POLYLINE
5
4b4
100
AcDbEntity
8
0-0
6
CONTINUOUS
62
  7
100
AcDb2dPolyline
66
1
10
0.0
20
0.0
30
0.0
70
0
0
VERTEX
5
4b5
100
AcDbEntity
8
0-0
6
CONTINUOUS
62
  7
100
AcDbVertex
100
AcDb2dVertex
10
829.428286297173
20
1638.063482915992
30
0.0
0
VERTEX
5
4b6
100
AcDbEntity
8
0-0
6
CONTINUOUS
62
  7
100
AcDbVertex
100
AcDb2dVertex
10
828.956217203074
20
1637.788335144187
30
0.0
0
VERTEX
5
4b7
100
AcDbEntity
8
0-0
6
CONTINUOUS
62
  7
100
AcDbVertex
100
AcDb2dVertex
10
828.144312097895
20
1637.311195896743
30
0.0
0
VERTEX
5
4b8
100
AcDbEntity
8
0-0
6
CONTINUOUS
62
  7
100
AcDbVertex
100
AcDb2dVertex
10
827.337982342785
20
1636.826427378644
30
0.0
0
VERTEX
5
4b9
100
AcDbEntity
8
0-0
6
CONTINUOUS
62
  7
100
AcDbVertex
100
AcDb2dVertex
10
826.540756640320
20
1636.329200937577
30
0.0
0
VERTEX
5
4ba
100
AcDbEntity
8
0-0
6
CONTINUOUS
62
  7
100
AcDbVertex
100
AcDb2dVertex
10
825.756163693074
20
1635.814687921229
30
0.0
0
VERTEX
5
4bb
100
AcDbEntity
8
0-0
6
CONTINUOUS
62
  7
100
AcDbVertex
100
AcDb2dVertex
10
824.987732203623
20
1635.278059677287
30
0.0
0
VERTEX
5
4bc
100
AcDbEntity
8
0-0
6
CONTINUOUS
62
  7
100
AcDbVertex
100
AcDb2dVertex
10
824.550837612011
20
1634.954779358416
30
0.0
0
VERTEX
5
4bd
100
AcDbEntity
8
0-0
6
CONTINUOUS
62
  7
100
AcDbVertex
100
AcDb2dVertex
10
824.301109546616
20
1634.763166704819
30
0.0
0
VERTEX
5
4be
100
AcDbEntity
8
0-0
6
CONTINUOUS
62
  7
100
AcDbVertex
100
AcDb2dVertex
10
823.875627984752
20
1634.425843056857
30
0.0
0
VERTEX
5
4bf
100
AcDbEntity
8
0-0
6
CONTINUOUS
62
  7
100
AcDbVertex
100
AcDb2dVertex
10
823.455564570697
20
1634.081105252732
30
0.0
0
VERTEX
5
4c0
100
AcDbEntity
8
0-0
6
CONTINUOUS
62
  7
100
AcDbVertex
100
AcDb2dVertex
10
823.039736302746
20
1633.730572103832
30
0.0
0
VERTEX
5
4c1
100
AcDbEntity
8
0-0
6
CONTINUOUS
62
  7
100
AcDbVertex
100
AcDb2dVertex
10
822.626960179193
20
1633.375862421548
30
0.0
0
VERTEX
5
4c2
100
AcDbEntity
8
0-0
6
CONTINUOUS
62
  7
100
AcDbVertex
100
AcDb2dVertex
10
822.216053198335
20
1633.018595017268
30
0.0
0
VERTEX
5
4c3
100
AcDbEntity
8
0-0
6
CONTINUOUS
62
  7
100
AcDbVertex
100
AcDb2dVertex
10
821.978117426431
20
1632.810845870433
30
0.0
0
SEQEND
5
4c4
100
AcDbEntity
8
0-0
0
LINE
5
4c5
100
AcDbEntity
8
0-0
6
CONTINUOUS
62
7
100
AcDbLine
10
811.899471509681
20
1632.780760994451
30
0.0
11
821.899471509681
21
1632.780760994451
31
0.0
0
POLYLINE
5
4c6
100
AcDbEntity
8
0-0
6
CONTINUOUS
62
  7
100
AcDb2dPolyline
66
1
10
0.0
20
0.0
30
0.0
70
0
0
VERTEX
5
4c7
100
AcDbEntity
8
0-0
6
CONTINUOUS
62
  7
100
AcDbVertex
100
AcDb2dVertex
10
804.290666150569
20
1638.009884578793
30
0.0
0
VERTEX
5
4c8
100
AcDbEntity
8
0-0
6
CONTINUOUS
62
  7
100
AcDbVertex
100
AcDb2dVertex
10
804.782231692988
20
1637.751197667639
30
0.0
0
VERTEX
5
4c9
100
AcDbEntity
8
0-0
6
CONTINUOUS
62
  7
100
AcDbVertex
100
AcDb2dVertex
10
805.627069744363
20
1637.301442962637
30
0.0
0
VERTEX
5
4ca
100
AcDbEntity
8
0-0
6
CONTINUOUS
62
  7
100
AcDbVertex
100
AcDb2dVertex
10
806.464439057130
20
1636.841291620915
30
0.0
0
VERTEX
5
4cb
100
AcDbEntity
8
0-0
6
CONTINUOUS
62
  7
100
AcDbVertex
100
AcDb2dVertex
10
807.289612581537
20
1636.364163492648
30
0.0
0
VERTEX
5
4cc
100
AcDbEntity
8
0-0
6
CONTINUOUS
62
  7
100
AcDbVertex
100
AcDb2dVertex
10
808.097863267833
20
1635.863478428013
30
0.0
0
VERTEX
5
4cd
100
AcDbEntity
8
0-0
6
CONTINUOUS
62
  7
100
AcDbVertex
100
AcDb2dVertex
10
808.884464066266
20
1635.332656277186
30
0.0
0
VERTEX
5
4ce
100
AcDbEntity
8
0-0
6
CONTINUOUS
62
  7
100
AcDbVertex
100
AcDb2dVertex
10
809.328909847329
20
1635.008377695616
30
0.0
0
VERTEX
5
4cf
100
AcDbEntity
8
0-0
6
CONTINUOUS
62
  7
100
AcDbVertex
100
AcDb2dVertex
10
809.586607083342
20
1634.810917133500
30
0.0
0
VERTEX
5
4d0
100
AcDbEntity
8
0-0
6
CONTINUOUS
62
  7
100
AcDbVertex
100
AcDb2dVertex
10
810.023845184729
20
1634.460629814794
30
0.0
0
VERTEX
5
4d1
100
AcDbEntity
8
0-0
6
CONTINUOUS
62
  7
100
AcDbVertex
100
AcDb2dVertex
10
810.453551396461
20
1634.099857951819
30
0.0
0
VERTEX
5
4d2
100
AcDbEntity
8
0-0
6
CONTINUOUS
62
  7
100
AcDbVertex
100
AcDb2dVertex
10
810.877370235930
20
1633.730890746381
30
0.0
0
VERTEX
5
4d3
100
AcDbEntity
8
0-0
6
CONTINUOUS
62
  7
100
AcDbVertex
100
AcDb2dVertex
10
811.296946220527
20
1633.356017400285
30
0.0
0
VERTEX
5
4d4
100
AcDbEntity
8
0-0
6
CONTINUOUS
62
  7
100
AcDbVertex
100
AcDb2dVertex
10
811.713923867646
20
1632.977527115336
30
0.0
0
VERTEX
5
4d5
100
AcDbEntity
8
0-0
6
CONTINUOUS
62
  7
100
AcDbVertex
100
AcDb2dVertex
10
811.955228370109
20
1632.757247533234
30
0.0
0
SEQEND
5
4d6
100
AcDbEntity
8
0-0
0
LINE
5
4d7
100
AcDbEntity
8
0-0
6
CONTINUOUS
62
7
100
AcDbLine
10
820.899471509681
20
1632.802634747861
30
0.0
11
820.899471509681
21
1623.069541271700
31
0.0
0
LINE
5
4d8
100
AcDbEntity
8
0-0
6
CONTINUOUS
62
7
100
AcDbLine
10
812.899471509681
20
1632.869892900230
30
0.0
11
812.899471509681
21
1623.069541271700
31
0.0
0
LINE
5
4d9
100
AcDbEntity
8
0-0
6
CONTINUOUS
62
7
100
AcDbLine
10
804.508201820373
20
1674.991578197596
30
0.0
11
804.508201820373
21
1645.798133791707
31
0.0
0
LINE
5
4da
100
AcDbEntity
8
0-0
6
CONTINUOUS
62
7
100
AcDbLine
10
822.421449727722
20
1651.824355129949
30
0.0
11
822.614239971789
21
1652.158277627877
31
0.0
0
CIRCLE
5
4db
100
AcDbEntity
8
0-0
6
CONTINUOUS
62
7
100
AcDbCircle
10
1048.513531392410
20
1633.112972818082
30
0.0
40
15.000000000000
0
LINE
5
4dc
100
AcDbEntity
8
0-0
6
CONTINUOUS
62
7
100
AcDbLine
10
906.013531392409
20
1540.612972818082
30
0.0
11
1191.013531392410
21
1540.612972818082
31
0.0
0
LINE
5
4dd
100
AcDbEntity
8
0-0
6
CONTINUOUS
62
7
100
AcDbLine
10
918.513531392410
20
1540.612972818082
30
0.0
11
921.013531392410
21
1450.612972818082
31
0.0
0
LINE
5
4de
100
AcDbEntity
8
0-0
6
CONTINUOUS
62
7
100
AcDbLine
10
1178.513531392410
20
1540.612972818082
30
0.0
11
1176.013531392410
21
1450.612972818082
31
0.0
0
LINE
5
4df
100
AcDbEntity
8
0-0
6
CONTINUOUS
62
7
100
AcDbLine
10
903.513531392410
20
1720.612972818082
30
0.0
11
1193.513531392410
21
1720.612972818082
31
0.0
0
LINE
5
4e0
100
AcDbEntity
8
0-0
6
CONTINUOUS
62
7
100
AcDbLine
10
938.513531392410
20
1465.612972818082
30
0.0
11
963.513531392410
21
1465.612972818082
31
0.0
0
POLYLINE
5
4e1
100
AcDbEntity
8
0-0
6
CONTINUOUS
62
  7
100
AcDb2dPolyline
66
1
10
0.0
20
0.0
30
0.0
70
0
0
VERTEX
5
4e2
100
AcDbEntity
8
0-0
6
CONTINUOUS
62
  7
100
AcDbVertex
100
AcDb2dVertex
10
938.513531392410
20
1465.612972818082
30
0.0
0
VERTEX
5
4e3
100
AcDbEntity
8
0-0
6
CONTINUOUS
62
  7
100
AcDbVertex
100
AcDb2dVertex
10
963.513531392410
20
1465.612972818082
30
0.0
0
VERTEX
5
4e4
100
AcDbEntity
8
0-0
6
CONTINUOUS
62
  7
100
AcDbVertex
100
AcDb2dVertex
10
963.513531392410
20
1485.612972818082
30
0.0
0
SEQEND
5
4e5
100
AcDbEntity
8
0-0
0
LINE
5
4e6
100
AcDbEntity
8
0-0
6
CONTINUOUS
62
7
100
AcDbLine
10
993.513531392410
20
1460.612972818082
30
0.0
11
993.513531392410
21
1485.612972818082
31
0.0
0
LINE
5
4e7
100
AcDbEntity
8
0-0
6
CONTINUOUS
62
7
100
AcDbLine
10
968.513531392410
20
1490.612972818082
30
0.0
11
988.513531392409
21
1490.612972818082
31
0.0
0
LINE
5
4e8
100
AcDbEntity
8
0-0
6
CONTINUOUS
62
7
100
AcDbLine
10
1133.513531392410
20
1465.612972818082
30
0.0
11
1133.513531392410
21
1485.612972818082
31
0.0
0
LINE
5
4e9
100
AcDbEntity
8
0-0
6
CONTINUOUS
62
7
100
AcDbLine
10
1103.513531392410
20
1460.612972818082
30
0.0
11
1103.513531392410
21
1485.612972818082
31
0.0
0
LINE
5
4ea
100
AcDbEntity
8
0-0
6
CONTINUOUS
62
7
100
AcDbLine
10
1108.513531392410
20
1490.612972818082
30
0.0
11
1128.513531392410
21
1490.612972818082
31
0.0
0
LINE
5
4eb
100
AcDbEntity
8
0-0
6
CONTINUOUS
62
7
100
AcDbLine
10
938.513531392410
20
1450.612972818082
30
0.0
11
1158.513531392410
21
1450.612972818082
31
0.0
0
LINE
5
4ec
100
AcDbEntity
8
0-0
6
CONTINUOUS
62
7
100
AcDbLine
10
951.013531392410
20
1465.612972818082
30
0.0
11
951.013531392410
21
1455.612972818082
31
0.0
0
LINE
5
4ed
100
AcDbEntity
8
0-0
6
CONTINUOUS
62
7
100
AcDbLine
10
1146.013531392410
20
1465.612972818082
30
0.0
11
1146.013531392410
21
1455.612972818082
31
0.0
0
LINE
5
4ee
100
AcDbEntity
8
0-0
6
CONTINUOUS
62
7
100
AcDbLine
10
1133.513531392410
20
1465.612972818082
30
0.0
11
1133.513531392410
21
1460.612972818082
31
0.0
0
LINE
5
4ef
100
AcDbEntity
8
0-0
6
CONTINUOUS
62
7
100
AcDbLine
10
963.513531392410
20
1465.612972818082
30
0.0
11
963.513531392410
21
1460.612972818082
31
0.0
0
LINE
5
4f0
100
AcDbEntity
8
0-0
6
CONTINUOUS
62
7
100
AcDbLine
10
951.013531392410
20
1455.612972818082
30
0.0
11
1146.013531392410
21
1455.612972818082
31
0.0
0
LINE
5
4f1
100
AcDbEntity
8
0-0
6
CONTINUOUS
62
7
100
AcDbLine
10
963.513531392410
20
1460.612972818082
30
0.0
11
1133.513531392410
21
1460.612972818082
31
0.0
0
LINE
5
4f2
100
AcDbEntity
8
0-0
6
CONTINUOUS
62
7
100
AcDbLine
10
1133.513531392410
20
1465.612972818082
30
0.0
11
1158.513531392410
21
1465.612972818082
31
0.0
0
POLYLINE
5
4f3
100
AcDbEntity
8
0-0
6
CONTINUOUS
62
  7
100
AcDb2dPolyline
66
1
10
0.0
20
0.0
30
0.0
70
0
0
VERTEX
5
4f4
100
AcDbEntity
8
0-0
6
CONTINUOUS
62
  7
100
AcDbVertex
100
AcDb2dVertex
10
1133.513531392410
20
1465.612972818082
30
0.0
0
VERTEX
5
4f5
100
AcDbEntity
8
0-0
6
CONTINUOUS
62
  7
100
AcDbVertex
100
AcDb2dVertex
10
1158.513531392410
20
1465.612972818082
30
0.0
0
VERTEX
5
4f6
100
AcDbEntity
8
0-0
6
CONTINUOUS
62
  7
100
AcDbVertex
100
AcDb2dVertex
10
1158.513531392410
20
1450.612972818082
30
0.0
0
SEQEND
5
4f7
100
AcDbEntity
8
0-0
0
LINE
5
4f8
100
AcDbEntity
8
0-0
6
CONTINUOUS
62
7
100
AcDbLine
10
938.513531392410
20
1465.612972818082
30
0.0
11
938.513531392410
21
1450.612972818082
31
0.0
0
LINE
5
4f9
100
AcDbEntity
8
0-0
6
CONTINUOUS
62
7
100
AcDbLine
10
898.513531392410
20
1715.612972818082
30
0.0
11
901.013531392410
21
1545.612972818082
31
0.0
0
LINE
5
4fa
100
AcDbEntity
8
0-0
6
CONTINUOUS
62
7
100
AcDbLine
10
1198.513531392410
20
1715.612972818082
30
0.0
11
1196.013531392410
21
1545.612972818082
31
0.0
0
LINE
5
4fb
100
AcDbEntity
8
0-0
6
CONTINUOUS
62
7
100
AcDbLine
10
906.013531392409
20
1545.612972818082
30
0.0
11
1191.013531392410
21
1545.612972818082
31
0.0
0
ARC
5
4fc
100
AcDbEntity
8
0-0
6
CONTINUOUS
62
7
100
AcDbCircle
10
1042.303531392410
20
1136.169972818082
30
0.0
40
135.699000000000
100
AcDbArc
50
272.623009619164
51
318.835714706161
0
ARC
5
4fd
100
AcDbEntity
8
0-0
6
CONTINUOUS
62
7
100
AcDbCircle
10
890.813531392409
20
1269.785972818081
30
0.0
40
337.695000000000
100
AcDbArc
50
318.687177965981
51
392.376159605862
0
ARC
5
4fe
100
AcDbEntity
8
0-0
6
CONTINUOUS
62
7
100
AcDbCircle
10
988.513531392409
20
1485.612972818082
30
0.0
40
5.000000000000
100
AcDbArc
50
0.000000000000
51
90.000000000000
0
ARC
5
4ff
100
AcDbEntity
8
0-0
6
CONTINUOUS
62
7
100
AcDbCircle
10
968.513531392410
20
1485.612972818082
30
0.0
40
5.000000000000
100
AcDbArc
50
90.000000000000
51
180.000000000000
0
ARC
5
500
100
AcDbEntity
8
0-0
6
CONTINUOUS
62
7
100
AcDbCircle
10
1128.513531392410
20
1485.612972818082
30
0.0
40
5.000000000000
100
AcDbArc
50
0.000000000000
51
90.000000000000
0
ARC
5
501
100
AcDbEntity
8
0-0
6
CONTINUOUS
62
7
100
AcDbCircle
10
1108.513531392410
20
1485.612972818082
30
0.0
40
5.000000000000
100
AcDbArc
50
90.000000000000
51
180.000000000000
0
ARC
5
502
100
AcDbEntity
8
0-0
6
CONTINUOUS
62
7
100
AcDbCircle
10
1120.374531392410
20
1296.074972818082
30
0.0
40
247.327000000000
100
AcDbArc
50
142.597893592999
51
183.513898372031
0
ARC
5
503
100
AcDbEntity
8
0-0
6
CONTINUOUS
62
7
100
AcDbCircle
10
555.294531392410
20
1740.425972818082
30
0.0
40
471.571000000000
100
AcDbArc
50
321.412436371091
51
324.354985905584
0
ARC
5
504
100
AcDbEntity
8
0-0
6
CONTINUOUS
62
7
100
AcDbCircle
10
1130.360531392410
20
1278.493972818082
30
0.0
40
256.859000000000
100
AcDbArc
50
143.493380269305
51
179.459521265988
0
ARC
5
505
100
AcDbEntity
8
0-0
6
CONTINUOUS
62
7
100
AcDbCircle
10
555.294531392410
20
1725.425972818082
30
0.0
40
471.571000000000
100
AcDbArc
50
321.412436371091
51
324.354985905584
0
ARC
5
506
100
AcDbEntity
8
0-0
6
CONTINUOUS
62
7
100
AcDbCircle
10
966.666531392410
20
1278.493972818082
30
0.0
40
256.859000000000
100
AcDbArc
50
0.540478734012
51
36.506619730695
0
ARC
5
507
100
AcDbEntity
8
0-0
6
CONTINUOUS
62
7
100
AcDbCircle
10
1541.732531392410
20
1725.425972818082
30
0.0
40
471.571000000000
100
AcDbArc
50
215.645014094416
51
218.587563628909
0
ARC
5
508
100
AcDbEntity
8
0-0
6
CONTINUOUS
62
7
100
AcDbCircle
10
976.651531392409
20
1296.074972818082
30
0.0
40
247.327000000000
100
AcDbArc
50
356.486101627969
51
397.402106407001
0
ARC
5
509
100
AcDbEntity
8
0-0
6
CONTINUOUS
62
7
100
AcDbCircle
10
1541.732531392410
20
1740.425972818082
30
0.0
40
471.571000000000
100
AcDbArc
50
215.645014094416
51
218.587563628909
0
ARC
5
50a
100
AcDbEntity
8
0-0
6
CONTINUOUS
62
7
100
AcDbCircle
10
1054.723531392410
20
1136.169972818082
30
0.0
40
135.699000000000
100
AcDbArc
50
221.164285060303
51
267.376990147301
0
ARC
5
50b
100
AcDbEntity
8
0-0
6
CONTINUOUS
62
7
100
AcDbCircle
10
1206.213531392409
20
1269.785972818081
30
0.0
40
337.695000000000
100
AcDbArc
50
147.623840535182
51
221.312822175062
0
ELLIPSE
  5
50c
100
AcDbEntity
8
0-0
6
CONTINUOUS
62
7
100
AcDbEllipse
10
1048.513531392410
20
1280.916972818081
30
0.0
11
0.000000001408
21
275.805000000000
31
0.0
210
0.0
220
0.0
230
1.0
40
0.634505000000
41
1.570796326780
42
4.712388980359
0
CIRCLE
5
50d
100
AcDbEntity
8
0-0
6
CONTINUOUS
62
7
100
AcDbCircle
10
1048.513531392410
20
1633.112972818082
30
0.0
40
25.000000000000
0
ARC
5
50e
100
AcDbEntity
8
0-0
6
CONTINUOUS
62
7
100
AcDbCircle
10
903.513531392410
20
1715.612972818082
30
0.0
40
5.000000000000
100
AcDbArc
50
90.000000000000
51
180.000000000000
0
ARC
5
50f
100
AcDbEntity
8
0-0
6
CONTINUOUS
62
7
100
AcDbCircle
10
1193.513531392410
20
1715.612972818082
30
0.0
40
5.000000000000
100
AcDbArc
50
0.000000000000
51
90.000000000000
0
ARC
5
510
100
AcDbEntity
8
0-0
6
CONTINUOUS
62
7
100
AcDbCircle
10
906.013531392409
20
1550.612972818082
30
0.0
40
5.000000000000
100
AcDbArc
50
180.000000000000
51
270.000000000000
0
ARC
5
511
100
AcDbEntity
8
0-0
6
CONTINUOUS
62
7
100
AcDbCircle
10
1191.013531392410
20
1550.612972818082
30
0.0
40
5.000000000000
100
AcDbArc
50
270.000000000000
51
360.000000000000
0
ARC
5
512
100
AcDbEntity
8
0-0
6
CONTINUOUS
62
7
100
AcDbCircle
10
1191.013531392410
20
1545.612972818082
30
0.0
40
5.000000000000
100
AcDbArc
50
270.000000000000
51
360.000000000000
0
ARC
5
513
100
AcDbEntity
8
0-0
6
CONTINUOUS
62
7
100
AcDbCircle
10
906.013531392409
20
1545.612972818082
30
0.0
40
5.000000000000
100
AcDbArc
50
180.000000000000
51
270.000000000000
0
LINE
5
514
100
AcDbEntity
8
0-0
6
CONTINUOUS
62
7
100
AcDbLine
10
873.667326083251
20
1648.306903196904
30
0.0
11
899.881443205909
21
1647.568477362463
31
0.0
0
LINE
5
515
100
AcDbEntity
8
0-0
6
CONTINUOUS
62
7
100
AcDbLine
10
885.112926517088
20
1664.183058637387
30
0.0
11
898.773804454248
21
1663.813845720166
31
0.0
0
LINE
5
516
100
AcDbEntity
8
0-0
6
CONTINUOUS
62
7
100
AcDbLine
10
2124.791123468308
20
2593.238095871670
30
0.0
11
2124.791123468308
21
2603.038447500200
31
0.0
0
LINE
5
517
100
AcDbEntity
8
0-0
6
CONTINUOUS
62
7
100
AcDbLine
10
2133.331355453167
20
2580.321875262232
30
0.0
11
2108.331355453167
21
2580.321875262232
31
0.0
0
LINE
5
518
100
AcDbEntity
8
0-0
6
CONTINUOUS
62
7
100
AcDbLine
10
2136.791123468308
20
2516.514117060875
30
0.0
11
2104.791123468308
21
2516.514117060875
31
0.0
0
ARC
5
519
100
AcDbEntity
8
0-0
6
CONTINUOUS
62
7
100
AcDbCircle
10
2104.791123468308
20
2504.514117060875
30
0.0
40
12.000000000000
100
AcDbArc
50
90.000000000000
51
180.000000000000
0
ARC
5
51a
100
AcDbEntity
8
0-0
6
CONTINUOUS
62
7
100
AcDbCircle
10
2136.791123468308
20
2504.514117060875
30
0.0
40
12.000000000000
100
AcDbArc
50
0.000000000000
51
90.000000000000
0
LINE
5
51b
100
AcDbEntity
8
0-0
6
CONTINUOUS
62
7
100
AcDbLine
10
2108.331355453167
20
2551.029409479101
30
0.0
11
2133.331355453167
21
2551.029409479101
31
0.0
0
LINE
5
51c
100
AcDbEntity
8
0-0
6
CONTINUOUS
62
7
100
AcDbLine
10
2133.331355453167
20
2543.029409479102
30
0.0
11
2108.331355453167
21
2543.029409479102
31
0.0
0
ARC
5
51d
100
AcDbEntity
8
0-0
6
CONTINUOUS
62
7
100
AcDbCircle
10
2120.782095706241
20
2547.069087406188
30
0.0
40
13.134414676531
100
AcDbArc
50
342.276763383114
51
377.297564485525
0
ARC
5
51e
100
AcDbEntity
8
0-0
6
CONTINUOUS
62
7
100
AcDbCircle
10
2120.782095706241
20
2547.069087406188
30
0.0
40
13.134414676531
100
AcDbArc
50
162.521885466274
51
198.017609214690
0
CIRCLE
5
51f
100
AcDbEntity
8
0-0
6
CONTINUOUS
62
7
100
AcDbCircle
10
2120.798553913534
20
2547.056369700552
30
0.0
40
3.389457447208
0
ARC
5
520
100
AcDbEntity
8
0-0
6
CONTINUOUS
62
7
100
AcDbCircle
10
2108.129960025999
20
2547.053106159818
30
0.0
40
3.389457447208
100
AcDbArc
50
269.971509582607
51
449.978070214998
0
ARC
5
521
100
AcDbEntity
8
0-0
6
CONTINUOUS
62
7
100
AcDbCircle
10
2133.439320868776
20
2547.066870412472
30
0.0
40
3.389457447208
100
AcDbArc
50
90.339830380176
51
269.767752220994
0
LINE
5
522
100
AcDbEntity
8
0-0
6
CONTINUOUS
62
7
100
AcDbLine
10
2112.791123468308
20
2516.991410575892
30
0.0
11
2112.791123468308
21
2542.890988138710
31
0.0
0
LINE
5
523
100
AcDbEntity
8
0-0
6
CONTINUOUS
62
7
100
AcDbLine
10
2128.791123468308
20
2516.743181195236
30
0.0
11
2128.791123468308
21
2542.956867802862
31
0.0
0
ARC
5
524
100
AcDbEntity
8
0-0
6
CONTINUOUS
62
7
100
AcDbCircle
10
2125.111123468309
20
2611.995578961623
30
0.0
40
3.240000000000
100
AcDbArc
50
0.000000000000
51
90.000000000000
0
ARC
5
525
100
AcDbEntity
8
0-0
6
CONTINUOUS
62
7
100
AcDbCircle
10
2116.471123468309
20
2611.995578961623
30
0.0
40
3.240000000000
100
AcDbArc
50
90.000000000000
51
180.000000000000
0
LINE
5
526
100
AcDbEntity
8
0-0
6
CONTINUOUS
62
7
100
AcDbLine
10
2125.111123468309
20
2615.235578961625
30
0.0
11
2116.471123468309
21
2615.235578961625
31
0.0
0
ARC
5
527
100
AcDbEntity
8
0-0
6
CONTINUOUS
62
7
100
AcDbCircle
10
2098.900170381778
20
2605.966213762712
30
0.0
40
3.000000000000
100
AcDbArc
50
180.000000000000
51
270.000000000000
0
LINE
5
528
100
AcDbEntity
8
0-0
6
CONTINUOUS
62
7
100
AcDbLine
10
2095.900170381778
20
2608.966213762712
30
0.0
11
2095.900170381778
21
2605.966213762712
31
0.0
0
ARC
5
529
100
AcDbEntity
8
0-0
6
CONTINUOUS
62
7
100
AcDbCircle
10
2098.900170381778
20
2608.966213762712
30
0.0
40
3.000000000000
100
AcDbArc
50
90.000000000000
51
180.000000000000
0
LINE
5
52a
100
AcDbEntity
8
0-0
6
CONTINUOUS
62
7
100
AcDbLine
10
2142.900170381778
20
2602.966213762712
30
0.0
11
2098.900170381778
21
2602.966213762712
31
0.0
0
ARC
5
52b
100
AcDbEntity
8
0-0
6
CONTINUOUS
62
7
100
AcDbCircle
10
2142.900170381778
20
2605.966213762712
30
0.0
40
3.000000000000
100
AcDbArc
50
270.000000000000
51
360.000000000000
0
LINE
5
52c
100
AcDbEntity
8
0-0
6
CONTINUOUS
62
7
100
AcDbLine
10
2145.900170381778
20
2608.966213762712
30
0.0
11
2145.900170381778
21
2605.966213762712
31
0.0
0
LINE
5
52d
100
AcDbEntity
8
0-0
6
CONTINUOUS
62
7
100
AcDbLine
10
2142.900170381778
20
2611.966213762712
30
0.0
11
2098.900170381778
21
2611.966213762712
31
0.0
0
ARC
5
52e
100
AcDbEntity
8
0-0
6
CONTINUOUS
62
7
100
AcDbCircle
10
2142.900170381778
20
2608.966213762712
30
0.0
40
3.000000000000
100
AcDbArc
50
0.000000000000
51
90.000000000000
0
LINE
5
52f
100
AcDbEntity
8
0-0
6
CONTINUOUS
62
7
100
AcDbLine
10
2155.797510421367
20
2555.385823140127
30
0.0
11
2155.797510421367
21
2575.385823140127
31
0.0
0
LINE
5
530
100
AcDbEntity
8
0-0
6
CONTINUOUS
62
7
100
AcDbLine
10
2141.797510421367
20
2556.500752453385
30
0.0
11
2141.797510421367
21
2574.270893826865
31
0.0
0
LINE
5
531
100
AcDbEntity
8
0-0
6
CONTINUOUS
62
7
100
AcDbLine
10
2143.797510421367
20
2555.385823140127
30
0.0
11
2143.797510421367
21
2575.385823140127
31
0.0
0
ARC
5
532
100
AcDbEntity
8
0-0
6
CONTINUOUS
62
7
100
AcDbCircle
10
2149.797510421367
20
2547.858637422668
30
0.0
40
9.625929816131
100
AcDbArc
50
51.441277284353
51
128.558722715647
0
ARC
5
533
100
AcDbEntity
8
0-0
6
CONTINUOUS
62
7
100
AcDbCircle
10
2149.797510421367
20
2563.043606066879
30
0.0
40
6.440961171922
100
AcDbArc
50
21.324157753203
51
158.675842246797
0
ARC
5
534
100
AcDbEntity
8
0-0
6
CONTINUOUS
62
7
100
AcDbCircle
10
2149.797510421367
20
2567.728040213372
30
0.0
40
6.440961171922
100
AcDbArc
50
201.324157753203
51
338.675842246797
0
ARC
5
535
100
AcDbEntity
8
0-0
6
CONTINUOUS
62
7
100
AcDbCircle
10
2149.797510421367
20
2562.913008857583
30
0.0
40
9.625929816131
100
AcDbArc
50
231.441277284353
51
308.558722715647
0
ARC
5
536
100
AcDbEntity
8
0-0
6
CONTINUOUS
62
7
100
AcDbCircle
10
2149.797510421367
20
2582.913008857583
30
0.0
40
9.625929816131
100
AcDbArc
50
231.441277284353
51
308.558722715647
0
ARC
5
537
100
AcDbEntity
8
0-0
6
CONTINUOUS
62
7
100
AcDbCircle
10
2149.797510421367
20
2567.858637422668
30
0.0
40
9.625929816131
100
AcDbArc
50
51.441277284353
51
128.558722715647
0
POLYLINE
5
538
100
AcDbEntity
8
0-0
6
CONTINUOUS
62
  7
100
AcDb2dPolyline
66
1
10
0.0
20
0.0
30
0.0
70
0
0
VERTEX
5
539
100
AcDbEntity
8
0-0
6
CONTINUOUS
62
  7
100
AcDbVertex
100
AcDb2dVertex
10
2133.245686207570
20
2551.063951545700
30
0.0
0
VERTEX
5
53a
100
AcDbEntity
8
0-0
6
CONTINUOUS
62
  7
100
AcDbVertex
100
AcDb2dVertex
10
2133.398461645375
20
2551.213294292914
30
0.0
0
VERTEX
5
53b
100
AcDbEntity
8
0-0
6
CONTINUOUS
62
  7
100
AcDbVertex
100
AcDb2dVertex
10
2133.661959744376
20
2551.470499715756
30
0.0
0
VERTEX
5
53c
100
AcDbEntity
8
0-0
6
CONTINUOUS
62
  7
100
AcDbVertex
100
AcDb2dVertex
10
2133.925713876021
20
2551.726921604281
30
0.0
0
VERTEX
5
53d
100
AcDbEntity
8
0-0
6
CONTINUOUS
62
  7
100
AcDbVertex
100
AcDb2dVertex
10
2134.189886086286
20
2551.982064050694
30
0.0
0
VERTEX
5
53e
100
AcDbEntity
8
0-0
6
CONTINUOUS
62
  7
100
AcDbVertex
100
AcDb2dVertex
10
2134.454638421147
20
2552.235431147200
30
0.0
0
VERTEX
5
53f
100
AcDbEntity
8
0-0
6
CONTINUOUS
62
  7
100
AcDbVertex
100
AcDb2dVertex
10
2134.720132926583
20
2552.486526986003
30
0.0
0
VERTEX
5
540
100
AcDbEntity
8
0-0
6
CONTINUOUS
62
  7
100
AcDbVertex
100
AcDb2dVertex
10
2134.986531648568
20
2552.734855659309
30
0.0
0
VERTEX
5
541
100
AcDbEntity
8
0-0
6
CONTINUOUS
62
  7
100
AcDbVertex
100
AcDb2dVertex
10
2135.253996633081
20
2552.979921259320
30
0.0
0
VERTEX
5
542
100
AcDbEntity
8
0-0
6
CONTINUOUS
62
  7
100
AcDbVertex
100
AcDb2dVertex
10
2135.522689926097
20
2553.221227878243
30
0.0
0
VERTEX
5
543
100
AcDbEntity
8
0-0
6
CONTINUOUS
62
  7
100
AcDbVertex
100
AcDb2dVertex
10
2135.792773573593
20
2553.458279608282
30
0.0
0
VERTEX
5
544
100
AcDbEntity
8
0-0
6
CONTINUOUS
62
  7
100
AcDbVertex
100
AcDb2dVertex
10
2136.064409621547
20
2553.690580541642
30
0.0
0
VERTEX
5
545
100
AcDbEntity
8
0-0
6
CONTINUOUS
62
  7
100
AcDbVertex
100
AcDb2dVertex
10
2136.337760115936
20
2553.917634770526
30
0.0
0
VERTEX
5
546
100
AcDbEntity
8
0-0
6
CONTINUOUS
62
  7
100
AcDbVertex
100
AcDb2dVertex
10
2136.612987102734
20
2554.138946387141
30
0.0
0
VERTEX
5
547
100
AcDbEntity
8
0-0
6
CONTINUOUS
62
  7
100
AcDbVertex
100
AcDb2dVertex
10
2136.890252627921
20
2554.354019483690
30
0.0
0
VERTEX
5
548
100
AcDbEntity
8
0-0
6
CONTINUOUS
62
  7
100
AcDbVertex
100
AcDb2dVertex
10
2137.169718737471
20
2554.562358152378
30
0.0
0
VERTEX
5
549
100
AcDbEntity
8
0-0
6
CONTINUOUS
62
  7
100
AcDbVertex
100
AcDb2dVertex
10
2137.451547477363
20
2554.763466485410
30
0.0
0
VERTEX
5
54a
100
AcDbEntity
8
0-0
6
CONTINUOUS
62
  7
100
AcDbVertex
100
AcDb2dVertex
10
2137.735900893573
20
2554.956848574991
30
0.0
0
VERTEX
5
54b
100
AcDbEntity
8
0-0
6
CONTINUOUS
62
  7
100
AcDbVertex
100
AcDb2dVertex
10
2138.022941032076
20
2555.142008513324
30
0.0
0
VERTEX
5
54c
100
AcDbEntity
8
0-0
6
CONTINUOUS
62
  7
100
AcDbVertex
100
AcDb2dVertex
10
2138.312829938852
20
2555.318450392615
30
0.0
0
VERTEX
5
54d
100
AcDbEntity
8
0-0
6
CONTINUOUS
62
  7
100
AcDbVertex
100
AcDb2dVertex
10
2138.605729659876
20
2555.485678305068
30
0.0
0
VERTEX
5
54e
100
AcDbEntity
8
0-0
6
CONTINUOUS
62
  7
100
AcDbVertex
100
AcDb2dVertex
10
2138.901802241124
20
2555.643196342889
30
0.0
0
VERTEX
5
54f
100
AcDbEntity
8
0-0
6
CONTINUOUS
62
  7
100
AcDbVertex
100
AcDb2dVertex
10
2139.201209728573
20
2555.790508598281
30
0.0
0
VERTEX
5
550
100
AcDbEntity
8
0-0
6
CONTINUOUS
62
  7
100
AcDbVertex
100
AcDb2dVertex
10
2139.504114168201
20
2555.927119163450
30
0.0
0
VERTEX
5
551
100
AcDbEntity
8
0-0
6
CONTINUOUS
62
  7
100
AcDbVertex
100
AcDb2dVertex
10
2139.810677605984
20
2556.052532130600
30
0.0
0
VERTEX
5
552
100
AcDbEntity
8
0-0
6
CONTINUOUS
62
  7
100
AcDbVertex
100
AcDb2dVertex
10
2140.121062087899
20
2556.166251591935
30
0.0
0
VERTEX
5
553
100
AcDbEntity
8
0-0
6
CONTINUOUS
62
  7
100
AcDbVertex
100
AcDb2dVertex
10
2140.435429659923
20
2556.267781639660
30
0.0
0
VERTEX
5
554
100
AcDbEntity
8
0-0
6
CONTINUOUS
62
  7
100
AcDbVertex
100
AcDb2dVertex
10
2140.753942368031
20
2556.356626365981
30
0.0
0
VERTEX
5
555
100
AcDbEntity
8
0-0
6
CONTINUOUS
62
  7
100
AcDbVertex
100
AcDb2dVertex
10
2141.076762258202
20
2556.432289863101
30
0.0
0
VERTEX
5
556
100
AcDbEntity
8
0-0
6
CONTINUOUS
62
  7
100
AcDbVertex
100
AcDb2dVertex
10
2141.404051376412
20
2556.494276223225
30
0.0
0
VERTEX
5
557
100
AcDbEntity
8
0-0
6
CONTINUOUS
62
  7
100
AcDbVertex
100
AcDb2dVertex
10
2141.595990719802
20
2556.523766034467
30
0.0
0
VERTEX
5
558
100
AcDbEntity
8
0-0
6
CONTINUOUS
62
  7
100
AcDbVertex
100
AcDb2dVertex
10
2141.635371036160
20
2556.529192666996
30
0.0
0
VERTEX
5
559
100
AcDbEntity
8
0-0
6
CONTINUOUS
62
  7
100
AcDbVertex
100
AcDb2dVertex
10
2141.703419885072
20
2556.538084525534
30
0.0
0
VERTEX
5
55a
100
AcDbEntity
8
0-0
6
CONTINUOUS
62
  7
100
AcDbVertex
100
AcDb2dVertex
10
2141.771655016142
20
2556.546406306514
30
0.0
0
VERTEX
5
55b
100
AcDbEntity
8
0-0
6
CONTINUOUS
62
  7
100
AcDbVertex
100
AcDb2dVertex
10
2141.840069675123
20
2556.554178679898
30
0.0
0
VERTEX
5
55c
100
AcDbEntity
8
0-0
6
CONTINUOUS
62
  7
100
AcDbVertex
100
AcDb2dVertex
10
2141.908657107767
20
2556.561422315648
30
0.0
0
VERTEX
5
55d
100
AcDbEntity
8
0-0
6
CONTINUOUS
62
  7
100
AcDbVertex
100
AcDb2dVertex
10
2141.977410559826
20
2556.568157883726
30
0.0
0
VERTEX
5
55e
100
AcDbEntity
8
0-0
6
CONTINUOUS
62
  7
100
AcDbVertex
100
AcDb2dVertex
10
2142.046323277053
20
2556.574406054096
30
0.0
0
VERTEX
5
55f
100
AcDbEntity
8
0-0
6
CONTINUOUS
62
  7
100
AcDbVertex
100
AcDb2dVertex
10
2142.115388505198
20
2556.580187496718
30
0.0
0
VERTEX
5
560
100
AcDbEntity
8
0-0
6
CONTINUOUS
62
  7
100
AcDbVertex
100
AcDb2dVertex
10
2142.184599490014
20
2556.585522881555
30
0.0
0
VERTEX
5
561
100
AcDbEntity
8
0-0
6
CONTINUOUS
62
  7
100
AcDbVertex
100
AcDb2dVertex
10
2142.253949477254
20
2556.590432878571
30
0.0
0
VERTEX
5
562
100
AcDbEntity
8
0-0
6
CONTINUOUS
62
  7
100
AcDbVertex
100
AcDb2dVertex
10
2142.323431712668
20
2556.594938157725
30
0.0
0
VERTEX
5
563
100
AcDbEntity
8
0-0
6
CONTINUOUS
62
  7
100
AcDbVertex
100
AcDb2dVertex
10
2142.393039442010
20
2556.599059388982
30
0.0
0
VERTEX
5
564
100
AcDbEntity
8
0-0
6
CONTINUOUS
62
  7
100
AcDbVertex
100
AcDb2dVertex
10
2142.462765911031
20
2556.602817242302
30
0.0
0
VERTEX
5
565
100
AcDbEntity
8
0-0
6
CONTINUOUS
62
  7
100
AcDbVertex
100
AcDb2dVertex
10
2142.532604365483
20
2556.606232387649
30
0.0
0
VERTEX
5
566
100
AcDbEntity
8
0-0
6
CONTINUOUS
62
  7
100
AcDbVertex
100
AcDb2dVertex
10
2142.602548051118
20
2556.609325494985
30
0.0
0
VERTEX
5
567
100
AcDbEntity
8
0-0
6
CONTINUOUS
62
  7
100
AcDbVertex
100
AcDb2dVertex
10
2142.672590213690
20
2556.612117234271
30
0.0
0
VERTEX
5
568
100
AcDbEntity
8
0-0
6
CONTINUOUS
62
  7
100
AcDbVertex
100
AcDb2dVertex
10
2142.742724098948
20
2556.614628275470
30
0.0
0
VERTEX
5
569
100
AcDbEntity
8
0-0
6
CONTINUOUS
62
  7
100
AcDbVertex
100
AcDb2dVertex
10
2142.812942952645
20
2556.616879288544
30
0.0
0
VERTEX
5
56a
100
AcDbEntity
8
0-0
6
CONTINUOUS
62
  7
100
AcDbVertex
100
AcDb2dVertex
10
2142.883240020535
20
2556.618890943456
30
0.0
0
VERTEX
5
56b
100
AcDbEntity
8
0-0
6
CONTINUOUS
62
  7
100
AcDbVertex
100
AcDb2dVertex
10
2142.953608548367
20
2556.620683910168
30
0.0
0
VERTEX
5
56c
100
AcDbEntity
8
0-0
6
CONTINUOUS
62
  7
100
AcDbVertex
100
AcDb2dVertex
10
2143.024041781896
20
2556.622278858641
30
0.0
0
VERTEX
5
56d
100
AcDbEntity
8
0-0
6
CONTINUOUS
62
  7
100
AcDbVertex
100
AcDb2dVertex
10
2143.094532966871
20
2556.623696458839
30
0.0
0
VERTEX
5
56e
100
AcDbEntity
8
0-0
6
CONTINUOUS
62
  7
100
AcDbVertex
100
AcDb2dVertex
10
2143.165075349047
20
2556.624957380723
30
0.0
0
VERTEX
5
56f
100
AcDbEntity
8
0-0
6
CONTINUOUS
62
  7
100
AcDbVertex
100
AcDb2dVertex
10
2143.235662174174
20
2556.626082294255
30
0.0
0
VERTEX
5
570
100
AcDbEntity
8
0-0
6
CONTINUOUS
62
  7
100
AcDbVertex
100
AcDb2dVertex
10
2143.306286688004
20
2556.627091869399
30
0.0
0
VERTEX
5
571
100
AcDbEntity
8
0-0
6
CONTINUOUS
62
  7
100
AcDbVertex
100
AcDb2dVertex
10
2143.376942136291
20
2556.628006776115
30
0.0
0
VERTEX
5
572
100
AcDbEntity
8
0-0
6
CONTINUOUS
62
  7
100
AcDbVertex
100
AcDb2dVertex
10
2143.447621764784
20
2556.628847684366
30
0.0
0
VERTEX
5
573
100
AcDbEntity
8
0-0
6
CONTINUOUS
62
  7
100
AcDbVertex
100
AcDb2dVertex
10
2143.518318819238
20
2556.629635264115
30
0.0
0
VERTEX
5
574
100
AcDbEntity
8
0-0
6
CONTINUOUS
62
  7
100
AcDbVertex
100
AcDb2dVertex
10
2143.589026545404
20
2556.630390185324
30
0.0
0
VERTEX
5
575
100
AcDbEntity
8
0-0
6
CONTINUOUS
62
  7
100
AcDbVertex
100
AcDb2dVertex
10
2143.630039254833
20
2556.630821220521
30
0.0
0
SEQEND
5
576
100
AcDbEntity
8
0-0
0
ARC
5
577
100
AcDbEntity
8
0-0
6
CONTINUOUS
62
7
100
AcDbCircle
10
2120.782095706241
20
2584.361553189317
30
0.0
40
13.134414676531
100
AcDbArc
50
342.276763383114
51
377.297564485525
0
ARC
5
578
100
AcDbEntity
8
0-0
6
CONTINUOUS
62
7
100
AcDbCircle
10
2120.782095706241
20
2584.361553189317
30
0.0
40
13.134414676531
100
AcDbArc
50
162.521885466274
51
198.017609214690
0
CIRCLE
5
579
100
AcDbEntity
8
0-0
6
CONTINUOUS
62
7
100
AcDbCircle
10
2120.798553913535
20
2584.348835483682
30
0.0
40
3.389457447208
0
ARC
5
57a
100
AcDbEntity
8
0-0
6
CONTINUOUS
62
7
100
AcDbCircle
10
2108.129960025999
20
2584.345571942948
30
0.0
40
3.389457447208
100
AcDbArc
50
269.971509582607
51
449.978070214998
0
ARC
5
57b
100
AcDbEntity
8
0-0
6
CONTINUOUS
62
7
100
AcDbCircle
10
2133.439320868777
20
2584.359336195602
30
0.0
40
3.389457447208
100
AcDbArc
50
90.339830380176
51
269.767752220994
0
LINE
5
57c
100
AcDbEntity
8
0-0
6
CONTINUOUS
62
7
100
AcDbLine
10
2108.433941902781
20
2588.048259054752
30
0.0
11
2133.301817501165
21
2588.048259054752
31
0.0
0
LINE
5
57d
100
AcDbEntity
8
0-0
6
CONTINUOUS
62
7
100
AcDbLine
10
2108.591097875926
20
2551.096196146852
30
0.0
11
2108.591097875926
21
2580.245273357334
31
0.0
0
POLYLINE
5
57e
100
AcDbEntity
8
0-0
6
CONTINUOUS
62
  7
100
AcDb2dPolyline
66
1
10
0.0
20
0.0
30
0.0
70
0
0
VERTEX
5
57f
100
AcDbEntity
8
0-0
6
CONTINUOUS
62
  7
100
AcDbVertex
100
AcDb2dVertex
10
2143.708903770376
20
2574.121623831960
30
0.0
0
VERTEX
5
580
100
AcDbEntity
8
0-0
6
CONTINUOUS
62
  7
100
AcDbVertex
100
AcDb2dVertex
10
2143.023498294162
20
2574.343457093277
30
0.0
0
VERTEX
5
581
100
AcDbEntity
8
0-0
6
CONTINUOUS
62
  7
100
AcDbVertex
100
AcDb2dVertex
10
2141.847790376677
20
2574.735225400817
30
0.0
0
VERTEX
5
582
100
AcDbEntity
8
0-0
6
CONTINUOUS
62
  7
100
AcDbVertex
100
AcDb2dVertex
10
2140.688820409728
20
2575.152819173182
30
0.0
0
VERTEX
5
583
100
AcDbEntity
8
0-0
6
CONTINUOUS
62
  7
100
AcDbVertex
100
AcDb2dVertex
10
2139.557182032896
20
2575.612583641278
30
0.0
0
VERTEX
5
584
100
AcDbEntity
8
0-0
6
CONTINUOUS
62
  7
100
AcDbVertex
100
AcDb2dVertex
10
2138.463468885763
20
2576.130864036008
30
0.0
0
VERTEX
5
585
100
AcDbEntity
8
0-0
6
CONTINUOUS
62
  7
100
AcDbVertex
100
AcDb2dVertex
10
2137.418274607908
20
2576.724005588274
30
0.0
0
VERTEX
5
586
100
AcDbEntity
8
0-0
6
CONTINUOUS
62
  7
100
AcDbVertex
100
AcDb2dVertex
10
2136.838467717519
20
2577.108769941899
30
0.0
0
VERTEX
5
587
100
AcDbEntity
8
0-0
6
CONTINUOUS
62
  7
100
AcDbVertex
100
AcDb2dVertex
10
2136.489158481468
20
2577.364184712028
30
0.0
0
VERTEX
5
588
100
AcDbEntity
8
0-0
6
CONTINUOUS
62
  7
100
AcDbVertex
100
AcDb2dVertex
10
2135.904453407143
20
2577.831636844148
30
0.0
0
VERTEX
5
589
100
AcDbEntity
8
0-0
6
CONTINUOUS
62
  7
100
AcDbVertex
100
AcDb2dVertex
10
2135.338453938224
20
2578.327950392328
30
0.0
0
VERTEX
5
58a
100
AcDbEntity
8
0-0
6
CONTINUOUS
62
  7
100
AcDbVertex
100
AcDb2dVertex
10
2134.787075881389
20
2578.846823737343
30
0.0
0
VERTEX
5
58b
100
AcDbEntity
8
0-0
6
CONTINUOUS
62
  7
100
AcDbVertex
100
AcDb2dVertex
10
2134.246235043321
20
2579.381955259963
30
0.0
0
VERTEX
5
58c
100
AcDbEntity
8
0-0
6
CONTINUOUS
62
  7
100
AcDbVertex
100
AcDb2dVertex
10
2133.711847230698
20
2579.927043340964
30
0.0
0
VERTEX
5
58d
100
AcDbEntity
8
0-0
6
CONTINUOUS
62
  7
100
AcDbVertex
100
AcDb2dVertex
10
2133.403249691090
20
2580.245273357334
30
0.0
0
SEQEND
5
58e
100
AcDbEntity
8
0-0
0
POLYLINE
5
58f
100
AcDbEntity
8
0-0
6
CONTINUOUS
62
  7
100
AcDb2dPolyline
66
1
10
0.0
20
0.0
30
0.0
70
0
0
VERTEX
5
590
100
AcDbEntity
8
0-0
6
CONTINUOUS
62
  7
100
AcDbVertex
100
AcDb2dVertex
10
2108.262308680817
20
2588.044505855908
30
0.0
0
VERTEX
5
591
100
AcDbEntity
8
0-0
6
CONTINUOUS
62
  7
100
AcDbVertex
100
AcDb2dVertex
10
2108.734377774915
20
2588.319653627713
30
0.0
0
VERTEX
5
592
100
AcDbEntity
8
0-0
6
CONTINUOUS
62
  7
100
AcDbVertex
100
AcDb2dVertex
10
2109.546282880094
20
2588.796792875158
30
0.0
0
VERTEX
5
593
100
AcDbEntity
8
0-0
6
CONTINUOUS
62
  7
100
AcDbVertex
100
AcDb2dVertex
10
2110.352612635204
20
2589.281561393256
30
0.0
0
VERTEX
5
594
100
AcDbEntity
8
0-0
6
CONTINUOUS
62
  7
100
AcDbVertex
100
AcDb2dVertex
10
2111.149838337669
20
2589.778787834323
30
0.0
0
VERTEX
5
595
100
AcDbEntity
8
0-0
6
CONTINUOUS
62
  7
100
AcDbVertex
100
AcDb2dVertex
10
2111.934431284915
20
2590.293300850671
30
0.0
0
VERTEX
5
596
100
AcDbEntity
8
0-0
6
CONTINUOUS
62
  7
100
AcDbVertex
100
AcDb2dVertex
10
2112.702862774366
20
2590.829929094613
30
0.0
0
VERTEX
5
597
100
AcDbEntity
8
0-0
6
CONTINUOUS
62
  7
100
AcDbVertex
100
AcDb2dVertex
10
2113.139757365979
20
2591.153209413484
30
0.0
0
VERTEX
5
598
100
AcDbEntity
8
0-0
6
CONTINUOUS
62
  7
100
AcDbVertex
100
AcDb2dVertex
10
2113.389485431373
20
2591.344822067082
30
0.0
0
VERTEX
5
599
100
AcDbEntity
8
0-0
6
CONTINUOUS
62
  7
100
AcDbVertex
100
AcDb2dVertex
10
2113.814966993237
20
2591.682145715044
30
0.0
0
VERTEX
5
59a
100
AcDbEntity
8
0-0
6
CONTINUOUS
62
  7
100
AcDbVertex
100
AcDb2dVertex
10
2114.235030407292
20
2592.026883519169
30
0.0
0
VERTEX
5
59b
100
AcDbEntity
8
0-0
6
CONTINUOUS
62
  7
100
AcDbVertex
100
AcDb2dVertex
10
2114.650858675243
20
2592.377416668068
30
0.0
0
VERTEX
5
59c
100
AcDbEntity
8
0-0
6
CONTINUOUS
62
  7
100
AcDbVertex
100
AcDb2dVertex
10
2115.063634798796
20
2592.732126350353
30
0.0
0
VERTEX
5
59d
100
AcDbEntity
8
0-0
6
CONTINUOUS
62
  7
100
AcDbVertex
100
AcDb2dVertex
10
2115.474541779654
20
2593.089393754633
30
0.0
0
VERTEX
5
59e
100
AcDbEntity
8
0-0
6
CONTINUOUS
62
  7
100
AcDbVertex
100
AcDb2dVertex
10
2115.712477551558
20
2593.297142901467
30
0.0
0
SEQEND
5
59f
100
AcDbEntity
8
0-0
0
LINE
5
5a0
100
AcDbEntity
8
0-0
6
CONTINUOUS
62
7
100
AcDbLine
10
2125.791123468308
20
2593.327227777449
30
0.0
11
2115.791123468308
21
2593.327227777449
31
0.0
0
POLYLINE
5
5a1
100
AcDbEntity
8
0-0
6
CONTINUOUS
62
  7
100
AcDb2dPolyline
66
1
10
0.0
20
0.0
30
0.0
70
0
0
VERTEX
5
5a2
100
AcDbEntity
8
0-0
6
CONTINUOUS
62
  7
100
AcDbVertex
100
AcDb2dVertex
10
2133.399928827420
20
2588.098104193108
30
0.0
0
VERTEX
5
5a3
100
AcDbEntity
8
0-0
6
CONTINUOUS
62
  7
100
AcDbVertex
100
AcDb2dVertex
10
2132.908363285001
20
2588.356791104261
30
0.0
0
VERTEX
5
5a4
100
AcDbEntity
8
0-0
6
CONTINUOUS
62
  7
100
AcDbVertex
100
AcDb2dVertex
10
2132.063525233626
20
2588.806545809263
30
0.0
0
VERTEX
5
5a5
100
AcDbEntity
8
0-0
6
CONTINUOUS
62
  7
100
AcDbVertex
100
AcDb2dVertex
10
2131.226155920859
20
2589.266697150986
30
0.0
0
VERTEX
5
5a6
100
AcDbEntity
8
0-0
6
CONTINUOUS
62
  7
100
AcDbVertex
100
AcDb2dVertex
10
2130.400982396452
20
2589.743825279253
30
0.0
0
VERTEX
5
5a7
100
AcDbEntity
8
0-0
6
CONTINUOUS
62
  7
100
AcDbVertex
100
AcDb2dVertex
10
2129.592731710156
20
2590.244510343888
30
0.0
0
VERTEX
5
5a8
100
AcDbEntity
8
0-0
6
CONTINUOUS
62
  7
100
AcDbVertex
100
AcDb2dVertex
10
2128.806130911723
20
2590.775332494714
30
0.0
0
VERTEX
5
5a9
100
AcDbEntity
8
0-0
6
CONTINUOUS
62
  7
100
AcDbVertex
100
AcDb2dVertex
10
2128.361685130660
20
2591.099611076284
30
0.0
0
VERTEX
5
5aa
100
AcDbEntity
8
0-0
6
CONTINUOUS
62
  7
100
AcDbVertex
100
AcDb2dVertex
10
2128.103987894648
20
2591.297071638400
30
0.0
0
VERTEX
5
5ab
100
AcDbEntity
8
0-0
6
CONTINUOUS
62
  7
100
AcDbVertex
100
AcDb2dVertex
10
2127.666749793260
20
2591.647358957106
30
0.0
0
VERTEX
5
5ac
100
AcDbEntity
8
0-0
6
CONTINUOUS
62
  7
100
AcDbVertex
100
AcDb2dVertex
10
2127.237043581528
20
2592.008130820081
30
0.0
0
VERTEX
5
5ad
100
AcDbEntity
8
0-0
6
CONTINUOUS
62
  7
100
AcDbVertex
100
AcDb2dVertex
10
2126.813224742059
20
2592.377098025519
30
0.0
0
VERTEX
5
5ae
100
AcDbEntity
8
0-0
6
CONTINUOUS
62
  7
100
AcDbVertex
100
AcDb2dVertex
10
2126.393648757462
20
2592.751971371616
30
0.0
0
VERTEX
5
5af
100
AcDbEntity
8
0-0
6
CONTINUOUS
62
  7
100
AcDbVertex
100
AcDb2dVertex
10
2125.976671110343
20
2593.130461656564
30
0.0
0
VERTEX
5
5b0
100
AcDbEntity
8
0-0
6
CONTINUOUS
62
  7
100
AcDbVertex
100
AcDb2dVertex
10
2125.735366607880
20
2593.350741238667
30
0.0
0
SEQEND
5
5b1
100
AcDbEntity
8
0-0
0
LINE
5
5b2
100
AcDbEntity
8
0-0
6
CONTINUOUS
62
7
100
AcDbLine
10
2116.791123468308
20
2593.305354024039
30
0.0
11
2116.791123468308
21
2603.038447500200
31
0.0
0
LINE
5
5b3
100
AcDbEntity
8
0-0
6
CONTINUOUS
62
7
100
AcDbLine
10
2093.202496060039
20
2504.703084807283
30
0.0
11
2148.540188851079
21
2504.703084807283
31
0.0
0
LINE
5
5b4
100
AcDbEntity
8
0-0
6
CONTINUOUS
62
7
100
AcDbLine
10
2153.010124804649
20
2892.845153599480
30
0.0
11
2490.049124804648
21
2892.845153599480
31
0.0
0
LINE
5
5b5
100
AcDbEntity
8
0-0
6
CONTINUOUS
62
7
100
AcDbLine
10
2466.530124804649
20
3252.845153599480
30
0.0
11
2176.530124804649
21
3252.845153599480
31
0.0
0
LINE
5
5b6
100
AcDbEntity
8
0-0
6
CONTINUOUS
62
7
100
AcDbLine
10
2156.530124804649
20
2880.845153599480
30
0.0
11
2486.530124804649
21
2880.845153599480
31
0.0
0
LINE
5
5b7
100
AcDbEntity
8
0-0
6
CONTINUOUS
62
7
100
AcDbLine
10
2171.530124804649
20
3009.880153599479
30
0.0
11
2171.530124804649
21
3063.785153599480
31
0.0
0
LINE
5
5b8
100
AcDbEntity
8
0-0
6
CONTINUOUS
62
7
100
AcDbLine
10
2471.530124804649
20
3009.880153599479
30
0.0
11
2471.530124804649
21
3063.785153599480
31
0.0
0
LINE
5
5b9
100
AcDbEntity
8
0-0
6
CONTINUOUS
62
7
100
AcDbLine
10
2471.530124804649
20
3207.845153599480
30
0.0
11
2171.530124804649
21
3207.845153599480
31
0.0
0
POLYLINE
5
5ba
100
AcDbEntity
8
0-0
6
CONTINUOUS
62
  7
100
AcDb2dPolyline
66
1
10
0.0
20
0.0
30
0.0
70
0
0
VERTEX
5
5bb
100
AcDbEntity
8
0-0
6
CONTINUOUS
62
  7
100
AcDbVertex
100
AcDb2dVertex
10
2296.530124804649
20
3252.845153599480
30
0.0
0
VERTEX
5
5bc
100
AcDbEntity
8
0-0
6
CONTINUOUS
62
  7
100
AcDbVertex
100
AcDb2dVertex
10
2346.530124804649
20
3252.845153599480
30
0.0
0
VERTEX
5
5bd
100
AcDbEntity
8
0-0
6
CONTINUOUS
62
  7
100
AcDbVertex
100
AcDb2dVertex
10
2346.530124804649
20
3255.845153599480
30
0.0
0
VERTEX
5
5be
100
AcDbEntity
8
0-0
6
CONTINUOUS
62
  7
100
AcDbVertex
100
AcDb2dVertex
10
2296.530124804649
20
3255.845153599480
30
0.0
0
VERTEX
5
5bf
100
AcDbEntity
8
0-0
6
CONTINUOUS
62
  7
100
AcDbVertex
100
AcDb2dVertex
10
2296.530124804649
20
3252.845153599480
30
0.0
0
SEQEND
5
5c0
100
AcDbEntity
8
0-0
0
LINE
5
5c1
100
AcDbEntity
8
0-0
6
CONTINUOUS
62
7
100
AcDbLine
10
2171.530124804649
20
2918.959153599480
30
0.0
11
2171.530124804649
21
3247.845153599480
31
0.0
0
LINE
5
5c2
100
AcDbEntity
8
0-0
6
CONTINUOUS
62
7
100
AcDbLine
10
2471.530124804649
20
2918.959153599480
30
0.0
11
2471.530124804649
21
3247.845153599480
31
0.0
0
LINE
5
5c3
100
AcDbEntity
8
0-0
6
CONTINUOUS
62
7
100
AcDbLine
10
2211.530124804649
20
2937.845153599480
30
0.0
11
2431.530124804649
21
2937.845153599480
31
0.0
0
LINE
5
5c4
100
AcDbEntity
8
0-0
6
CONTINUOUS
62
7
100
AcDbLine
10
2146.530124804649
20
2880.845153599480
30
0.0
11
2496.530124804649
21
2880.845153599480
31
0.0
0
LINE
5
5c5
100
AcDbEntity
8
0-0
6
CONTINUOUS
62
7
100
AcDbLine
10
2150.238124804649
20
2890.857153599480
30
0.0
11
2146.530124804649
21
2880.845153599480
31
0.0
0
LINE
5
5c6
100
AcDbEntity
8
0-0
6
CONTINUOUS
62
7
100
AcDbLine
10
2492.821124804648
20
2890.857153599480
30
0.0
11
2496.530124804649
21
2880.845153599480
31
0.0
0
LINE
5
5c7
100
AcDbEntity
8
0-0
6
CONTINUOUS
62
7
100
AcDbLine
10
2153.010124804649
20
2907.845153599480
30
0.0
11
2490.049124804648
21
2907.845153599480
31
0.0
0
LINE
5
5c8
100
AcDbEntity
8
0-0
6
CONTINUOUS
62
7
100
AcDbLine
10
2146.530124804649
20
2895.845153599480
30
0.0
11
2496.530124804649
21
2895.845153599480
31
0.0
0
LINE
5
5c9
100
AcDbEntity
8
0-0
6
CONTINUOUS
62
7
100
AcDbLine
10
2150.238124804649
20
2905.857153599480
30
0.0
11
2146.530124804649
21
2895.845153599480
31
0.0
0
LINE
5
5ca
100
AcDbEntity
8
0-0
6
CONTINUOUS
62
7
100
AcDbLine
10
2492.821124804648
20
2905.857153599480
30
0.0
11
2496.530124804649
21
2895.845153599480
31
0.0
0
LINE
5
5cb
100
AcDbEntity
8
0-0
6
CONTINUOUS
62
7
100
AcDbLine
10
2496.530124804649
20
2877.845153599480
30
0.0
11
2146.530124804649
21
2877.845153599480
31
0.0
0
POLYLINE
5
5cc
100
AcDbEntity
8
0-0
6
CONTINUOUS
62
  7
100
AcDb2dPolyline
66
1
10
0.0
20
0.0
30
0.0
70
0
0
VERTEX
5
5cd
100
AcDbEntity
8
0-0
6
CONTINUOUS
62
  7
100
AcDbVertex
100
AcDb2dVertex
10
2306.530124804649
20
3255.845153599480
30
0.0
0
VERTEX
5
5ce
100
AcDbEntity
8
0-0
6
CONTINUOUS
62
  7
100
AcDbVertex
100
AcDb2dVertex
10
2336.530124804649
20
3255.845153599480
30
0.0
0
VERTEX
5
5cf
100
AcDbEntity
8
0-0
6
CONTINUOUS
62
  7
100
AcDbVertex
100
AcDb2dVertex
10
2336.530124804649
20
3257.845153599480
30
0.0
0
VERTEX
5
5d0
100
AcDbEntity
8
0-0
6
CONTINUOUS
62
  7
100
AcDbVertex
100
AcDb2dVertex
10
2306.530124804649
20
3257.845153599480
30
0.0
0
VERTEX
5
5d1
100
AcDbEntity
8
0-0
6
CONTINUOUS
62
  7
100
AcDbVertex
100
AcDb2dVertex
10
2306.530124804649
20
3255.845153599480
30
0.0
0
SEQEND
5
5d2
100
AcDbEntity
8
0-0
0
ARC
5
5d3
100
AcDbEntity
8
0-0
6
CONTINUOUS
62
7
100
AcDbCircle
10
2146.530124804649
20
2872.845153599480
30
0.0
40
5.000000000000
100
AcDbArc
50
90.000000000000
51
180.000000000000
0
ARC
5
5d4
100
AcDbEntity
8
0-0
6
CONTINUOUS
62
7
100
AcDbCircle
10
2496.530124804649
20
2872.845153599480
30
0.0
40
5.000000000000
100
AcDbArc
50
0.000000000000
51
90.000000000000
0
ARC
5
5d5
100
AcDbEntity
8
0-0
6
CONTINUOUS
62
7
100
AcDbCircle
10
2176.530124804649
20
3247.845153599480
30
0.0
40
5.000000000000
100
AcDbArc
50
90.000000000000
51
180.000000000000
0
ARC
5
5d6
100
AcDbEntity
8
0-0
6
CONTINUOUS
62
7
100
AcDbCircle
10
2466.530124804649
20
3247.845153599480
30
0.0
40
5.000000000000
100
AcDbArc
50
0.000000000000
51
90.000000000000
0
ARC
5
5d7
100
AcDbEntity
8
0-0
6
CONTINUOUS
62
7
100
AcDbCircle
10
4893.811124804648
20
2778.133153599480
30
0.0
40
2739.097000000000
100
AcDbArc
50
177.850978826010
51
177.913774998784
0
ARC
5
5d8
100
AcDbEntity
8
0-0
6
CONTINUOUS
62
7
100
AcDbCircle
10
-251.644875195352
20
2778.133153599480
30
0.0
40
2739.097000000000
100
AcDbArc
50
2.086225001215
51
2.149021173990
0
ARC
5
5d9
100
AcDbEntity
8
0-0
6
CONTINUOUS
62
7
100
AcDbCircle
10
2153.354124804649
20
2889.440153599480
30
0.0
40
3.423000000000
100
AcDbArc
50
95.757000000000
51
155.546000000000
0
ARC
5
5da
100
AcDbEntity
8
0-0
6
CONTINUOUS
62
7
100
AcDbCircle
10
2489.706124804648
20
2889.440153599480
30
0.0
40
3.423000000000
100
AcDbArc
50
24.454000000000
51
84.243000000000
0
ARC
5
5db
100
AcDbEntity
8
0-0
6
CONTINUOUS
62
7
100
AcDbCircle
10
2153.354124804649
20
2904.440153599480
30
0.0
40
3.423000000000
100
AcDbArc
50
95.757000000000
51
155.546000000000
0
ARC
5
5dc
100
AcDbEntity
8
0-0
6
CONTINUOUS
62
7
100
AcDbCircle
10
2489.706124804648
20
2904.440153599480
30
0.0
40
3.423000000000
100
AcDbArc
50
24.454000000000
51
84.243000000000
0
ARC
5
5dd
100
AcDbEntity
8
0-0
6
CONTINUOUS
62
7
100
AcDbCircle
10
2163.364124804649
20
2999.560153599480
30
0.0
40
78.286000000000
100
AcDbArc
50
289.267358123213
51
307.970613696087
0
ARC
5
5de
100
AcDbEntity
8
0-0
6
CONTINUOUS
62
7
100
AcDbCircle
10
2225.790124804648
20
2802.521153599480
30
0.0
40
128.460000000000
100
AcDbArc
50
106.550599373611
51
125.408882915435
0
ARC
5
5df
100
AcDbEntity
8
0-0
6
CONTINUOUS
62
7
100
AcDbCircle
10
2479.696124804648
20
2999.560153599480
30
0.0
40
78.286000000000
100
AcDbArc
50
232.029387382592
51
250.732642955466
0
ARC
5
5e0
100
AcDbEntity
8
0-0
6
CONTINUOUS
62
7
100
AcDbCircle
10
2417.270124804649
20
2802.521153599480
30
0.0
40
128.460000000000
100
AcDbArc
50
54.591117084564
51
73.449400626389
0
ARC
5
5e1
100
AcDbEntity
8
0-0
6
CONTINUOUS
62
7
100
AcDbCircle
10
3238.681124804648
20
3059.925153599480
30
0.0
40
1112.987000000000
100
AcDbArc
50
189.676664156515
51
202.187475342313
0
ARC
5
5e2
100
AcDbEntity
8
0-0
6
CONTINUOUS
62
7
100
AcDbCircle
10
1404.378124804649
20
3059.925153599480
30
0.0
40
1112.987000000000
100
AcDbArc
50
337.812524884842
51
350.323336070640
0
LINE
5
5e3
100
AcDbEntity
8
0-0
6
CONTINUOUS
62
7
100
AcDbLine
10
2396.530124804649
20
2602.845153599479
30
0.0
11
2246.009124804649
21
2602.845153599479
31
0.0
0
ARC
5
5e4
100
AcDbEntity
8
0-0
6
CONTINUOUS
62
7
100
AcDbCircle
10
2372.730124804649
20
2666.172153599480
30
0.0
40
67.652000000000
100
AcDbArc
50
290.598000000000
51
336.889000000000
0
ARC
5
5e5
100
AcDbEntity
8
0-0
6
CONTINUOUS
62
7
100
AcDbCircle
10
2270.330124804649
20
2666.172153599480
30
0.0
40
67.652000000000
100
AcDbArc
50
203.111000000000
51
249.402000000000
0
LINE
5
5e6
100
AcDbEntity
8
0-0
6
CONTINUOUS
62
7
100
AcDbLine
10
2175.430124804649
20
2731.597153599480
30
0.0
11
2181.490328850156
21
2504.337514940801
31
0.0
0
POLYLINE
5
5e7
100
AcDbEntity
8
0-0
6
CONTINUOUS
62
  7
100
AcDb2dPolyline
66
1
10
0.0
20
0.0
30
0.0
70
0
0
VERTEX
5
5e8
100
AcDbEntity
8
0-0
6
CONTINUOUS
62
  7
100
AcDbVertex
100
AcDb2dVertex
10
2216.996124804649
20
2624.552153599479
30
0.0
0
VERTEX
5
5e9
100
AcDbEntity
8
0-0
6
CONTINUOUS
62
  7
100
AcDbVertex
100
AcDb2dVertex
10
2216.996124804649
20
2532.845153599479
30
0.0
0
VERTEX
5
5ea
100
AcDbEntity
8
0-0
6
CONTINUOUS
62
  7
100
AcDbVertex
100
AcDb2dVertex
10
2191.530124804648
20
2532.845153599479
30
0.0
0
VERTEX
5
5eb
100
AcDbEntity
8
0-0
6
CONTINUOUS
62
  7
100
AcDbVertex
100
AcDb2dVertex
10
2192.286941473813
20
2504.464528505856
30
0.0
0
SEQEND
5
5ec
100
AcDbEntity
8
0-0
0
LINE
5
5ed
100
AcDbEntity
8
0-0
6
CONTINUOUS
62
7
100
AcDbLine
10
2181.395292763000
20
2504.299153599480
30
0.0
11
2460.845424710589
21
2504.299153599480
31
0.0
0
LINE
5
5ee
100
AcDbEntity
8
0-0
6
CONTINUOUS
62
7
100
AcDbLine
10
2246.009124804649
20
2602.845153599479
30
0.0
11
2241.530124804649
21
2504.299153599480
31
0.0
0
LINE
5
5ef
100
AcDbEntity
8
0-0
6
CONTINUOUS
62
7
100
AcDbLine
10
2396.530124804649
20
2602.845153599479
30
0.0
11
2401.530124804649
21
2504.299153599480
31
0.0
0
LINE
5
5f0
100
AcDbEntity
8
0-0
6
CONTINUOUS
62
7
100
AcDbLine
10
2425.467124804648
20
2623.798153599480
30
0.0
11
2425.467124804648
21
2532.845153599479
31
0.0
0
LINE
5
5f1
100
AcDbEntity
8
0-0
6
CONTINUOUS
62
7
100
AcDbLine
10
2451.530124804649
20
2532.845153599479
30
0.0
11
2425.467124804648
21
2532.845153599479
31
0.0
0
LINE
5
5f2
100
AcDbEntity
8
0-0
6
CONTINUOUS
62
7
100
AcDbLine
10
2451.530124804649
20
2532.845153599479
30
0.0
11
2450.771969370328
21
2504.414324812490
31
0.0
0
LINE
5
5f3
100
AcDbEntity
8
0-0
6
CONTINUOUS
62
7
100
AcDbLine
10
2467.630124804648
20
2731.597153599480
30
0.0
11
2461.565617251711
21
2504.176132001179
31
0.0
0
POLYLINE
5
5f4
100
AcDbEntity
8
0-0
6
CONTINUOUS
62
  7
100
AcDb2dPolyline
66
1
10
0.0
20
0.0
30
0.0
70
0
0
VERTEX
5
5f5
100
AcDbEntity
8
0-0
6
CONTINUOUS
62
  7
100
AcDbVertex
100
AcDb2dVertex
10
2156.521847675204
20
2572.990889546302
30
0.0
0
VERTEX
5
5f6
100
AcDbEntity
8
0-0
6
CONTINUOUS
62
  7
100
AcDbVertex
100
AcDb2dVertex
10
2157.113482694987
20
2573.363929378124
30
0.0
0
VERTEX
5
5f7
100
AcDbEntity
8
0-0
6
CONTINUOUS
62
  7
100
AcDbVertex
100
AcDb2dVertex
10
2158.126867837969
20
2574.013154303098
30
0.0
0
VERTEX
5
5f8
100
AcDbEntity
8
0-0
6
CONTINUOUS
62
  7
100
AcDbVertex
100
AcDb2dVertex
10
2159.121710658856
20
2574.679192564574
30
0.0
0
VERTEX
5
5f9
100
AcDbEntity
8
0-0
6
CONTINUOUS
62
  7
100
AcDbVertex
100
AcDb2dVertex
10
2160.086275510753
20
2575.372685514770
30
0.0
0
VERTEX
5
5fa
100
AcDbEntity
8
0-0
6
CONTINUOUS
62
  7
100
AcDbVertex
100
AcDb2dVertex
10
2161.008826746765
20
2576.104274505904
30
0.0
0
VERTEX
5
5fb
100
AcDbEntity
8
0-0
6
CONTINUOUS
62
  7
100
AcDbVertex
100
AcDb2dVertex
10
2161.877628719995
20
2576.884600890193
30
0.0
0
VERTEX
5
5fc
100
AcDbEntity
8
0-0
6
CONTINUOUS
62
  7
100
AcDbVertex
100
AcDb2dVertex
10
2162.352281497132
20
2577.363714912748
30
0.0
0
VERTEX
5
5fd
100
AcDbEntity
8
0-0
6
CONTINUOUS
62
  7
100
AcDbVertex
100
AcDb2dVertex
10
2162.980144619761
20
2578.073475446375
30
0.0
0
VERTEX
5
5fe
100
AcDbEntity
8
0-0
6
CONTINUOUS
62
  7
100
AcDbVertex
100
AcDb2dVertex
10
2163.966413093229
20
2579.384584954482
30
0.0
0
VERTEX
5
5ff
100
AcDbEntity
8
0-0
6
CONTINUOUS
62
  7
100
AcDbVertex
100
AcDb2dVertex
10
2164.856086636096
20
2580.783575563322
30
0.0
0
VERTEX
5
600
100
AcDbEntity
8
0-0
6
CONTINUOUS
62
  7
100
AcDbVertex
100
AcDb2dVertex
10
2165.678520792339
20
2582.244014566754
30
0.0
0
VERTEX
5
601
100
AcDbEntity
8
0-0
6
CONTINUOUS
62
  7
100
AcDbVertex
100
AcDb2dVertex
10
2166.463071105938
20
2583.739469258638
30
0.0
0
VERTEX
5
602
100
AcDbEntity
8
0-0
6
CONTINUOUS
62
  7
100
AcDbVertex
100
AcDb2dVertex
10
2167.239093120871
20
2585.243506932832
30
0.0
0
VERTEX
5
603
100
AcDbEntity
8
0-0
6
CONTINUOUS
62
  7
100
AcDbVertex
100
AcDb2dVertex
10
2167.696845833899
20
2586.109365645640
30
0.0
0
VERTEX
5
604
100
AcDbEntity
8
0-0
6
CONTINUOUS
62
  7
100
AcDbVertex
100
AcDb2dVertex
10
2168.185316477382
20
2586.999872863833
30
0.0
0
VERTEX
5
605
100
AcDbEntity
8
0-0
6
CONTINUOUS
62
  7
100
AcDbVertex
100
AcDb2dVertex
10
2169.051825422618
20
2588.512603528567
30
0.0
0
VERTEX
5
606
100
AcDbEntity
8
0-0
6
CONTINUOUS
62
  7
100
AcDbVertex
100
AcDb2dVertex
10
2169.936911659254
20
2590.005410285351
30
0.0
0
VERTEX
5
607
100
AcDbEntity
8
0-0
6
CONTINUOUS
62
  7
100
AcDbVertex
100
AcDb2dVertex
10
2170.826383076006
20
2591.488429608623
30
0.0
0
VERTEX
5
608
100
AcDbEntity
8
0-0
6
CONTINUOUS
62
  7
100
AcDbVertex
100
AcDb2dVertex
10
2171.706047561593
20
2592.971797972821
30
0.0
0
VERTEX
5
609
100
AcDbEntity
8
0-0
6
CONTINUOUS
62
  7
100
AcDbVertex
100
AcDb2dVertex
10
2172.561713004731
20
2594.465651852382
30
0.0
0
VERTEX
5
60a
100
AcDbEntity
8
0-0
6
CONTINUOUS
62
  7
100
AcDbVertex
100
AcDb2dVertex
10
2173.041410170667
20
2595.340885863692
30
0.0
0
VERTEX
5
60b
100
AcDbEntity
8
0-0
6
CONTINUOUS
62
  7
100
AcDbVertex
100
AcDb2dVertex
10
2173.682261183199
20
2596.569362282928
30
0.0
0
VERTEX
5
60c
100
AcDbEntity
8
0-0
6
CONTINUOUS
62
  7
100
AcDbVertex
100
AcDb2dVertex
10
2174.724821120395
20
2598.723021866205
30
0.0
0
VERTEX
5
60d
100
AcDbEntity
8
0-0
6
CONTINUOUS
62
  7
100
AcDbVertex
100
AcDb2dVertex
10
2175.700928001102
20
2600.914617345107
30
0.0
0
VERTEX
5
60e
100
AcDbEntity
8
0-0
6
CONTINUOUS
62
  7
100
AcDbVertex
100
AcDb2dVertex
10
2176.625091226299
20
2603.135865772990
30
0.0
0
VERTEX
5
60f
100
AcDbEntity
8
0-0
6
CONTINUOUS
62
  7
100
AcDbVertex
100
AcDb2dVertex
10
2177.511820196967
20
2605.378484203211
30
0.0
0
VERTEX
5
610
100
AcDbEntity
8
0-0
6
CONTINUOUS
62
  7
100
AcDbVertex
100
AcDb2dVertex
10
2178.375624314086
20
2607.634189689129
30
0.0
0
VERTEX
5
611
100
AcDbEntity
8
0-0
6
CONTINUOUS
62
  7
100
AcDbVertex
100
AcDb2dVertex
10
2178.871843992594
20
2608.945231448190
30
0.0
0
SEQEND
5
612
100
AcDbEntity
8
0-0
0
POLYLINE
5
613
100
AcDbEntity
8
0-0
6
CONTINUOUS
62
  7
100
AcDb2dPolyline
66
1
10
0.0
20
0.0
30
0.0
70
0
0
VERTEX
5
614
100
AcDbEntity
8
0-0
6
CONTINUOUS
62
  7
100
AcDbVertex
100
AcDb2dVertex
10
2156.035978190043
20
2559.386543961804
30
0.0
0
VERTEX
5
615
100
AcDbEntity
8
0-0
6
CONTINUOUS
62
  7
100
AcDbVertex
100
AcDb2dVertex
10
2157.022577069379
20
2559.542280659290
30
0.0
0
VERTEX
5
616
100
AcDbEntity
8
0-0
6
CONTINUOUS
62
  7
100
AcDbVertex
100
AcDb2dVertex
10
2158.719557066899
20
2559.822213490964
30
0.0
0
VERTEX
5
617
100
AcDbEntity
8
0-0
6
CONTINUOUS
62
  7
100
AcDbVertex
100
AcDb2dVertex
10
2160.405279972585
20
2560.133872112316
30
0.0
0
VERTEX
5
618
100
AcDbEntity
8
0-0
6
CONTINUOUS
62
  7
100
AcDbVertex
100
AcDb2dVertex
10
2162.072621044772
20
2560.497336137066
30
0.0
0
VERTEX
5
619
100
AcDbEntity
8
0-0
6
CONTINUOUS
62
  7
100
AcDbVertex
100
AcDb2dVertex
10
2163.714455541794
20
2560.932685178934
30
0.0
0
VERTEX
5
61a
100
AcDbEntity
8
0-0
6
CONTINUOUS
62
  7
100
AcDbVertex
100
AcDb2dVertex
10
2165.323658721983
20
2561.459998851641
30
0.0
0
VERTEX
5
61b
100
AcDbEntity
8
0-0
6
CONTINUOUS
62
  7
100
AcDbVertex
100
AcDb2dVertex
10
2166.239237378417
20
2561.815891387607
30
0.0
0
VERTEX
5
61c
100
AcDbEntity
8
0-0
6
CONTINUOUS
62
  7
100
AcDbVertex
100
AcDb2dVertex
10
2166.935117491109
20
2562.118098739748
30
0.0
0
VERTEX
5
61d
100
AcDbEntity
8
0-0
6
CONTINUOUS
62
  7
100
AcDbVertex
100
AcDb2dVertex
10
2168.112235942945
20
2562.695750365379
30
0.0
0
VERTEX
5
61e
100
AcDbEntity
8
0-0
6
CONTINUOUS
62
  7
100
AcDbVertex
100
AcDb2dVertex
10
2169.257529586497
20
2563.342816127432
30
0.0
0
VERTEX
5
61f
100
AcDbEntity
8
0-0
6
CONTINUOUS
62
  7
100
AcDbVertex
100
AcDb2dVertex
10
2170.367367640731
20
2564.056694761562
30
0.0
0
VERTEX
5
620
100
AcDbEntity
8
0-0
6
CONTINUOUS
62
  7
100
AcDbVertex
100
AcDb2dVertex
10
2171.438119324614
20
2564.834785003427
30
0.0
0
VERTEX
5
621
100
AcDbEntity
8
0-0
6
CONTINUOUS
62
  7
100
AcDbVertex
100
AcDb2dVertex
10
2172.466153857111
20
2565.674485588681
30
0.0
0
VERTEX
5
622
100
AcDbEntity
8
0-0
6
CONTINUOUS
62
  7
100
AcDbVertex
100
AcDb2dVertex
10
2173.041410170667
20
2566.188716754053
30
0.0
0
VERTEX
5
623
100
AcDbEntity
8
0-0
6
CONTINUOUS
62
  7
100
AcDbVertex
100
AcDb2dVertex
10
2173.691694616387
20
2566.813006197401
30
0.0
0
VERTEX
5
624
100
AcDbEntity
8
0-0
6
CONTINUOUS
62
  7
100
AcDbVertex
100
AcDb2dVertex
10
2174.754464547458
20
2567.948223918681
30
0.0
0
VERTEX
5
625
100
AcDbEntity
8
0-0
6
CONTINUOUS
62
  7
100
AcDbVertex
100
AcDb2dVertex
10
2175.733753052785
20
2569.153456687038
30
0.0
0
VERTEX
5
626
100
AcDbEntity
8
0-0
6
CONTINUOUS
62
  7
100
AcDbVertex
100
AcDb2dVertex
10
2176.618461841851
20
2570.423487068165
30
0.0
0
VERTEX
5
627
100
AcDbEntity
8
0-0
6
CONTINUOUS
62
  7
100
AcDbVertex
100
AcDb2dVertex
10
2177.397492624139
20
2571.753097627756
30
0.0
0
VERTEX
5
628
100
AcDbEntity
8
0-0
6
CONTINUOUS
62
  7
100
AcDbVertex
100
AcDb2dVertex
10
2178.059747109132
20
2573.137070931502
30
0.0
0
VERTEX
5
629
100
AcDbEntity
8
0-0
6
CONTINUOUS
62
  7
100
AcDbVertex
100
AcDb2dVertex
10
2178.385974507433
20
2573.962628516623
30
0.0
0
VERTEX
5
62a
100
AcDbEntity
8
0-0
6
CONTINUOUS
62
  7
100
AcDbVertex
100
AcDb2dVertex
10
2178.496880341091
20
2574.276195455710
30
0.0
0
VERTEX
5
62b
100
AcDbEntity
8
0-0
6
CONTINUOUS
62
  7
100
AcDbVertex
100
AcDb2dVertex
10
2178.674924034295
20
2574.821351473381
30
0.0
0
VERTEX
5
62c
100
AcDbEntity
8
0-0
6
CONTINUOUS
62
  7
100
AcDbVertex
100
AcDb2dVertex
10
2178.838928836697
20
2575.371328090327
30
0.0
0
VERTEX
5
62d
100
AcDbEntity
8
0-0
6
CONTINUOUS
62
  7
100
AcDbVertex
100
AcDb2dVertex
10
2178.991960008297
20
2575.925072773955
30
0.0
0
VERTEX
5
62e
100
AcDbEntity
8
0-0
6
CONTINUOUS
62
  7
100
AcDbVertex
100
AcDb2dVertex
10
2179.137082809094
20
2576.481532991674
30
0.0
0
VERTEX
5
62f
100
AcDbEntity
8
0-0
6
CONTINUOUS
62
  7
100
AcDbVertex
100
AcDb2dVertex
10
2179.277362499091
20
2577.039656210890
30
0.0
0
VERTEX
5
630
100
AcDbEntity
8
0-0
6
CONTINUOUS
62
  7
100
AcDbVertex
100
AcDb2dVertex
10
2179.357713477755
20
2577.363714912748
30
0.0
0
SEQEND
5
631
100
AcDbEntity
8
0-0
0
LINE
5
632
100
AcDbEntity
8
0-0
6
CONTINUOUS
62
7
100
AcDbLine
10
3375.129307433190
20
2502.324714043079
30
0.0
11
3319.523619448328
21
2502.324714043079
31
0.0
0
LINE
5
633
100
AcDbEntity
8
0-0
6
CONTINUOUS
62
7
100
AcDbLine
10
3363.377601230631
20
2514.042010873123
30
0.0
11
3331.377601230631
21
2514.042010873123
31
0.0
0
ARC
5
634
100
AcDbEntity
8
0-0
6
CONTINUOUS
62
7
100
AcDbCircle
10
3331.377601230631
20
2502.042010873123
30
0.0
40
12.000000000000
100
AcDbArc
50
90.000000000000
51
180.000000000000
0
ARC
5
635
100
AcDbEntity
8
0-0
6
CONTINUOUS
62
7
100
AcDbCircle
10
3363.377601230631
20
2502.042010873123
30
0.0
40
12.000000000000
100
AcDbArc
50
0.000000000000
51
90.000000000000
0
LINE
5
636
100
AcDbEntity
8
0-0
6
CONTINUOUS
62
7
100
AcDbLine
10
3359.917833215490
20
2576.061756970156
30
0.0
11
3334.917833215490
21
2576.061756970156
31
0.0
0
LINE
5
637
100
AcDbEntity
8
0-0
6
CONTINUOUS
62
7
100
AcDbLine
10
3334.917833215490
20
2546.769291187026
30
0.0
11
3359.917833215490
21
2546.769291187026
31
0.0
0
LINE
5
638
100
AcDbEntity
8
0-0
6
CONTINUOUS
62
7
100
AcDbLine
10
3359.917833215490
20
2538.769291187026
30
0.0
11
3334.917833215490
21
2538.769291187026
31
0.0
0
ARC
5
639
100
AcDbEntity
8
0-0
6
CONTINUOUS
62
7
100
AcDbCircle
10
3347.368573468564
20
2542.808969114112
30
0.0
40
13.134414676531
100
AcDbArc
50
342.276763383114
51
377.297564485525
0
ARC
5
63a
100
AcDbEntity
8
0-0
6
CONTINUOUS
62
7
100
AcDbCircle
10
3347.368573468564
20
2542.808969114112
30
0.0
40
13.134414676531
100
AcDbArc
50
162.521885466274
51
198.017609214690
0
CIRCLE
5
63b
100
AcDbEntity
8
0-0
6
CONTINUOUS
62
7
100
AcDbCircle
10
3347.385031675857
20
2542.796251408477
30
0.0
40
3.389457447208
0
ARC
5
63c
100
AcDbEntity
8
0-0
6
CONTINUOUS
62
7
100
AcDbCircle
10
3334.716437788322
20
2542.792987867742
30
0.0
40
3.389457447208
100
AcDbArc
50
269.971509582607
51
449.978070214998
0
ARC
5
63d
100
AcDbEntity
8
0-0
6
CONTINUOUS
62
7
100
AcDbCircle
10
3360.025798631099
20
2542.806752120397
30
0.0
40
3.389457447208
100
AcDbArc
50
90.339830380176
51
269.767752220994
0
ARC
5
63e
100
AcDbEntity
8
0-0
6
CONTINUOUS
62
7
100
AcDbCircle
10
3351.697601230631
20
2607.735460669548
30
0.0
40
3.240000000000
100
AcDbArc
50
0.000000000000
51
90.000000000000
0
ARC
5
63f
100
AcDbEntity
8
0-0
6
CONTINUOUS
62
7
100
AcDbCircle
10
3343.057601230632
20
2607.735460669548
30
0.0
40
3.240000000000
100
AcDbArc
50
90.000000000000
51
180.000000000000
0
LINE
5
640
100
AcDbEntity
8
0-0
6
CONTINUOUS
62
7
100
AcDbLine
10
3351.697601230631
20
2610.975460669550
30
0.0
11
3343.057601230632
21
2610.975460669550
31
0.0
0
ARC
5
641
100
AcDbEntity
8
0-0
6
CONTINUOUS
62
7
100
AcDbCircle
10
3325.486648144100
20
2601.706095470637
30
0.0
40
3.000000000000
100
AcDbArc
50
180.000000000000
51
270.000000000000
0
LINE
5
642
100
AcDbEntity
8
0-0
6
CONTINUOUS
62
7
100
AcDbLine
10
3322.486648144100
20
2604.706095470637
30
0.0
11
3322.486648144100
21
2601.706095470637
31
0.0
0
ARC
5
643
100
AcDbEntity
8
0-0
6
CONTINUOUS
62
7
100
AcDbCircle
10
3325.486648144100
20
2604.706095470637
30
0.0
40
3.000000000000
100
AcDbArc
50
90.000000000000
51
180.000000000000
0
LINE
5
644
100
AcDbEntity
8
0-0
6
CONTINUOUS
62
7
100
AcDbLine
10
3369.486648144100
20
2598.706095470637
30
0.0
11
3325.486648144100
21
2598.706095470637
31
0.0
0
ARC
5
645
100
AcDbEntity
8
0-0
6
CONTINUOUS
62
7
100
AcDbCircle
10
3369.486648144100
20
2601.706095470637
30
0.0
40
3.000000000000
100
AcDbArc
50
270.000000000000
51
360.000000000000
0
LINE
5
646
100
AcDbEntity
8
0-0
6
CONTINUOUS
62
7
100
AcDbLine
10
3372.486648144100
20
2604.706095470637
30
0.0
11
3372.486648144100
21
2601.706095470637
31
0.0
0
LINE
5
647
100
AcDbEntity
8
0-0
6
CONTINUOUS
62
7
100
AcDbLine
10
3369.486648144100
20
2607.706095470637
30
0.0
11
3325.486648144100
21
2607.706095470637
31
0.0
0
ARC
5
648
100
AcDbEntity
8
0-0
6
CONTINUOUS
62
7
100
AcDbCircle
10
3369.486648144100
20
2604.706095470637
30
0.0
40
3.000000000000
100
AcDbArc
50
0.000000000000
51
90.000000000000
0
ARC
5
649
100
AcDbEntity
8
0-0
6
CONTINUOUS
62
7
100
AcDbCircle
10
3347.368573468564
20
2580.101434897243
30
0.0
40
13.134414676531
100
AcDbArc
50
342.276763383114
51
377.297564485525
0
ARC
5
64a
100
AcDbEntity
8
0-0
6
CONTINUOUS
62
7
100
AcDbCircle
10
3347.368573468564
20
2580.101434897243
30
0.0
40
13.134414676531
100
AcDbArc
50
162.521885466274
51
198.017609214690
0
CIRCLE
5
64b
100
AcDbEntity
8
0-0
6
CONTINUOUS
62
7
100
AcDbCircle
10
3347.385031675858
20
2580.088717191607
30
0.0
40
3.389457447208
0
ARC
5
64c
100
AcDbEntity
8
0-0
6
CONTINUOUS
62
7
100
AcDbCircle
10
3334.716437788322
20
2580.085453650873
30
0.0
40
3.389457447208
100
AcDbArc
50
269.971509582607
51
449.978070214998
0
ARC
5
64d
100
AcDbEntity
8
0-0
6
CONTINUOUS
62
7
100
AcDbCircle
10
3360.025798631099
20
2580.099217903527
30
0.0
40
3.389457447208
100
AcDbArc
50
90.339830380176
51
269.767752220994
0
LINE
5
64e
100
AcDbEntity
8
0-0
6
CONTINUOUS
62
7
100
AcDbLine
10
3335.020419665104
20
2583.788140762677
30
0.0
11
3359.888295263488
21
2583.788140762677
31
0.0
0
LINE
5
64f
100
AcDbEntity
8
0-0
6
CONTINUOUS
62
7
100
AcDbLine
10
3335.177575638249
20
2546.836077854777
30
0.0
11
3335.177575638249
21
2575.985155065258
31
0.0
0
POLYLINE
5
650
100
AcDbEntity
8
0-0
6
CONTINUOUS
62
  7
100
AcDb2dPolyline
66
1
10
0.0
20
0.0
30
0.0
70
0
0
VERTEX
5
651
100
AcDbEntity
8
0-0
6
CONTINUOUS
62
  7
100
AcDbVertex
100
AcDb2dVertex
10
3334.848786443139
20
2583.784387563834
30
0.0
0
VERTEX
5
652
100
AcDbEntity
8
0-0
6
CONTINUOUS
62
  7
100
AcDbVertex
100
AcDb2dVertex
10
3335.320855537238
20
2584.059535335638
30
0.0
0
VERTEX
5
653
100
AcDbEntity
8
0-0
6
CONTINUOUS
62
  7
100
AcDbVertex
100
AcDb2dVertex
10
3336.132760642417
20
2584.536674583083
30
0.0
0
VERTEX
5
654
100
AcDbEntity
8
0-0
6
CONTINUOUS
62
  7
100
AcDbVertex
100
AcDb2dVertex
10
3336.939090397526
20
2585.021443101181
30
0.0
0
VERTEX
5
655
100
AcDbEntity
8
0-0
6
CONTINUOUS
62
  7
100
AcDbVertex
100
AcDb2dVertex
10
3337.736316099992
20
2585.518669542249
30
0.0
0
VERTEX
5
656
100
AcDbEntity
8
0-0
6
CONTINUOUS
62
  7
100
AcDbVertex
100
AcDb2dVertex
10
3338.520909047238
20
2586.033182558596
30
0.0
0
VERTEX
5
657
100
AcDbEntity
8
0-0
6
CONTINUOUS
62
  7
100
AcDbVertex
100
AcDb2dVertex
10
3339.289340536689
20
2586.569810802538
30
0.0
0
VERTEX
5
658
100
AcDbEntity
8
0-0
6
CONTINUOUS
62
  7
100
AcDbVertex
100
AcDb2dVertex
10
3339.726235128301
20
2586.893091121409
30
0.0
0
VERTEX
5
659
100
AcDbEntity
8
0-0
6
CONTINUOUS
62
  7
100
AcDbVertex
100
AcDb2dVertex
10
3339.975963193696
20
2587.084703775007
30
0.0
0
VERTEX
5
65a
100
AcDbEntity
8
0-0
6
CONTINUOUS
62
  7
100
AcDbVertex
100
AcDb2dVertex
10
3340.401444755560
20
2587.422027422968
30
0.0
0
VERTEX
5
65b
100
AcDbEntity
8
0-0
6
CONTINUOUS
62
  7
100
AcDbVertex
100
AcDb2dVertex
10
3340.821508169614
20
2587.766765227094
30
0.0
0
VERTEX
5
65c
100
AcDbEntity
8
0-0
6
CONTINUOUS
62
  7
100
AcDbVertex
100
AcDb2dVertex
10
3341.237336437566
20
2588.117298375993
30
0.0
0
VERTEX
5
65d
100
AcDbEntity
8
0-0
6
CONTINUOUS
62
  7
100
AcDbVertex
100
AcDb2dVertex
10
3341.650112561119
20
2588.472008058278
30
0.0
0
VERTEX
5
65e
100
AcDbEntity
8
0-0
6
CONTINUOUS
62
  7
100
AcDbVertex
100
AcDb2dVertex
10
3342.061019541977
20
2588.829275462557
30
0.0
0
VERTEX
5
65f
100
AcDbEntity
8
0-0
6
CONTINUOUS
62
  7
100
AcDbVertex
100
AcDb2dVertex
10
3342.298955313881
20
2589.037024609392
30
0.0
0
SEQEND
5
660
100
AcDbEntity
8
0-0
0
LINE
5
661
100
AcDbEntity
8
0-0
6
CONTINUOUS
62
7
100
AcDbLine
10
3352.377601230631
20
2589.067109485374
30
0.0
11
3342.377601230631
21
2589.067109485374
31
0.0
0
POLYLINE
5
662
100
AcDbEntity
8
0-0
6
CONTINUOUS
62
  7
100
AcDb2dPolyline
66
1
10
0.0
20
0.0
30
0.0
70
0
0
VERTEX
5
663
100
AcDbEntity
8
0-0
6
CONTINUOUS
62
  7
100
AcDbVertex
100
AcDb2dVertex
10
3359.986406589743
20
2583.837985901033
30
0.0
0
VERTEX
5
664
100
AcDbEntity
8
0-0
6
CONTINUOUS
62
  7
100
AcDbVertex
100
AcDb2dVertex
10
3359.494841047324
20
2584.096672812187
30
0.0
0
VERTEX
5
665
100
AcDbEntity
8
0-0
6
CONTINUOUS
62
  7
100
AcDbVertex
100
AcDb2dVertex
10
3358.650002995949
20
2584.546427517188
30
0.0
0
VERTEX
5
666
100
AcDbEntity
8
0-0
6
CONTINUOUS
62
  7
100
AcDbVertex
100
AcDb2dVertex
10
3357.812633683182
20
2585.006578858910
30
0.0
0
VERTEX
5
667
100
AcDbEntity
8
0-0
6
CONTINUOUS
62
  7
100
AcDbVertex
100
AcDb2dVertex
10
3356.987460158774
20
2585.483706987178
30
0.0
0
VERTEX
5
668
100
AcDbEntity
8
0-0
6
CONTINUOUS
62
  7
100
AcDbVertex
100
AcDb2dVertex
10
3356.179209472478
20
2585.984392051813
30
0.0
0
VERTEX
5
669
100
AcDbEntity
8
0-0
6
CONTINUOUS
62
  7
100
AcDbVertex
100
AcDb2dVertex
10
3355.392608674046
20
2586.515214202639
30
0.0
0
VERTEX
5
66a
100
AcDbEntity
8
0-0
6
CONTINUOUS
62
  7
100
AcDbVertex
100
AcDb2dVertex
10
3354.948162892983
20
2586.839492784210
30
0.0
0
VERTEX
5
66b
100
AcDbEntity
8
0-0
6
CONTINUOUS
62
  7
100
AcDbVertex
100
AcDb2dVertex
10
3354.690465656970
20
2587.036953346325
30
0.0
0
VERTEX
5
66c
100
AcDbEntity
8
0-0
6
CONTINUOUS
62
  7
100
AcDbVertex
100
AcDb2dVertex
10
3354.253227555583
20
2587.387240665031
30
0.0
0
VERTEX
5
66d
100
AcDbEntity
8
0-0
6
CONTINUOUS
62
  7
100
AcDbVertex
100
AcDb2dVertex
10
3353.823521343851
20
2587.748012528006
30
0.0
0
VERTEX
5
66e
100
AcDbEntity
8
0-0
6
CONTINUOUS
62
  7
100
AcDbVertex
100
AcDb2dVertex
10
3353.399702504382
20
2588.116979733444
30
0.0
0
VERTEX
5
66f
100
AcDbEntity
8
0-0
6
CONTINUOUS
62
  7
100
AcDbVertex
100
AcDb2dVertex
10
3352.980126519785
20
2588.491853079541
30
0.0
0
VERTEX
5
670
100
AcDbEntity
8
0-0
6
CONTINUOUS
62
  7
100
AcDbVertex
100
AcDb2dVertex
10
3352.563148872666
20
2588.870343364489
30
0.0
0
VERTEX
5
671
100
AcDbEntity
8
0-0
6
CONTINUOUS
62
  7
100
AcDbVertex
100
AcDb2dVertex
10
3352.321844370203
20
2589.090622946592
30
0.0
0
SEQEND
5
672
100
AcDbEntity
8
0-0
0
LINE
5
673
100
AcDbEntity
8
0-0
6
CONTINUOUS
62
7
100
AcDbLine
10
3343.377601230631
20
2589.045235731964
30
0.0
11
3343.377601230631
21
2598.778329208125
31
0.0
0
LINE
5
674
100
AcDbEntity
8
0-0
6
CONTINUOUS
62
7
100
AcDbLine
10
3351.377601230631
20
2588.977977579595
30
0.0
11
3351.377601230631
21
2598.778329208125
31
0.0
0
LINE
5
675
100
AcDbEntity
8
0-0
6
CONTINUOUS
62
7
100
AcDbLine
10
3359.768870919939
20
2546.856292282228
30
0.0
11
3359.768870919939
21
2576.049736688118
31
0.0
0
LINE
5
676
100
AcDbEntity
8
0-0
6
CONTINUOUS
62
7
100
AcDbLine
10
3339.377601230631
20
2514.519304388139
30
0.0
11
3339.377601230631
21
2539.320675849340
31
0.0
0
LINE
5
677
100
AcDbEntity
8
0-0
6
CONTINUOUS
62
7
100
AcDbLine
10
3355.377601230631
20
2514.271075007483
30
0.0
11
3355.377601230631
21
2539.026864450254
31
0.0
0
LINE
5
678
100
AcDbEntity
8
0-0
6
CONTINUOUS
62
7
100
AcDbLine
10
3467.040513180620
20
3250.510664747979
30
0.0
11
3302.040513180620
21
3250.510664747979
31
0.0
0
LINE
5
679
100
AcDbEntity
8
0-0
6
CONTINUOUS
62
7
100
AcDbLine
10
3297.040513180620
20
3245.510664747979
30
0.0
11
3297.040513180620
21
2833.095664747979
31
0.0
0
LINE
5
67a
100
AcDbEntity
8
0-0
6
CONTINUOUS
62
7
100
AcDbLine
10
4012.040513180621
20
2875.510664747979
30
0.0
11
3481.964513180620
21
2875.510664747979
31
0.0
0
LINE
5
67b
100
AcDbEntity
8
0-0
6
CONTINUOUS
62
7
100
AcDbLine
10
3472.040513180620
20
3205.510664747979
30
0.0
11
3476.964513180621
21
2880.433664747979
31
0.0
0
LINE
5
67c
100
AcDbEntity
8
0-0
6
CONTINUOUS
62
7
100
AcDbLine
10
3297.040513180620
20
3205.510664747979
30
0.0
11
3472.040513180620
21
3205.510664747979
31
0.0
0
LINE
5
67d
100
AcDbEntity
8
0-0
6
CONTINUOUS
62
7
100
AcDbLine
10
4008.428513180621
20
2888.522664747979
30
0.0
11
4012.137513180621
21
2878.510664747979
31
0.0
0
LINE
5
67e
100
AcDbEntity
8
0-0
6
CONTINUOUS
62
7
100
AcDbLine
10
4008.428513180621
20
2903.522664747979
30
0.0
11
4012.137513180621
21
2893.510664747979
31
0.0
0
LINE
5
67f
100
AcDbEntity
8
0-0
6
CONTINUOUS
62
7
100
AcDbLine
10
4005.656513180620
20
2890.510664747979
30
0.0
11
3588.061513180620
21
2890.510664747979
31
0.0
0
LINE
5
680
100
AcDbEntity
8
0-0
6
CONTINUOUS
62
7
100
AcDbLine
10
4012.137513180621
20
2878.510664747979
30
0.0
11
3577.040513180621
21
2878.510664747979
31
0.0
0
LINE
5
681
100
AcDbEntity
8
0-0
6
CONTINUOUS
62
7
100
AcDbLine
10
3577.040513180621
20
2880.868664747979
30
0.0
11
3577.040513180621
21
2875.510664747979
31
0.0
0
LINE
5
682
100
AcDbEntity
8
0-0
6
CONTINUOUS
62
7
100
AcDbLine
10
3472.040513180620
20
3205.510664747979
30
0.0
11
3472.040513180620
21
3245.510664747979
31
0.0
0
POLYLINE
5
683
100
AcDbEntity
8
0-0
6
CONTINUOUS
62
  7
100
AcDb2dPolyline
66
1
10
0.0
20
0.0
30
0.0
70
0
0
VERTEX
5
684
100
AcDbEntity
8
0-0
6
CONTINUOUS
62
  7
100
AcDbVertex
100
AcDb2dVertex
10
3362.040513180620
20
3250.510664747979
30
0.0
0
VERTEX
5
685
100
AcDbEntity
8
0-0
6
CONTINUOUS
62
  7
100
AcDbVertex
100
AcDb2dVertex
10
3412.040513180620
20
3250.510664747979
30
0.0
0
VERTEX
5
686
100
AcDbEntity
8
0-0
6
CONTINUOUS
62
  7
100
AcDbVertex
100
AcDb2dVertex
10
3412.040513180620
20
3253.510664747980
30
0.0
0
VERTEX
5
687
100
AcDbEntity
8
0-0
6
CONTINUOUS
62
  7
100
AcDbVertex
100
AcDb2dVertex
10
3362.040513180620
20
3253.510664747980
30
0.0
0
VERTEX
5
688
100
AcDbEntity
8
0-0
6
CONTINUOUS
62
  7
100
AcDbVertex
100
AcDb2dVertex
10
3362.040513180620
20
3250.510664747979
30
0.0
0
SEQEND
5
689
100
AcDbEntity
8
0-0
0
POLYLINE
5
68a
100
AcDbEntity
8
0-0
6
CONTINUOUS
62
  7
100
AcDb2dPolyline
66
1
10
0.0
20
0.0
30
0.0
70
0
0
VERTEX
5
68b
100
AcDbEntity
8
0-0
6
CONTINUOUS
62
  7
100
AcDbVertex
100
AcDb2dVertex
10
3372.040513180620
20
3253.510664747980
30
0.0
0
VERTEX
5
68c
100
AcDbEntity
8
0-0
6
CONTINUOUS
62
  7
100
AcDbVertex
100
AcDb2dVertex
10
3402.040513180620
20
3253.510664747980
30
0.0
0
VERTEX
5
68d
100
AcDbEntity
8
0-0
6
CONTINUOUS
62
  7
100
AcDbVertex
100
AcDb2dVertex
10
3402.040513180620
20
3255.510664747979
30
0.0
0
VERTEX
5
68e
100
AcDbEntity
8
0-0
6
CONTINUOUS
62
  7
100
AcDbVertex
100
AcDb2dVertex
10
3372.040513180620
20
3255.510664747979
30
0.0
0
VERTEX
5
68f
100
AcDbEntity
8
0-0
6
CONTINUOUS
62
  7
100
AcDbVertex
100
AcDb2dVertex
10
3372.040513180620
20
3253.510664747980
30
0.0
0
SEQEND
5
690
100
AcDbEntity
8
0-0
0
ARC
5
691
100
AcDbEntity
8
0-0
6
CONTINUOUS
62
7
100
AcDbCircle
10
4012.040513180621
20
2870.510664747979
30
0.0
40
5.000000000000
100
AcDbArc
50
0.000000000000
51
90.000000000000
0
ARC
5
692
100
AcDbEntity
8
0-0
6
CONTINUOUS
62
7
100
AcDbCircle
10
4012.040513180621
20
2870.510664747979
30
0.0
40
5.000000000000
100
AcDbArc
50
0.000000000000
51
90.000000000000
0
ARC
5
693
100
AcDbEntity
8
0-0
6
CONTINUOUS
62
7
100
AcDbCircle
10
3467.040513180620
20
3245.510664747979
30
0.0
40
5.000000000000
100
AcDbArc
50
0.000000000000
51
90.000000000000
0
ARC
5
694
100
AcDbEntity
8
0-0
6
CONTINUOUS
62
7
100
AcDbCircle
10
3302.040513180620
20
3245.510664747979
30
0.0
40
5.000000000000
100
AcDbArc
50
90.000000000000
51
180.000000000000
0
ARC
5
695
100
AcDbEntity
8
0-0
6
CONTINUOUS
62
7
100
AcDbCircle
10
3465.871513180620
20
2701.557664747979
30
0.0
40
88.568000000000
100
AcDbArc
50
21.372260783429
51
83.636164859471
0
ARC
5
696
100
AcDbEntity
8
0-0
6
CONTINUOUS
62
7
100
AcDbCircle
10
3481.727513180621
20
2679.324664747979
30
0.0
40
5.518000000000
100
AcDbArc
50
44.141624232508
51
197.770584754034
0
ARC
5
697
100
AcDbEntity
8
0-0
6
CONTINUOUS
62
7
100
AcDbCircle
10
4005.313513180620
20
2902.105664747979
30
0.0
40
3.423000000000
100
AcDbArc
50
24.454000000000
51
84.243000000000
0
ARC
5
698
100
AcDbEntity
8
0-0
6
CONTINUOUS
62
7
100
AcDbCircle
10
4005.313513180620
20
2887.105664747979
30
0.0
40
3.423000000000
100
AcDbArc
50
24.454000000000
51
84.243000000000
0
ARC
5
699
100
AcDbEntity
8
0-0
6
CONTINUOUS
62
7
100
AcDbCircle
10
3805.924513180620
20
1737.946664747979
30
0.0
40
1184.525000000000
100
AcDbArc
50
80.292549826286
51
95.482754931166
0
ARC
5
69a
100
AcDbEntity
8
0-0
6
CONTINUOUS
62
7
100
AcDbCircle
10
3592.331513180620
20
2874.510664747979
30
0.0
40
16.560000000000
100
AcDbArc
50
80.157398692586
51
157.423123494442
0
ARC
5
69b
100
AcDbEntity
8
0-0
6
CONTINUOUS
62
7
100
AcDbCircle
10
3875.124513180621
20
-8213.145335252022
30
0.0
40
11107.501000000000
100
AcDbArc
50
89.293230716542
51
91.444280297056
0
ARC
5
69c
100
AcDbEntity
8
0-0
6
CONTINUOUS
62
7
100
AcDbCircle
10
3481.964513180620
20
2880.510664747979
30
0.0
40
5.000000000000
100
AcDbArc
50
180.881000000000
51
270.000000000000
0
ARC
5
69d
100
AcDbEntity
8
0-0
6
CONTINUOUS
62
7
100
AcDbCircle
10
3481.123513180621
20
2820.522664747979
30
0.0
40
5.000000000000
100
AcDbArc
50
90.000000000000
51
179.119000000000
0
LINE
5
69e
100
AcDbEntity
8
0-0
6
CONTINUOUS
62
7
100
AcDbLine
10
4000.457959935770
20
2825.510664747979
30
0.0
11
3480.780513180620
21
2825.510664747979
31
0.0
0
ARC
5
69f
100
AcDbEntity
8
0-0
6
CONTINUOUS
62
7
100
AcDbCircle
10
3669.322513180621
20
3194.795664747979
30
0.0
40
278.730000000000
100
AcDbArc
50
252.830059025956
51
274.821047237777
0
LINE
5
6a0
100
AcDbEntity
8
0-0
6
CONTINUOUS
62
7
100
AcDbLine
10
3515.310284058282
20
2885.510664747979
30
0.0
11
3515.310284058282
21
2875.510664747979
31
0.0
0
LINE
5
6a1
100
AcDbEntity
8
0-0
6
CONTINUOUS
62
7
100
AcDbLine
10
3540.310284058282
20
2885.510664747979
30
0.0
11
3515.310284058282
21
2885.510664747979
31
0.0
0
LINE
5
6a2
100
AcDbEntity
8
0-0
6
CONTINUOUS
62
7
100
AcDbLine
10
3565.310284058282
20
2875.510664747979
30
0.0
11
3515.310284058282
21
2875.510664747979
31
0.0
0
ARC
5
6a3
100
AcDbEntity
8
0-0
6
CONTINUOUS
62
7
100
AcDbCircle
10
3440.000284058282
20
2942.853664747979
30
0.0
40
115.543000000000
100
AcDbArc
50
330.245171103881
51
356.356340427656
0
ARC
5
6a4
100
AcDbEntity
8
0-0
6
CONTINUOUS
62
7
100
AcDbCircle
10
3565.561284058282
20
2951.857664747979
30
0.0
40
70.989000000000
100
AcDbArc
50
249.163705804059
51
265.381666527435
0
ARC
5
6a5
100
AcDbEntity
8
0-0
6
CONTINUOUS
62
7
100
AcDbCircle
10
3565.561284058282
20
2951.857664747979
30
0.0
40
70.989000000000
100
AcDbArc
50
269.563250824946
51
269.797508783493
0
POLYLINE
5
6a6
100
AcDbEntity
8
0-0
6
CONTINUOUS
62
  7
100
AcDb2dPolyline
66
1
10
0.0
20
0.0
30
0.0
70
0
0
VERTEX
5
6a7
100
AcDbEntity
8
0-0
6
CONTINUOUS
62
  7
100
AcDbVertex
100
AcDb2dVertex
10
3555.454568885410
20
2935.395820994049
30
0.0
0
VERTEX
5
6a8
100
AcDbEntity
8
0-0
6
CONTINUOUS
62
  7
100
AcDbVertex
100
AcDb2dVertex
10
3556.618601088819
20
2935.131610537016
30
0.0
0
VERTEX
5
6a9
100
AcDbEntity
8
0-0
6
CONTINUOUS
62
  7
100
AcDbVertex
100
AcDb2dVertex
10
3558.625733632343
20
2934.676901394806
30
0.0
0
VERTEX
5
6aa
100
AcDbEntity
8
0-0
6
CONTINUOUS
62
  7
100
AcDbVertex
100
AcDb2dVertex
10
3560.633367477760
20
2934.224487054089
30
0.0
0
VERTEX
5
6ab
100
AcDbEntity
8
0-0
6
CONTINUOUS
62
  7
100
AcDbVertex
100
AcDb2dVertex
10
3562.641819904746
20
2933.775819920875
30
0.0
0
VERTEX
5
6ac
100
AcDbEntity
8
0-0
6
CONTINUOUS
62
  7
100
AcDbVertex
100
AcDb2dVertex
10
3564.651408192980
20
2933.332352401171
30
0.0
0
VERTEX
5
6ad
100
AcDbEntity
8
0-0
6
CONTINUOUS
62
  7
100
AcDbVertex
100
AcDb2dVertex
10
3566.662449622140
20
2932.895536900986
30
0.0
0
VERTEX
5
6ae
100
AcDbEntity
8
0-0
6
CONTINUOUS
62
  7
100
AcDbVertex
100
AcDb2dVertex
10
3567.829644504917
20
2932.645804189715
30
0.0
0
VERTEX
5
6af
100
AcDbEntity
8
0-0
6
CONTINUOUS
62
  7
100
AcDbVertex
100
AcDb2dVertex
10
3568.850932448039
20
2932.429727944676
30
0.0
0
VERTEX
5
6b0
100
AcDbEntity
8
0-0
6
CONTINUOUS
62
  7
100
AcDbVertex
100
AcDb2dVertex
10
3570.612583663304
20
2932.060903291312
30
0.0
0
VERTEX
5
6b1
100
AcDbEntity
8
0-0
6
CONTINUOUS
62
  7
100
AcDbVertex
100
AcDb2dVertex
10
3572.374699170704
20
2931.694240062025
30
0.0
0
VERTEX
5
6b2
100
AcDbEntity
8
0-0
6
CONTINUOUS
62
  7
100
AcDbVertex
100
AcDb2dVertex
10
3574.136626713497
20
2931.326775242865
30
0.0
0
VERTEX
5
6b3
100
AcDbEntity
8
0-0
6
CONTINUOUS
62
  7
100
AcDbVertex
100
AcDb2dVertex
10
3575.897714034943
20
2930.955545819879
30
0.0
0
VERTEX
5
6b4
100
AcDbEntity
8
0-0
6
CONTINUOUS
62
  7
100
AcDbVertex
100
AcDb2dVertex
10
3577.657308878295
20
2930.577588779117
30
0.0
0
VERTEX
5
6b5
100
AcDbEntity
8
0-0
6
CONTINUOUS
62
  7
100
AcDbVertex
100
AcDb2dVertex
10
3578.676933010905
20
2930.354123519436
30
0.0
0
VERTEX
5
6b6
100
AcDbEntity
8
0-0
6
CONTINUOUS
62
  7
100
AcDbVertex
100
AcDb2dVertex
10
3579.484121336440
20
2930.174479519369
30
0.0
0
VERTEX
5
6b7
100
AcDbEntity
8
0-0
6
CONTINUOUS
62
  7
100
AcDbVertex
100
AcDb2dVertex
10
3580.874720604485
20
2929.859752854218
30
0.0
0
VERTEX
5
6b8
100
AcDbEntity
8
0-0
6
CONTINUOUS
62
  7
100
AcDbVertex
100
AcDb2dVertex
10
3582.264142537258
20
2929.539702290163
30
0.0
0
VERTEX
5
6b9
100
AcDbEntity
8
0-0
6
CONTINUOUS
62
  7
100
AcDbVertex
100
AcDb2dVertex
10
3583.652644194863
20
2929.215490250545
30
0.0
0
VERTEX
5
6ba
100
AcDbEntity
8
0-0
6
CONTINUOUS
62
  7
100
AcDbVertex
100
AcDb2dVertex
10
3585.040482637401
20
2928.888279158706
30
0.0
0
VERTEX
5
6bb
100
AcDbEntity
8
0-0
6
CONTINUOUS
62
  7
100
AcDbVertex
100
AcDb2dVertex
10
3586.427914924976
20
2928.559231437987
30
0.0
0
VERTEX
5
6bc
100
AcDbEntity
8
0-0
6
CONTINUOUS
62
  7
100
AcDbVertex
100
AcDb2dVertex
10
3587.232540846613
20
2928.368000271861
30
0.0
0
SEQEND
5
6bd
100
AcDbEntity
8
0-0
0
POLYLINE
5
6be
100
AcDbEntity
8
0-0
6
CONTINUOUS
62
  7
100
AcDb2dPolyline
66
1
10
0.0
20
0.0
30
0.0
70
0
0
VERTEX
5
6bf
100
AcDbEntity
8
0-0
6
CONTINUOUS
62
  7
100
AcDbVertex
100
AcDb2dVertex
10
3559.825307318925
20
2881.155154167945
30
0.0
0
VERTEX
5
6c0
100
AcDbEntity
8
0-0
6
CONTINUOUS
62
  7
100
AcDbVertex
100
AcDb2dVertex
10
3560.327356784745
20
2881.122355874385
30
0.0
0
VERTEX
5
6c1
100
AcDbEntity
8
0-0
6
CONTINUOUS
62
  7
100
AcDbVertex
100
AcDb2dVertex
10
3561.193566133707
20
2881.066541049790
30
0.0
0
VERTEX
5
6c2
100
AcDbEntity
8
0-0
6
CONTINUOUS
62
  7
100
AcDbVertex
100
AcDb2dVertex
10
3562.061461098465
20
2881.012764995762
30
0.0
0
VERTEX
5
6c3
100
AcDbEntity
8
0-0
6
CONTINUOUS
62
  7
100
AcDbVertex
100
AcDb2dVertex
10
3562.932108524462
20
2880.962318073419
30
0.0
0
VERTEX
5
6c4
100
AcDbEntity
8
0-0
6
CONTINUOUS
62
  7
100
AcDbVertex
100
AcDb2dVertex
10
3563.806575257139
20
2880.916490643880
30
0.0
0
VERTEX
5
6c5
100
AcDbEntity
8
0-0
6
CONTINUOUS
62
  7
100
AcDbVertex
100
AcDb2dVertex
10
3564.685928141938
20
2880.876573068263
30
0.0
0
VERTEX
5
6c6
100
AcDbEntity
8
0-0
6
CONTINUOUS
62
  7
100
AcDbVertex
100
AcDb2dVertex
10
3565.198612042603
20
2880.856637238851
30
0.0
0
VERTEX
5
6c7
100
AcDbEntity
8
0-0
6
CONTINUOUS
62
  7
100
AcDbVertex
100
AcDb2dVertex
10
3566.047763033552
20
2880.830353066268
30
0.0
0
VERTEX
5
6c8
100
AcDbEntity
8
0-0
6
CONTINUOUS
62
  7
100
AcDbVertex
100
AcDb2dVertex
10
3567.518268331844
20
2880.816125630525
30
0.0
0
VERTEX
5
6c9
100
AcDbEntity
8
0-0
6
CONTINUOUS
62
  7
100
AcDbVertex
100
AcDb2dVertex
10
3568.985380764292
20
2880.862479214096
30
0.0
0
VERTEX
5
6ca
100
AcDbEntity
8
0-0
6
CONTINUOUS
62
  7
100
AcDbVertex
100
AcDb2dVertex
10
3570.435658721181
20
2880.994095745251
30
0.0
0
VERTEX
5
6cb
100
AcDbEntity
8
0-0
6
CONTINUOUS
62
  7
100
AcDbVertex
100
AcDb2dVertex
10
3571.855660592801
20
2881.235657152256
30
0.0
0
VERTEX
5
6cc
100
AcDbEntity
8
0-0
6
CONTINUOUS
62
  7
100
AcDbVertex
100
AcDb2dVertex
10
3573.231944769435
20
2881.611845363380
30
0.0
0
VERTEX
5
6cd
100
AcDbEntity
8
0-0
6
CONTINUOUS
62
  7
100
AcDbVertex
100
AcDb2dVertex
10
3574.004861450852
20
2881.901446490678
30
0.0
0
VERTEX
5
6ce
100
AcDbEntity
8
0-0
6
CONTINUOUS
62
  7
100
AcDbVertex
100
AcDb2dVertex
10
3574.413297324477
20
2882.081338470512
30
0.0
0
VERTEX
5
6cf
100
AcDbEntity
8
0-0
6
CONTINUOUS
62
  7
100
AcDbVertex
100
AcDb2dVertex
10
3575.103901253578
20
2882.426787833957
30
0.0
0
VERTEX
5
6d0
100
AcDbEntity
8
0-0
6
CONTINUOUS
62
  7
100
AcDbVertex
100
AcDb2dVertex
10
3575.779344265337
20
2882.809843627706
30
0.0
0
VERTEX
5
6d1
100
AcDbEntity
8
0-0
6
CONTINUOUS
62
  7
100
AcDbVertex
100
AcDb2dVertex
10
3576.442008944853
20
2883.222290223876
30
0.0
0
VERTEX
5
6d2
100
AcDbEntity
8
0-0
6
CONTINUOUS
62
  7
100
AcDbVertex
100
AcDb2dVertex
10
3577.094277877220
20
2883.655911994585
30
0.0
0
VERTEX
5
6d3
100
AcDbEntity
8
0-0
6
CONTINUOUS
62
  7
100
AcDbVertex
100
AcDb2dVertex
10
3577.738533647533
20
2884.102493311948
30
0.0
0
VERTEX
5
6d4
100
AcDbEntity
8
0-0
6
CONTINUOUS
62
  7
100
AcDbVertex
100
AcDb2dVertex
10
3578.109469225883
20
2884.364211155697
30
0.0
0
VERTEX
5
6d5
100
AcDbEntity
8
0-0
6
CONTINUOUS
62
  7
100
AcDbVertex
100
AcDb2dVertex
10
3578.357370550284
20
2884.539890389892
30
0.0
0
VERTEX
5
6d6
100
AcDbEntity
8
0-0
6
CONTINUOUS
62
  7
100
AcDbVertex
100
AcDb2dVertex
10
3578.783453699432
20
2884.842778987369
30
0.0
0
VERTEX
5
6d7
100
AcDbEntity
8
0-0
6
CONTINUOUS
62
  7
100
AcDbVertex
100
AcDb2dVertex
10
3579.208116333056
20
2885.145660515028
30
0.0
0
VERTEX
5
6d8
100
AcDbEntity
8
0-0
6
CONTINUOUS
62
  7
100
AcDbVertex
100
AcDb2dVertex
10
3579.631668607384
20
2885.448536516500
30
0.0
0
VERTEX
5
6d9
100
AcDbEntity
8
0-0
6
CONTINUOUS
62
  7
100
AcDbVertex
100
AcDb2dVertex
10
3580.054420678645
20
2885.751408535411
30
0.0
0
VERTEX
5
6da
100
AcDbEntity
8
0-0
6
CONTINUOUS
62
  7
100
AcDbVertex
100
AcDb2dVertex
10
3580.476682703065
20
2886.054278115390
30
0.0
0
VERTEX
5
6db
100
AcDbEntity
8
0-0
6
CONTINUOUS
62
  7
100
AcDbVertex
100
AcDb2dVertex
10
3580.721492355449
20
2886.229941962529
30
0.0
0
SEQEND
5
6dc
100
AcDbEntity
8
0-0
0
ARC
5
6dd
100
AcDbEntity
8
0-0
6
CONTINUOUS
62
7
100
AcDbCircle
10
3329.094273123244
20
2754.304664747979
30
0.0
40
42.836000000000
100
AcDbArc
50
358.420501114890
51
458.393866871970
0
ARC
5
6de
100
AcDbEntity
8
0-0
6
CONTINUOUS
62
7
100
AcDbCircle
10
3341.825513180621
20
2837.148664747979
30
0.0
40
44.968000000000
100
AcDbArc
50
185.171353060101
51
244.435009556847
0
LINE
5
6df
100
AcDbEntity
8
0-0
6
CONTINUOUS
62
7
100
AcDbLine
10
3877.421689793232
20
2621.939997902234
30
0.0
11
3877.421689793232
21
2501.964664747979
31
0.0
0
LINE
5
6e0
100
AcDbEntity
8
0-0
6
CONTINUOUS
62
7
100
AcDbLine
10
3482.213513180620
20
2531.965664747979
30
0.0
11
3721.786513180621
21
2531.993664747979
31
0.0
0
ARC
5
6e1
100
AcDbEntity
8
0-0
6
CONTINUOUS
62
7
100
AcDbCircle
10
3721.785513180621
20
2541.993664747979
30
0.0
40
10.000000000000
100
AcDbArc
50
270.006567978772
51
360.046165998094
0
LINE
5
6e2
100
AcDbEntity
8
0-0
6
CONTINUOUS
62
7
100
AcDbLine
10
3731.785513180621
20
2542.001664747979
30
0.0
11
3731.721513180621
21
2621.473664747979
31
0.0
0
LINE
5
6e3
100
AcDbEntity
8
0-0
6
CONTINUOUS
62
7
100
AcDbLine
10
3877.421689793232
20
2622.031438371432
30
0.0
11
3731.646922828409
21
2622.031438371432
31
0.0
0
ARC
5
6e4
100
AcDbEntity
8
0-0
6
CONTINUOUS
62
7
100
AcDbCircle
10
4146.308513180620
20
3018.868664747979
30
0.0
40
574.286000000000
100
AcDbArc
50
199.675000000000
51
223.448827450971
0
ARC
5
6e5
100
AcDbEntity
8
0-0
6
CONTINUOUS
62
7
100
AcDbCircle
10
3462.247513180620
20
3018.868664747979
30
0.0
40
574.286000000000
100
AcDbArc
50
316.143986616241
51
345.029000000000
0
ARC
5
6e6
100
AcDbEntity
8
0-0
6
CONTINUOUS
62
7
100
AcDbCircle
10
3672.196513180621
20
2706.255664747979
30
0.0
40
80.493000000000
100
AcDbArc
50
235.561873153656
51
302.887496584797
0
ARC
5
6e7
100
AcDbEntity
8
0-0
6
CONTINUOUS
62
7
100
AcDbCircle
10
3727.871513180621
20
2803.852664747979
30
0.0
40
192.694000000000
100
AcDbArc
50
201.307224284981
51
238.320990051178
0
ARC
5
6e8
100
AcDbEntity
8
0-0
6
CONTINUOUS
62
7
100
AcDbCircle
10
3608.775513180621
20
2676.256664747979
30
0.0
40
95.825000000000
100
AcDbArc
50
211.595619141515
51
244.007058343342
0
ARC
5
6e9
100
AcDbEntity
8
0-0
6
CONTINUOUS
62
7
100
AcDbCircle
10
3312.926513180621
20
2514.127664747979
30
0.0
40
241.704000000000
100
AcDbArc
50
27.585015856922
51
44.376260219023
0
ARC
5
6ea
100
AcDbEntity
8
0-0
6
CONTINUOUS
62
7
100
AcDbCircle
10
3679.677513180621
20
2887.810664747979
30
0.0
40
318.376000000000
100
AcDbArc
50
249.230644943672
51
279.415241605566
0
ARC
5
6eb
100
AcDbEntity
8
0-0
6
CONTINUOUS
62
7
100
AcDbCircle
10
3578.987513180620
20
2675.886664747979
30
0.0
40
102.530000000000
100
AcDbArc
50
179.020233164356
51
215.795073371250
0
ARC
5
6ec
100
AcDbEntity
8
0-0
6
CONTINUOUS
62
7
100
AcDbCircle
10
3466.849513180620
20
2586.587664747980
30
0.0
40
41.229000000000
100
AcDbArc
50
353.378485856317
51
405.350374909739
0
ARC
5
6ed
100
AcDbEntity
8
0-0
6
CONTINUOUS
62
7
100
AcDbCircle
10
3530.208513180621
20
2578.007664747979
30
0.0
40
22.729000000000
100
AcDbArc
50
170.309121460354
51
247.814786969741
0
ARC
5
6ee
100
AcDbEntity
8
0-0
6
CONTINUOUS
62
7
100
AcDbCircle
10
3554.350513180621
20
2702.347664747979
30
0.0
40
149.024000000000
100
AcDbArc
50
257.314837440212
51
276.207721050798
0
ARC
5
6ef
100
AcDbEntity
8
0-0
6
CONTINUOUS
62
7
100
AcDbCircle
10
3708.287513180620
20
-677.027335252021
30
0.0
40
3234.162000000001
100
AcDbArc
50
89.583913393252
51
92.442366195566
0
LINE
5
6f0
100
AcDbEntity
8
0-0
6
CONTINUOUS
62
7
100
AcDbLine
10
3476.964513180621
20
2880.433664747979
30
0.0
11
3472.213513180621
21
2542.136664747979
31
0.0
0
ARC
5
6f1
100
AcDbEntity
8
0-0
6
CONTINUOUS
62
7
100
AcDbCircle
10
3482.212513180621
20
2541.965664747979
30
0.0
40
10.000000000000
100
AcDbArc
50
179.024204460210
51
270.006505730231
0
LINE
5
6f2
100
AcDbEntity
8
0-0
6
CONTINUOUS
62
7
100
AcDbLine
10
3371.914273123243
20
2591.730416823110
30
0.0
11
3371.914273123243
21
2511.194561919845
31
0.0
0
LINE
5
6f3
100
AcDbEntity
8
0-0
6
CONTINUOUS
62
7
100
AcDbLine
10
3877.421689793232
20
2501.964664747979
30
0.0
11
3375.582402492139
21
2501.964664747979
31
0.0
0
LINE
5
6f4
100
AcDbEntity
8
0-0
6
CONTINUOUS
62
7
100
AcDbLine
10
3371.914273123243
20
2753.123664747979
30
0.0
11
3371.914273123243
21
2606.485544592701
31
0.0
0
LINE
5
6f5
100
AcDbEntity
8
0-0
6
CONTINUOUS
62
7
100
AcDbLine
10
3371.914273123243
20
2599.980816861270
30
0.0
11
3371.914273123243
21
2587.316723799001
31
0.0
0
LINE
5
6f6
100
AcDbEntity
8
0-0
6
CONTINUOUS
62
7
100
AcDbLine
10
3342.280736989497
20
2612.118799796902
30
0.0
11
3338.927428326718
21
2795.880114517189
31
0.0
0
LINE
5
6f7
100
AcDbEntity
8
0-0
6
CONTINUOUS
62
7
100
AcDbLine
10
3353.371991367545
20
2789.697828509560
30
0.0
11
3355.330575446651
21
2610.813815951187
31
0.0
0
POLYLINE
5
6f8
100
AcDbEntity
8
0-0
6
CONTINUOUS
62
  7
100
AcDb2dPolyline
66
1
10
0.0
20
0.0
30
0.0
70
0
0
VERTEX
5
6f9
100
AcDbEntity
8
0-0
6
CONTINUOUS
62
  7
100
AcDbVertex
100
AcDb2dVertex
10
2108.485323866356
20
1126.572652350138
30
0.0
0
VERTEX
5
6fa
100
AcDbEntity
8
0-0
6
CONTINUOUS
62
  7
100
AcDbVertex
100
AcDb2dVertex
10
2108.379471644525
20
1127.922597504116
30
0.0
0
VERTEX
5
6fb
100
AcDbEntity
8
0-0
6
CONTINUOUS
62
  7
100
AcDbVertex
100
AcDb2dVertex
10
2108.198112612045
20
1130.249876640507
30
0.0
0
VERTEX
5
6fc
100
AcDbEntity
8
0-0
6
CONTINUOUS
62
  7
100
AcDbVertex
100
AcDb2dVertex
10
2108.019933574741
20
1132.576565475795
30
0.0
0
VERTEX
5
6fd
100
AcDbEntity
8
0-0
6
CONTINUOUS
62
  7
100
AcDbVertex
100
AcDb2dVertex
10
2107.846947187788
20
1134.902290401683
30
0.0
0
VERTEX
5
6fe
100
AcDbEntity
8
0-0
6
CONTINUOUS
62
  7
100
AcDbVertex
100
AcDb2dVertex
10
2107.681166106362
20
1137.226677809878
30
0.0
0
VERTEX
5
6ff
100
AcDbEntity
8
0-0
6
CONTINUOUS
62
  7
100
AcDbVertex
100
AcDb2dVertex
10
2107.524602985637
20
1139.549354092086
30
0.0
0
VERTEX
5
700
100
AcDbEntity
8
0-0
6
CONTINUOUS
62
  7
100
AcDbVertex
100
AcDb2dVertex
10
2107.379270480789
20
1141.869945640012
30
0.0
0
VERTEX
5
701
100
AcDbEntity
8
0-0
6
CONTINUOUS
62
  7
100
AcDbVertex
100
AcDb2dVertex
10
2107.247181246992
20
1144.188078845364
30
0.0
0
VERTEX
5
702
100
AcDbEntity
8
0-0
6
CONTINUOUS
62
  7
100
AcDbVertex
100
AcDb2dVertex
10
2107.130347939421
20
1146.503380099845
30
0.0
0
VERTEX
5
703
100
AcDbEntity
8
0-0
6
CONTINUOUS
62
  7
100
AcDbVertex
100
AcDb2dVertex
10
2107.030783213251
20
1148.815475795162
30
0.0
0
VERTEX
5
704
100
AcDbEntity
8
0-0
6
CONTINUOUS
62
  7
100
AcDbVertex
100
AcDb2dVertex
10
2106.950499723657
20
1151.123992323021
30
0.0
0
VERTEX
5
705
100
AcDbEntity
8
0-0
6
CONTINUOUS
62
  7
100
AcDbVertex
100
AcDb2dVertex
10
2106.891510125814
20
1153.428556075128
30
0.0
0
VERTEX
5
706
100
AcDbEntity
8
0-0
6
CONTINUOUS
62
  7
100
AcDbVertex
100
AcDb2dVertex
10
2106.855827074898
20
1155.728793443189
30
0.0
0
VERTEX
5
707
100
AcDbEntity
8
0-0
6
CONTINUOUS
62
  7
100
AcDbVertex
100
AcDb2dVertex
10
2106.845463226082
20
1158.024330818910
30
0.0
0
VERTEX
5
708
100
AcDbEntity
8
0-0
6
CONTINUOUS
62
  7
100
AcDbVertex
100
AcDb2dVertex
10
2106.862431234542
20
1160.314794593995
30
0.0
0
VERTEX
5
709
100
AcDbEntity
8
0-0
6
CONTINUOUS
62
  7
100
AcDbVertex
100
AcDb2dVertex
10
2106.908743755454
20
1162.599811160152
30
0.0
0
VERTEX
5
70a
100
AcDbEntity
8
0-0
6
CONTINUOUS
62
  7
100
AcDbVertex
100
AcDb2dVertex
10
2106.986413443990
20
1164.879006909086
30
0.0
0
VERTEX
5
70b
100
AcDbEntity
8
0-0
6
CONTINUOUS
62
  7
100
AcDbVertex
100
AcDb2dVertex
10
2107.097452955329
20
1167.152008232503
30
0.0
0
VERTEX
5
70c
100
AcDbEntity
8
0-0
6
CONTINUOUS
62
  7
100
AcDbVertex
100
AcDb2dVertex
10
2107.243874944642
20
1169.418441522108
30
0.0
0
VERTEX
5
70d
100
AcDbEntity
8
0-0
6
CONTINUOUS
62
  7
100
AcDbVertex
100
AcDb2dVertex
10
2107.427692067107
20
1171.677933169608
30
0.0
0
VERTEX
5
70e
100
AcDbEntity
8
0-0
6
CONTINUOUS
62
  7
100
AcDbVertex
100
AcDb2dVertex
10
2107.650916977897
20
1173.930109566708
30
0.0
0
VERTEX
5
70f
100
AcDbEntity
8
0-0
6
CONTINUOUS
62
  7
100
AcDbVertex
100
AcDb2dVertex
10
2107.915562332188
20
1176.174597105115
30
0.0
0
VERTEX
5
710
100
AcDbEntity
8
0-0
6
CONTINUOUS
62
  7
100
AcDbVertex
100
AcDb2dVertex
10
2108.223640785154
20
1178.411022176533
30
0.0
0
VERTEX
5
711
100
AcDbEntity
8
0-0
6
CONTINUOUS
62
  7
100
AcDbVertex
100
AcDb2dVertex
10
2108.577164991972
20
1180.639011172670
30
0.0
0
VERTEX
5
712
100
AcDbEntity
8
0-0
6
CONTINUOUS
62
  7
100
AcDbVertex
100
AcDb2dVertex
10
2108.978147607814
20
1182.858190485230
30
0.0
0
VERTEX
5
713
100
AcDbEntity
8
0-0
6
CONTINUOUS
62
  7
100
AcDbVertex
100
AcDb2dVertex
10
2109.428601287857
20
1185.068186505920
30
0.0
0
VERTEX
5
714
100
AcDbEntity
8
0-0
6
CONTINUOUS
62
  7
100
AcDbVertex
100
AcDb2dVertex
10
2109.930538687276
20
1187.268625626446
30
0.0
0
VERTEX
5
715
100
AcDbEntity
8
0-0
6
CONTINUOUS
62
  7
100
AcDbVertex
100
AcDb2dVertex
10
2110.485972461245
20
1189.459134238512
30
0.0
0
VERTEX
5
716
100
AcDbEntity
8
0-0
6
CONTINUOUS
62
  7
100
AcDbVertex
100
AcDb2dVertex
10
2111.096915264940
20
1191.639338733826
30
0.0
0
VERTEX
5
717
100
AcDbEntity
8
0-0
6
CONTINUOUS
62
  7
100
AcDbVertex
100
AcDb2dVertex
10
2111.477489419300
20
1192.898988773716
30
0.0
0
VERTEX
5
718
100
AcDbEntity
8
0-0
6
CONTINUOUS
62
  7
100
AcDbVertex
100
AcDb2dVertex
10
2111.687608414811
20
1193.566518494070
30
0.0
0
VERTEX
5
719
100
AcDbEntity
8
0-0
6
CONTINUOUS
62
  7
100
AcDbVertex
100
AcDb2dVertex
10
2112.062891542497
20
1194.714816589472
30
0.0
0
VERTEX
5
71a
100
AcDbEntity
8
0-0
6
CONTINUOUS
62
  7
100
AcDbVertex
100
AcDb2dVertex
10
2112.454536224337
20
1195.859520938236
30
0.0
0
VERTEX
5
71b
100
AcDbEntity
8
0-0
6
CONTINUOUS
62
  7
100
AcDbVertex
100
AcDb2dVertex
10
2112.862419749537
20
1197.000302066872
30
0.0
0
VERTEX
5
71c
100
AcDbEntity
8
0-0
6
CONTINUOUS
62
  7
100
AcDbVertex
100
AcDb2dVertex
10
2113.286419407302
20
1198.136830501888
30
0.0
0
VERTEX
5
71d
100
AcDbEntity
8
0-0
6
CONTINUOUS
62
  7
100
AcDbVertex
100
AcDb2dVertex
10
2113.726412486839
20
1199.268776769793
30
0.0
0
VERTEX
5
71e
100
AcDbEntity
8
0-0
6
CONTINUOUS
62
  7
100
AcDbVertex
100
AcDb2dVertex
10
2114.182276277353
20
1200.395811397095
30
0.0
0
VERTEX
5
71f
100
AcDbEntity
8
0-0
6
CONTINUOUS
62
  7
100
AcDbVertex
100
AcDb2dVertex
10
2114.653888068052
20
1201.517604910305
30
0.0
0
VERTEX
5
720
100
AcDbEntity
8
0-0
6
CONTINUOUS
62
  7
100
AcDbVertex
100
AcDb2dVertex
10
2115.141125148140
20
1202.633827835929
30
0.0
0
VERTEX
5
721
100
AcDbEntity
8
0-0
6
CONTINUOUS
62
  7
100
AcDbVertex
100
AcDb2dVertex
10
2115.643864806825
20
1203.744150700477
30
0.0
0
VERTEX
5
722
100
AcDbEntity
8
0-0
6
CONTINUOUS
62
  7
100
AcDbVertex
100
AcDb2dVertex
10
2116.161984333312
20
1204.848244030459
30
0.0
0
VERTEX
5
723
100
AcDbEntity
8
0-0
6
CONTINUOUS
62
  7
100
AcDbVertex
100
AcDb2dVertex
10
2116.695361016807
20
1205.945778352382
30
0.0
0
VERTEX
5
724
100
AcDbEntity
8
0-0
6
CONTINUOUS
62
  7
100
AcDbVertex
100
AcDb2dVertex
10
2117.243872146516
20
1207.036424192755
30
0.0
0
VERTEX
5
725
100
AcDbEntity
8
0-0
6
CONTINUOUS
62
  7
100
AcDbVertex
100
AcDb2dVertex
10
2117.807395011646
20
1208.119852078088
30
0.0
0
VERTEX
5
726
100
AcDbEntity
8
0-0
6
CONTINUOUS
62
  7
100
AcDbVertex
100
AcDb2dVertex
10
2118.385806901403
20
1209.195732534889
30
0.0
0
VERTEX
5
727
100
AcDbEntity
8
0-0
6
CONTINUOUS
62
  7
100
AcDbVertex
100
AcDb2dVertex
10
2118.978985104992
20
1210.263736089666
30
0.0
0
VERTEX
5
728
100
AcDbEntity
8
0-0
6
CONTINUOUS
62
  7
100
AcDbVertex
100
AcDb2dVertex
10
2119.586806911620
20
1211.323533268929
30
0.0
0
VERTEX
5
729
100
AcDbEntity
8
0-0
6
CONTINUOUS
62
  7
100
AcDbVertex
100
AcDb2dVertex
10
2120.209149610492
20
1212.374794599186
30
0.0
0
VERTEX
5
72a
100
AcDbEntity
8
0-0
6
CONTINUOUS
62
  7
100
AcDbVertex
100
AcDb2dVertex
10
2120.845890490815
20
1213.417190606946
30
0.0
0
VERTEX
5
72b
100
AcDbEntity
8
0-0
6
CONTINUOUS
62
  7
100
AcDbVertex
100
AcDb2dVertex
10
2121.496906841795
20
1214.450391818717
30
0.0
0
VERTEX
5
72c
100
AcDbEntity
8
0-0
6
CONTINUOUS
62
  7
100
AcDbVertex
100
AcDb2dVertex
10
2122.162075952639
20
1215.474068761010
30
0.0
0
VERTEX
5
72d
100
AcDbEntity
8
0-0
6
CONTINUOUS
62
  7
100
AcDbVertex
100
AcDb2dVertex
10
2122.841275112552
20
1216.487891960331
30
0.0
0
VERTEX
5
72e
100
AcDbEntity
8
0-0
6
CONTINUOUS
62
  7
100
AcDbVertex
100
AcDb2dVertex
10
2123.534381610739
20
1217.491531943192
30
0.0
0
VERTEX
5
72f
100
AcDbEntity
8
0-0
6
CONTINUOUS
62
  7
100
AcDbVertex
100
AcDb2dVertex
10
2124.241272736408
20
1218.484659236098
30
0.0
0
VERTEX
5
730
100
AcDbEntity
8
0-0
6
CONTINUOUS
62
  7
100
AcDbVertex
100
AcDb2dVertex
10
2124.961825778764
20
1219.466944365561
30
0.0
0
VERTEX
5
731
100
AcDbEntity
8
0-0
6
CONTINUOUS
62
  7
100
AcDbVertex
100
AcDb2dVertex
10
2125.695918027014
20
1220.438057858088
30
0.0
0
VERTEX
5
732
100
AcDbEntity
8
0-0
6
CONTINUOUS
62
  7
100
AcDbVertex
100
AcDb2dVertex
10
2126.443426770364
20
1221.397670240188
30
0.0
0
VERTEX
5
733
100
AcDbEntity
8
0-0
6
CONTINUOUS
62
  7
100
AcDbVertex
100
AcDb2dVertex
10
2127.204229298019
20
1222.345452038370
30
0.0
0
VERTEX
5
734
100
AcDbEntity
8
0-0
6
CONTINUOUS
62
  7
100
AcDbVertex
100
AcDb2dVertex
10
2127.978202899186
20
1223.281073779142
30
0.0
0
VERTEX
5
735
100
AcDbEntity
8
0-0
6
CONTINUOUS
62
  7
100
AcDbVertex
100
AcDb2dVertex
10
2128.433094219312
20
1223.818032820798
30
0.0
0
VERTEX
5
736
100
AcDbEntity
8
0-0
6
CONTINUOUS
62
  7
100
AcDbVertex
100
AcDb2dVertex
10
2128.901649680542
20
1224.361475889608
30
0.0
0
VERTEX
5
737
100
AcDbEntity
8
0-0
6
CONTINUOUS
62
  7
100
AcDbVertex
100
AcDb2dVertex
10
2129.719726247018
20
1225.288448818292
30
0.0
0
VERTEX
5
738
100
AcDbEntity
8
0-0
6
CONTINUOUS
62
  7
100
AcDbVertex
100
AcDb2dVertex
10
2130.550065200302
20
1226.203414131032
30
0.0
0
VERTEX
5
739
100
AcDbEntity
8
0-0
6
CONTINUOUS
62
  7
100
AcDbVertex
100
AcDb2dVertex
10
2131.391879025822
20
1227.107125232322
30
0.0
0
VERTEX
5
73a
100
AcDbEntity
8
0-0
6
CONTINUOUS
62
  7
100
AcDbVertex
100
AcDb2dVertex
10
2132.244380209009
20
1228.000335526659
30
0.0
0
VERTEX
5
73b
100
AcDbEntity
8
0-0
6
CONTINUOUS
62
  7
100
AcDbVertex
100
AcDb2dVertex
10
2133.106781235293
20
1228.883798418538
30
0.0
0
VERTEX
5
73c
100
AcDbEntity
8
0-0
6
CONTINUOUS
62
  7
100
AcDbVertex
100
AcDb2dVertex
10
2133.978294590103
20
1229.758267312454
30
0.0
0
VERTEX
5
73d
100
AcDbEntity
8
0-0
6
CONTINUOUS
62
  7
100
AcDbVertex
100
AcDb2dVertex
10
2134.858132758870
20
1230.624495612902
30
0.0
0
VERTEX
5
73e
100
AcDbEntity
8
0-0
6
CONTINUOUS
62
  7
100
AcDbVertex
100
AcDb2dVertex
10
2135.745508227022
20
1231.483236724379
30
0.0
0
VERTEX
5
73f
100
AcDbEntity
8
0-0
6
CONTINUOUS
62
  7
100
AcDbVertex
100
AcDb2dVertex
10
2136.639633479990
20
1232.335244051378
30
0.0
0
VERTEX
5
740
100
AcDbEntity
8
0-0
6
CONTINUOUS
62
  7
100
AcDbVertex
100
AcDb2dVertex
10
2137.539721003204
20
1233.181270998395
30
0.0
0
VERTEX
5
741
100
AcDbEntity
8
0-0
6
CONTINUOUS
62
  7
100
AcDbVertex
100
AcDb2dVertex
10
2138.444983282093
20
1234.022070969927
30
0.0
0
VERTEX
5
742
100
AcDbEntity
8
0-0
6
CONTINUOUS
62
  7
100
AcDbVertex
100
AcDb2dVertex
10
2139.354632802087
20
1234.858397370467
30
0.0
0
VERTEX
5
743
100
AcDbEntity
8
0-0
6
CONTINUOUS
62
  7
100
AcDbVertex
100
AcDb2dVertex
10
2140.267882048616
20
1235.691003604512
30
0.0
0
VERTEX
5
744
100
AcDbEntity
8
0-0
6
CONTINUOUS
62
  7
100
AcDbVertex
100
AcDb2dVertex
10
2141.183943507111
20
1236.520643076556
30
0.0
0
VERTEX
5
745
100
AcDbEntity
8
0-0
6
CONTINUOUS
62
  7
100
AcDbVertex
100
AcDb2dVertex
10
2142.102029663000
20
1237.348069191095
30
0.0
0
VERTEX
5
746
100
AcDbEntity
8
0-0
6
CONTINUOUS
62
  7
100
AcDbVertex
100
AcDb2dVertex
10
2143.021353001713
20
1238.174035352625
30
0.0
0
VERTEX
5
747
100
AcDbEntity
8
0-0
6
CONTINUOUS
62
  7
100
AcDbVertex
100
AcDb2dVertex
10
2143.941126008681
20
1238.999294965641
30
0.0
0
VERTEX
5
748
100
AcDbEntity
8
0-0
6
CONTINUOUS
62
  7
100
AcDbVertex
100
AcDb2dVertex
10
2144.860561169332
20
1239.824601434638
30
0.0
0
VERTEX
5
749
100
AcDbEntity
8
0-0
6
CONTINUOUS
62
  7
100
AcDbVertex
100
AcDb2dVertex
10
2145.778870969098
20
1240.650708164110
30
0.0
0
VERTEX
5
74a
100
AcDbEntity
8
0-0
6
CONTINUOUS
62
  7
100
AcDbVertex
100
AcDb2dVertex
10
2146.695267893407
20
1241.478368558555
30
0.0
0
VERTEX
5
74b
100
AcDbEntity
8
0-0
6
CONTINUOUS
62
  7
100
AcDbVertex
100
AcDb2dVertex
10
2147.608964427690
20
1242.308336022466
30
0.0
0
VERTEX
5
74c
100
AcDbEntity
8
0-0
6
CONTINUOUS
62
  7
100
AcDbVertex
100
AcDb2dVertex
10
2148.519173057376
20
1243.141363960340
30
0.0
0
VERTEX
5
74d
100
AcDbEntity
8
0-0
6
CONTINUOUS
62
  7
100
AcDbVertex
100
AcDb2dVertex
10
2149.425106267895
20
1243.978205776671
30
0.0
0
VERTEX
5
74e
100
AcDbEntity
8
0-0
6
CONTINUOUS
62
  7
100
AcDbVertex
100
AcDb2dVertex
10
2150.325976544677
20
1244.819614875955
30
0.0
0
VERTEX
5
74f
100
AcDbEntity
8
0-0
6
CONTINUOUS
62
  7
100
AcDbVertex
100
AcDb2dVertex
10
2151.220996373153
20
1245.666344662687
30
0.0
0
VERTEX
5
750
100
AcDbEntity
8
0-0
6
CONTINUOUS
62
  7
100
AcDbVertex
100
AcDb2dVertex
10
2152.109378238750
20
1246.519148541363
30
0.0
0
VERTEX
5
751
100
AcDbEntity
8
0-0
6
CONTINUOUS
62
  7
100
AcDbVertex
100
AcDb2dVertex
10
2152.990334626900
20
1247.378779916478
30
0.0
0
VERTEX
5
752
100
AcDbEntity
8
0-0
6
CONTINUOUS
62
  7
100
AcDbVertex
100
AcDb2dVertex
10
2153.863078023032
20
1248.245992192528
30
0.0
0
VERTEX
5
753
100
AcDbEntity
8
0-0
6
CONTINUOUS
62
  7
100
AcDbVertex
100
AcDb2dVertex
10
2154.365195678155
20
1248.752745761993
30
0.0
0
VERTEX
5
754
100
AcDbEntity
8
0-0
6
CONTINUOUS
62
  7
100
AcDbVertex
100
AcDb2dVertex
10
2154.926728443313
20
1249.326753583947
30
0.0
0
VERTEX
5
755
100
AcDbEntity
8
0-0
6
CONTINUOUS
62
  7
100
AcDbVertex
100
AcDb2dVertex
10
2155.885652507463
20
1250.324988191788
30
0.0
0
VERTEX
5
756
100
AcDbEntity
8
0-0
6
CONTINUOUS
62
  7
100
AcDbVertex
100
AcDb2dVertex
10
2156.833239114388
20
1251.333737891659
30
0.0
0
VERTEX
5
757
100
AcDbEntity
8
0-0
6
CONTINUOUS
62
  7
100
AcDbVertex
100
AcDb2dVertex
10
2157.769899339404
20
1252.352621425690
30
0.0
0
VERTEX
5
758
100
AcDbEntity
8
0-0
6
CONTINUOUS
62
  7
100
AcDbVertex
100
AcDb2dVertex
10
2158.696044257828
20
1253.381257536012
30
0.0
0
VERTEX
5
759
100
AcDbEntity
8
0-0
6
CONTINUOUS
62
  7
100
AcDbVertex
100
AcDb2dVertex
10
2159.612084944975
20
1254.419264964756
30
0.0
0
SEQEND
5
75a
100
AcDbEntity
8
0-0
0
POLYLINE
5
75b
100
AcDbEntity
8
0-0
6
CONTINUOUS
62
  7
100
AcDb2dPolyline
66
1
10
0.0
20
0.0
30
0.0
70
0
0
VERTEX
5
75c
100
AcDbEntity
8
0-0
6
CONTINUOUS
62
  7
100
AcDbVertex
100
AcDb2dVertex
10
2125.950811871094
20
1127.176254225108
30
0.0
0
VERTEX
5
75d
100
AcDbEntity
8
0-0
6
CONTINUOUS
62
  7
100
AcDbVertex
100
AcDb2dVertex
10
2125.844959649262
20
1128.526199379086
30
0.0
0
VERTEX
5
75e
100
AcDbEntity
8
0-0
6
CONTINUOUS
62
  7
100
AcDbVertex
100
AcDb2dVertex
10
2125.663600616782
20
1130.853478515478
30
0.0
0
VERTEX
5
75f
100
AcDbEntity
8
0-0
6
CONTINUOUS
62
  7
100
AcDbVertex
100
AcDb2dVertex
10
2125.485421579479
20
1133.180167350765
30
0.0
0
VERTEX
5
760
100
AcDbEntity
8
0-0
6
CONTINUOUS
62
  7
100
AcDbVertex
100
AcDb2dVertex
10
2125.312435192526
20
1135.505892276654
30
0.0
0
VERTEX
5
761
100
AcDbEntity
8
0-0
6
CONTINUOUS
62
  7
100
AcDbVertex
100
AcDb2dVertex
10
2125.146654111100
20
1137.830279684849
30
0.0
0
VERTEX
5
762
100
AcDbEntity
8
0-0
6
CONTINUOUS
62
  7
100
AcDbVertex
100
AcDb2dVertex
10
2124.990090990375
20
1140.152955967057
30
0.0
0
VERTEX
5
763
100
AcDbEntity
8
0-0
6
CONTINUOUS
62
  7
100
AcDbVertex
100
AcDb2dVertex
10
2124.844758485527
20
1142.473547514983
30
0.0
0
VERTEX
5
764
100
AcDbEntity
8
0-0
6
CONTINUOUS
62
  7
100
AcDbVertex
100
AcDb2dVertex
10
2124.712669251730
20
1144.791680720334
30
0.0
0
VERTEX
5
765
100
AcDbEntity
8
0-0
6
CONTINUOUS
62
  7
100
AcDbVertex
100
AcDb2dVertex
10
2124.595835944158
20
1147.106981974815
30
0.0
0
VERTEX
5
766
100
AcDbEntity
8
0-0
6
CONTINUOUS
62
  7
100
AcDbVertex
100
AcDb2dVertex
10
2124.496271217989
20
1149.419077670133
30
0.0
0
VERTEX
5
767
100
AcDbEntity
8
0-0
6
CONTINUOUS
62
  7
100
AcDbVertex
100
AcDb2dVertex
10
2124.415987728395
20
1151.727594197992
30
0.0
0
VERTEX
5
768
100
AcDbEntity
8
0-0
6
CONTINUOUS
62
  7
100
AcDbVertex
100
AcDb2dVertex
10
2124.356998130552
20
1154.032157950099
30
0.0
0
VERTEX
5
769
100
AcDbEntity
8
0-0
6
CONTINUOUS
62
  7
100
AcDbVertex
100
AcDb2dVertex
10
2124.321315079636
20
1156.332395318160
30
0.0
0
VERTEX
5
76a
100
AcDbEntity
8
0-0
6
CONTINUOUS
62
  7
100
AcDbVertex
100
AcDb2dVertex
10
2124.310951230820
20
1158.627932693880
30
0.0
0
VERTEX
5
76b
100
AcDbEntity
8
0-0
6
CONTINUOUS
62
  7
100
AcDbVertex
100
AcDb2dVertex
10
2124.327919239280
20
1160.918396468966
30
0.0
0
VERTEX
5
76c
100
AcDbEntity
8
0-0
6
CONTINUOUS
62
  7
100
AcDbVertex
100
AcDb2dVertex
10
2124.374231760191
20
1163.203413035122
30
0.0
0
VERTEX
5
76d
100
AcDbEntity
8
0-0
6
CONTINUOUS
62
  7
100
AcDbVertex
100
AcDb2dVertex
10
2124.451901448729
20
1165.482608784057
30
0.0
0
VERTEX
5
76e
100
AcDbEntity
8
0-0
6
CONTINUOUS
62
  7
100
AcDbVertex
100
AcDb2dVertex
10
2124.562940960067
20
1167.755610107473
30
0.0
0
VERTEX
5
76f
100
AcDbEntity
8
0-0
6
CONTINUOUS
62
  7
100
AcDbVertex
100
AcDb2dVertex
10
2124.709362949380
20
1170.022043397078
30
0.0
0
VERTEX
5
770
100
AcDbEntity
8
0-0
6
CONTINUOUS
62
  7
100
AcDbVertex
100
AcDb2dVertex
10
2124.893180071845
20
1172.281535044579
30
0.0
0
VERTEX
5
771
100
AcDbEntity
8
0-0
6
CONTINUOUS
62
  7
100
AcDbVertex
100
AcDb2dVertex
10
2125.116404982635
20
1174.533711441679
30
0.0
0
VERTEX
5
772
100
AcDbEntity
8
0-0
6
CONTINUOUS
62
  7
100
AcDbVertex
100
AcDb2dVertex
10
2125.381050336926
20
1176.778198980085
30
0.0
0
VERTEX
5
773
100
AcDbEntity
8
0-0
6
CONTINUOUS
62
  7
100
AcDbVertex
100
AcDb2dVertex
10
2125.689128789892
20
1179.014624051504
30
0.0
0
VERTEX
5
774
100
AcDbEntity
8
0-0
6
CONTINUOUS
62
  7
100
AcDbVertex
100
AcDb2dVertex
10
2126.042652996709
20
1181.242613047641
30
0.0
0
VERTEX
5
775
100
AcDbEntity
8
0-0
6
CONTINUOUS
62
  7
100
AcDbVertex
100
AcDb2dVertex
10
2126.443635612552
20
1183.461792360201
30
0.0
0
VERTEX
5
776
100
AcDbEntity
8
0-0
6
CONTINUOUS
62
  7
100
AcDbVertex
100
AcDb2dVertex
10
2126.894089292595
20
1185.671788380891
30
0.0
0
VERTEX
5
777
100
AcDbEntity
8
0-0
6
CONTINUOUS
62
  7
100
AcDbVertex
100
AcDb2dVertex
10
2127.396026692014
20
1187.872227501416
30
0.0
0
VERTEX
5
778
100
AcDbEntity
8
0-0
6
CONTINUOUS
62
  7
100
AcDbVertex
100
AcDb2dVertex
10
2127.951460465983
20
1190.062736113483
30
0.0
0
VERTEX
5
779
100
AcDbEntity
8
0-0
6
CONTINUOUS
62
  7
100
AcDbVertex
100
AcDb2dVertex
10
2128.562403269677
20
1192.242940608796
30
0.0
0
VERTEX
5
77a
100
AcDbEntity
8
0-0
6
CONTINUOUS
62
  7
100
AcDbVertex
100
AcDb2dVertex
10
2128.942977424037
20
1193.502590648687
30
0.0
0
VERTEX
5
77b
100
AcDbEntity
8
0-0
6
CONTINUOUS
62
  7
100
AcDbVertex
100
AcDb2dVertex
10
2129.153096419549
20
1194.170120369041
30
0.0
0
VERTEX
5
77c
100
AcDbEntity
8
0-0
6
CONTINUOUS
62
  7
100
AcDbVertex
100
AcDb2dVertex
10
2129.528379547235
20
1195.318418464442
30
0.0
0
VERTEX
5
77d
100
AcDbEntity
8
0-0
6
CONTINUOUS
62
  7
100
AcDbVertex
100
AcDb2dVertex
10
2129.920024229075
20
1196.463122813207
30
0.0
0
VERTEX
5
77e
100
AcDbEntity
8
0-0
6
CONTINUOUS
62
  7
100
AcDbVertex
100
AcDb2dVertex
10
2130.327907754274
20
1197.603903941842
30
0.0
0
VERTEX
5
77f
100
AcDbEntity
8
0-0
6
CONTINUOUS
62
  7
100
AcDbVertex
100
AcDb2dVertex
10
2130.751907412040
20
1198.740432376858
30
0.0
0
VERTEX
5
780
100
AcDbEntity
8
0-0
6
CONTINUOUS
62
  7
100
AcDbVertex
100
AcDb2dVertex
10
2131.191900491576
20
1199.872378644764
30
0.0
0
VERTEX
5
781
100
AcDbEntity
8
0-0
6
CONTINUOUS
62
  7
100
AcDbVertex
100
AcDb2dVertex
10
2131.647764282091
20
1200.999413272066
30
0.0
0
VERTEX
5
782
100
AcDbEntity
8
0-0
6
CONTINUOUS
62
  7
100
AcDbVertex
100
AcDb2dVertex
10
2132.119376072790
20
1202.121206785275
30
0.0
0
VERTEX
5
783
100
AcDbEntity
8
0-0
6
CONTINUOUS
62
  7
100
AcDbVertex
100
AcDb2dVertex
10
2132.606613152878
20
1203.237429710900
30
0.0
0
VERTEX
5
784
100
AcDbEntity
8
0-0
6
CONTINUOUS
62
  7
100
AcDbVertex
100
AcDb2dVertex
10
2133.109352811563
20
1204.347752575448
30
0.0
0
VERTEX
5
785
100
AcDbEntity
8
0-0
6
CONTINUOUS
62
  7
100
AcDbVertex
100
AcDb2dVertex
10
2133.627472338050
20
1205.451845905430
30
0.0
0
VERTEX
5
786
100
AcDbEntity
8
0-0
6
CONTINUOUS
62
  7
100
AcDbVertex
100
AcDb2dVertex
10
2134.160849021545
20
1206.549380227353
30
0.0
0
VERTEX
5
787
100
AcDbEntity
8
0-0
6
CONTINUOUS
62
  7
100
AcDbVertex
100
AcDb2dVertex
10
2134.709360151254
20
1207.640026067727
30
0.0
0
VERTEX
5
788
100
AcDbEntity
8
0-0
6
CONTINUOUS
62
  7
100
AcDbVertex
100
AcDb2dVertex
10
2135.272883016384
20
1208.723453953059
30
0.0
0
VERTEX
5
789
100
AcDbEntity
8
0-0
6
CONTINUOUS
62
  7
100
AcDbVertex
100
AcDb2dVertex
10
2135.851294906141
20
1209.799334409859
30
0.0
0
VERTEX
5
78a
100
AcDbEntity
8
0-0
6
CONTINUOUS
62
  7
100
AcDbVertex
100
AcDb2dVertex
10
2136.444473109730
20
1210.867337964637
30
0.0
0
VERTEX
5
78b
100
AcDbEntity
8
0-0
6
CONTINUOUS
62
  7
100
AcDbVertex
100
AcDb2dVertex
10
2137.052294916357
20
1211.927135143899
30
0.0
0
VERTEX
5
78c
100
AcDbEntity
8
0-0
6
CONTINUOUS
62
  7
100
AcDbVertex
100
AcDb2dVertex
10
2137.674637615230
20
1212.978396474156
30
0.0
0
VERTEX
5
78d
100
AcDbEntity
8
0-0
6
CONTINUOUS
62
  7
100
AcDbVertex
100
AcDb2dVertex
10
2138.311378495553
20
1214.020792481916
30
0.0
0
VERTEX
5
78e
100
AcDbEntity
8
0-0
6
CONTINUOUS
62
  7
100
AcDbVertex
100
AcDb2dVertex
10
2138.962394846533
20
1215.053993693688
30
0.0
0
VERTEX
5
78f
100
AcDbEntity
8
0-0
6
CONTINUOUS
62
  7
100
AcDbVertex
100
AcDb2dVertex
10
2139.627563957377
20
1216.077670635981
30
0.0
0
VERTEX
5
790
100
AcDbEntity
8
0-0
6
CONTINUOUS
62
  7
100
AcDbVertex
100
AcDb2dVertex
10
2140.306763117289
20
1217.091493835303
30
0.0
0
VERTEX
5
791
100
AcDbEntity
8
0-0
6
CONTINUOUS
62
  7
100
AcDbVertex
100
AcDb2dVertex
10
2140.999869615477
20
1218.095133818162
30
0.0
0
VERTEX
5
792
100
AcDbEntity
8
0-0
6
CONTINUOUS
62
  7
100
AcDbVertex
100
AcDb2dVertex
10
2141.706760741146
20
1219.088261111069
30
0.0
0
VERTEX
5
793
100
AcDbEntity
8
0-0
6
CONTINUOUS
62
  7
100
AcDbVertex
100
AcDb2dVertex
10
2142.427313783503
20
1220.070546240531
30
0.0
0
VERTEX
5
794
100
AcDbEntity
8
0-0
6
CONTINUOUS
62
  7
100
AcDbVertex
100
AcDb2dVertex
10
2143.161406031752
20
1221.041659733058
30
0.0
0
VERTEX
5
795
100
AcDbEntity
8
0-0
6
CONTINUOUS
62
  7
100
AcDbVertex
100
AcDb2dVertex
10
2143.908914775102
20
1222.001272115158
30
0.0
0
VERTEX
5
796
100
AcDbEntity
8
0-0
6
CONTINUOUS
62
  7
100
AcDbVertex
100
AcDb2dVertex
10
2144.669717302757
20
1222.949053913341
30
0.0
0
VERTEX
5
797
100
AcDbEntity
8
0-0
6
CONTINUOUS
62
  7
100
AcDbVertex
100
AcDb2dVertex
10
2145.443690903924
20
1223.884675654114
30
0.0
0
VERTEX
5
798
100
AcDbEntity
8
0-0
6
CONTINUOUS
62
  7
100
AcDbVertex
100
AcDb2dVertex
10
2145.898582224050
20
1224.421634695769
30
0.0
0
VERTEX
5
799
100
AcDbEntity
8
0-0
6
CONTINUOUS
62
  7
100
AcDbVertex
100
AcDb2dVertex
10
2146.367137685279
20
1224.965077764579
30
0.0
0
VERTEX
5
79a
100
AcDbEntity
8
0-0
6
CONTINUOUS
62
  7
100
AcDbVertex
100
AcDb2dVertex
10
2147.185214251756
20
1225.892050693263
30
0.0
0
VERTEX
5
79b
100
AcDbEntity
8
0-0
6
CONTINUOUS
62
  7
100
AcDbVertex
100
AcDb2dVertex
10
2148.015553205039
20
1226.807016006002
30
0.0
0
VERTEX
5
79c
100
AcDbEntity
8
0-0
6
CONTINUOUS
62
  7
100
AcDbVertex
100
AcDb2dVertex
10
2148.857367030560
20
1227.710727107293
30
0.0
0
VERTEX
5
79d
100
AcDbEntity
8
0-0
6
CONTINUOUS
62
  7
100
AcDbVertex
100
AcDb2dVertex
10
2149.709868213747
20
1228.603937401630
30
0.0
0
VERTEX
5
79e
100
AcDbEntity
8
0-0
6
CONTINUOUS
62
  7
100
AcDbVertex
100
AcDb2dVertex
10
2150.572269240031
20
1229.487400293509
30
0.0
0
VERTEX
5
79f
100
AcDbEntity
8
0-0
6
CONTINUOUS
62
  7
100
AcDbVertex
100
AcDb2dVertex
10
2151.443782594841
20
1230.361869187425
30
0.0
0
VERTEX
5
7a0
100
AcDbEntity
8
0-0
6
CONTINUOUS
62
  7
100
AcDbVertex
100
AcDb2dVertex
10
2152.323620763607
20
1231.228097487873
30
0.0
0
VERTEX
5
7a1
100
AcDbEntity
8
0-0
6
CONTINUOUS
62
  7
100
AcDbVertex
100
AcDb2dVertex
10
2153.210996231760
20
1232.086838599349
30
0.0
0
VERTEX
5
7a2
100
AcDbEntity
8
0-0
6
CONTINUOUS
62
  7
100
AcDbVertex
100
AcDb2dVertex
10
2154.105121484728
20
1232.938845926349
30
0.0
0
VERTEX
5
7a3
100
AcDbEntity
8
0-0
6
CONTINUOUS
62
  7
100
AcDbVertex
100
AcDb2dVertex
10
2155.005209007941
20
1233.784872873366
30
0.0
0
VERTEX
5
7a4
100
AcDbEntity
8
0-0
6
CONTINUOUS
62
  7
100
AcDbVertex
100
AcDb2dVertex
10
2155.910471286830
20
1234.625672844898
30
0.0
0
VERTEX
5
7a5
100
AcDbEntity
8
0-0
6
CONTINUOUS
62
  7
100
AcDbVertex
100
AcDb2dVertex
10
2156.820120806825
20
1235.461999245438
30
0.0
0
VERTEX
5
7a6
100
AcDbEntity
8
0-0
6
CONTINUOUS
62
  7
100
AcDbVertex
100
AcDb2dVertex
10
2157.733370053354
20
1236.294605479483
30
0.0
0
VERTEX
5
7a7
100
AcDbEntity
8
0-0
6
CONTINUOUS
62
  7
100
AcDbVertex
100
AcDb2dVertex
10
2158.649431511848
20
1237.124244951527
30
0.0
0
VERTEX
5
7a8
100
AcDbEntity
8
0-0
6
CONTINUOUS
62
  7
100
AcDbVertex
100
AcDb2dVertex
10
2159.567517667737
20
1237.951671066066
30
0.0
0
VERTEX
5
7a9
100
AcDbEntity
8
0-0
6
CONTINUOUS
62
  7
100
AcDbVertex
100
AcDb2dVertex
10
2160.486841006451
20
1238.777637227596
30
0.0
0
VERTEX
5
7aa
100
AcDbEntity
8
0-0
6
CONTINUOUS
62
  7
100
AcDbVertex
100
AcDb2dVertex
10
2161.406614013418
20
1239.602896840611
30
0.0
0
VERTEX
5
7ab
100
AcDbEntity
8
0-0
6
CONTINUOUS
62
  7
100
AcDbVertex
100
AcDb2dVertex
10
2162.326049174070
20
1240.428203309608
30
0.0
0
VERTEX
5
7ac
100
AcDbEntity
8
0-0
6
CONTINUOUS
62
  7
100
AcDbVertex
100
AcDb2dVertex
10
2163.244358973836
20
1241.254310039081
30
0.0
0
VERTEX
5
7ad
100
AcDbEntity
8
0-0
6
CONTINUOUS
62
  7
100
AcDbVertex
100
AcDb2dVertex
10
2164.160755898145
20
1242.081970433525
30
0.0
0
SEQEND
5
7ae
100
AcDbEntity
8
0-0
0
LINE
5
7af
100
AcDbEntity
8
0-0
6
CONTINUOUS
62
7
100
AcDbLine
10
2147.670300055920
20
1381.576990401665
30
0.0
11
2484.709300055920
21
1381.576990401665
31
0.0
0
LINE
5
7b0
100
AcDbEntity
8
0-0
6
CONTINUOUS
62
7
100
AcDbLine
10
2391.190300055920
20
1091.576990401665
30
0.0
11
2240.669300055920
21
1091.576990401665
31
0.0
0
LINE
5
7b1
100
AcDbEntity
8
0-0
6
CONTINUOUS
62
7
100
AcDbLine
10
2461.190300055920
20
1741.576990401665
30
0.0
11
2171.190300055920
21
1741.576990401665
31
0.0
0
LINE
5
7b2
100
AcDbEntity
8
0-0
6
CONTINUOUS
62
7
100
AcDbLine
10
2151.190300055920
20
1369.576990401665
30
0.0
11
2481.190300055920
21
1369.576990401665
31
0.0
0
LINE
5
7b3
100
AcDbEntity
8
0-0
6
CONTINUOUS
62
7
100
AcDbLine
10
2166.190300055920
20
1498.611990401665
30
0.0
11
2166.190300055920
21
1552.516990401665
31
0.0
0
LINE
5
7b4
100
AcDbEntity
8
0-0
6
CONTINUOUS
62
7
100
AcDbLine
10
2466.190300055920
20
1498.611990401665
30
0.0
11
2466.190300055920
21
1552.516990401665
31
0.0
0
LINE
5
7b5
100
AcDbEntity
8
0-0
6
CONTINUOUS
62
7
100
AcDbLine
10
2240.669300055920
20
1091.576990401665
30
0.0
11
2236.190300055920
21
993.030990401665
31
0.0
0
LINE
5
7b6
100
AcDbEntity
8
0-0
6
CONTINUOUS
62
7
100
AcDbLine
10
2391.190300055920
20
1091.576990401665
30
0.0
11
2396.190300055920
21
993.030990401665
31
0.0
0
LINE
5
7b7
100
AcDbEntity
8
0-0
6
CONTINUOUS
62
7
100
AcDbLine
10
2466.190300055920
20
1696.576990401665
30
0.0
11
2166.190300055920
21
1696.576990401665
31
0.0
0
POLYLINE
5
7b8
100
AcDbEntity
8
0-0
6
CONTINUOUS
62
  7
100
AcDb2dPolyline
66
1
10
0.0
20
0.0
30
0.0
70
0
0
VERTEX
5
7b9
100
AcDbEntity
8
0-0
6
CONTINUOUS
62
  7
100
AcDbVertex
100
AcDb2dVertex
10
2291.190300055920
20
1741.576990401665
30
0.0
0
VERTEX
5
7ba
100
AcDbEntity
8
0-0
6
CONTINUOUS
62
  7
100
AcDbVertex
100
AcDb2dVertex
10
2341.190300055920
20
1741.576990401665
30
0.0
0
VERTEX
5
7bb
100
AcDbEntity
8
0-0
6
CONTINUOUS
62
  7
100
AcDbVertex
100
AcDb2dVertex
10
2341.190300055920
20
1744.576990401665
30
0.0
0
VERTEX
5
7bc
100
AcDbEntity
8
0-0
6
CONTINUOUS
62
  7
100
AcDbVertex
100
AcDb2dVertex
10
2291.190300055920
20
1744.576990401665
30
0.0
0
VERTEX
5
7bd
100
AcDbEntity
8
0-0
6
CONTINUOUS
62
  7
100
AcDbVertex
100
AcDb2dVertex
10
2291.190300055920
20
1741.576990401665
30
0.0
0
SEQEND
5
7be
100
AcDbEntity
8
0-0
0
LINE
5
7bf
100
AcDbEntity
8
0-0
6
CONTINUOUS
62
7
100
AcDbLine
10
2446.190300055920
20
1021.576990401665
30
0.0
11
2420.127300055920
21
1021.576990401665
31
0.0
0
LINE
5
7c0
100
AcDbEntity
8
0-0
6
CONTINUOUS
62
7
100
AcDbLine
10
2211.656300055920
20
1021.576990401665
30
0.0
11
2186.190300055920
21
1021.576990401665
31
0.0
0
LINE
5
7c1
100
AcDbEntity
8
0-0
6
CONTINUOUS
62
7
100
AcDbLine
10
2166.190300055920
20
1407.690990401665
30
0.0
11
2166.190300055920
21
1736.576990401665
31
0.0
0
LINE
5
7c2
100
AcDbEntity
8
0-0
6
CONTINUOUS
62
7
100
AcDbLine
10
2466.190300055920
20
1407.690990401665
30
0.0
11
2466.190300055920
21
1736.576990401665
31
0.0
0
LINE
5
7c3
100
AcDbEntity
8
0-0
6
CONTINUOUS
62
7
100
AcDbLine
10
2206.190300055920
20
1426.576990401665
30
0.0
11
2426.190300055920
21
1426.576990401665
31
0.0
0
LINE
5
7c4
100
AcDbEntity
8
0-0
6
CONTINUOUS
62
7
100
AcDbLine
10
2141.190300055920
20
1369.576990401665
30
0.0
11
2491.190300055920
21
1369.576990401665
31
0.0
0
LINE
5
7c5
100
AcDbEntity
8
0-0
6
CONTINUOUS
62
7
100
AcDbLine
10
2144.898300055920
20
1379.588990401664
30
0.0
11
2141.190300055920
21
1369.576990401665
31
0.0
0
LINE
5
7c6
100
AcDbEntity
8
0-0
6
CONTINUOUS
62
7
100
AcDbLine
10
2487.481300055920
20
1379.588990401664
30
0.0
11
2491.190300055920
21
1369.576990401665
31
0.0
0
LINE
5
7c7
100
AcDbEntity
8
0-0
6
CONTINUOUS
62
7
100
AcDbLine
10
2147.670300055920
20
1396.576990401665
30
0.0
11
2484.709300055920
21
1396.576990401665
31
0.0
0
LINE
5
7c8
100
AcDbEntity
8
0-0
6
CONTINUOUS
62
7
100
AcDbLine
10
2141.190300055920
20
1384.576990401665
30
0.0
11
2491.190300055920
21
1384.576990401665
31
0.0
0
LINE
5
7c9
100
AcDbEntity
8
0-0
6
CONTINUOUS
62
7
100
AcDbLine
10
2144.898300055920
20
1394.588990401664
30
0.0
11
2141.190300055920
21
1384.576990401665
31
0.0
0
LINE
5
7ca
100
AcDbEntity
8
0-0
6
CONTINUOUS
62
7
100
AcDbLine
10
2487.481300055920
20
1394.588990401664
30
0.0
11
2491.190300055920
21
1384.576990401665
31
0.0
0
LINE
5
7cb
100
AcDbEntity
8
0-0
6
CONTINUOUS
62
7
100
AcDbLine
10
2491.190300055920
20
1366.576990401665
30
0.0
11
2141.190300055920
21
1366.576990401665
31
0.0
0
POLYLINE
5
7cc
100
AcDbEntity
8
0-0
6
CONTINUOUS
62
  7
100
AcDb2dPolyline
66
1
10
0.0
20
0.0
30
0.0
70
0
0
VERTEX
5
7cd
100
AcDbEntity
8
0-0
6
CONTINUOUS
62
  7
100
AcDbVertex
100
AcDb2dVertex
10
2301.190300055920
20
1744.576990401665
30
0.0
0
VERTEX
5
7ce
100
AcDbEntity
8
0-0
6
CONTINUOUS
62
  7
100
AcDbVertex
100
AcDb2dVertex
10
2331.190300055920
20
1744.576990401665
30
0.0
0
VERTEX
5
7cf
100
AcDbEntity
8
0-0
6
CONTINUOUS
62
  7
100
AcDbVertex
100
AcDb2dVertex
10
2331.190300055920
20
1746.576990401665
30
0.0
0
VERTEX
5
7d0
100
AcDbEntity
8
0-0
6
CONTINUOUS
62
  7
100
AcDbVertex
100
AcDb2dVertex
10
2301.190300055920
20
1746.576990401665
30
0.0
0
VERTEX
5
7d1
100
AcDbEntity
8
0-0
6
CONTINUOUS
62
  7
100
AcDbVertex
100
AcDb2dVertex
10
2301.190300055920
20
1744.576990401665
30
0.0
0
SEQEND
5
7d2
100
AcDbEntity
8
0-0
0
LINE
5
7d3
100
AcDbEntity
8
0-0
6
CONTINUOUS
62
7
100
AcDbLine
10
2420.127300055920
20
1112.529990401665
30
0.0
11
2420.127300055920
21
1021.576990401665
31
0.0
0
LINE
5
7d4
100
AcDbEntity
8
0-0
6
CONTINUOUS
62
7
100
AcDbLine
10
2211.656300055920
20
1113.283990401665
30
0.0
11
2211.656300055920
21
1021.576990401665
31
0.0
0
ARC
5
7d5
100
AcDbEntity
8
0-0
6
CONTINUOUS
62
7
100
AcDbCircle
10
2141.190300055920
20
1361.576990401665
30
0.0
40
5.000000000000
100
AcDbArc
50
90.000000000000
51
180.000000000000
0
ARC
5
7d6
100
AcDbEntity
8
0-0
6
CONTINUOUS
62
7
100
AcDbCircle
10
2491.190300055920
20
1361.576990401665
30
0.0
40
5.000000000000
100
AcDbArc
50
0.000000000000
51
90.000000000000
0
ARC
5
7d7
100
AcDbEntity
8
0-0
6
CONTINUOUS
62
7
100
AcDbCircle
10
2171.190300055920
20
1736.576990401665
30
0.0
40
5.000000000000
100
AcDbArc
50
90.000000000000
51
180.000000000000
0
ARC
5
7d8
100
AcDbEntity
8
0-0
6
CONTINUOUS
62
7
100
AcDbCircle
10
2461.190300055920
20
1736.576990401665
30
0.0
40
5.000000000000
100
AcDbArc
50
0.000000000000
51
90.000000000000
0
ARC
5
7d9
100
AcDbEntity
8
0-0
6
CONTINUOUS
62
7
100
AcDbCircle
10
3233.341300055920
20
1548.656990401665
30
0.0
40
1112.987000000000
100
AcDbArc
50
189.676664156515
51
202.187475342313
0
ARC
5
7da
100
AcDbEntity
8
0-0
6
CONTINUOUS
62
7
100
AcDbCircle
10
2264.990300055920
20
1154.903990401665
30
0.0
40
67.652000000000
100
AcDbArc
50
203.111000000000
51
249.402000000000
0
ARC
5
7db
100
AcDbEntity
8
0-0
6
CONTINUOUS
62
7
100
AcDbCircle
10
2367.390300055920
20
1154.903990401665
30
0.0
40
67.652000000000
100
AcDbArc
50
290.598000000000
51
336.889000000000
0
ARC
5
7dc
100
AcDbEntity
8
0-0
6
CONTINUOUS
62
7
100
AcDbCircle
10
1399.038300055920
20
1548.656990401665
30
0.0
40
1112.987000000000
100
AcDbArc
50
337.812524884842
51
350.323336070640
0
ARC
5
7dd
100
AcDbEntity
8
0-0
6
CONTINUOUS
62
7
100
AcDbCircle
10
4888.471300055920
20
1266.864990401665
30
0.0
40
2739.097000000000
100
AcDbArc
50
177.850978826010
51
177.913774998784
0
ARC
5
7de
100
AcDbEntity
8
0-0
6
CONTINUOUS
62
7
100
AcDbCircle
10
-256.984699944081
20
1266.864990401665
30
0.0
40
2739.097000000000
100
AcDbArc
50
2.086225001215
51
2.149021173990
0
ARC
5
7df
100
AcDbEntity
8
0-0
6
CONTINUOUS
62
7
100
AcDbCircle
10
2148.014300055920
20
1378.171990401665
30
0.0
40
3.423000000000
100
AcDbArc
50
95.757000000000
51
155.546000000000
0
ARC
5
7e0
100
AcDbEntity
8
0-0
6
CONTINUOUS
62
7
100
AcDbCircle
10
2484.366300055920
20
1378.171990401665
30
0.0
40
3.423000000000
100
AcDbArc
50
24.454000000000
51
84.243000000000
0
ARC
5
7e1
100
AcDbEntity
8
0-0
6
CONTINUOUS
62
7
100
AcDbCircle
10
2148.014300055920
20
1393.171990401665
30
0.0
40
3.423000000000
100
AcDbArc
50
95.757000000000
51
155.546000000000
0
ARC
5
7e2
100
AcDbEntity
8
0-0
6
CONTINUOUS
62
7
100
AcDbCircle
10
2484.366300055920
20
1393.171990401665
30
0.0
40
3.423000000000
100
AcDbArc
50
24.454000000000
51
84.243000000000
0
ARC
5
7e3
100
AcDbEntity
8
0-0
6
CONTINUOUS
62
7
100
AcDbCircle
10
2158.024300055920
20
1488.291990401665
30
0.0
40
78.286000000000
100
AcDbArc
50
289.267358123213
51
307.970613696087
0
ARC
5
7e4
100
AcDbEntity
8
0-0
6
CONTINUOUS
62
7
100
AcDbCircle
10
2220.450300055920
20
1291.252990401665
30
0.0
40
128.460000000000
100
AcDbArc
50
106.550599373611
51
125.408882915435
0
ARC
5
7e5
100
AcDbEntity
8
0-0
6
CONTINUOUS
62
7
100
AcDbCircle
10
2474.356300055920
20
1488.291990401665
30
0.0
40
78.286000000000
100
AcDbArc
50
232.029387382592
51
250.732642955466
0
ARC
5
7e6
100
AcDbEntity
8
0-0
6
CONTINUOUS
62
7
100
AcDbCircle
10
2411.930300055920
20
1291.252990401665
30
0.0
40
128.460000000000
100
AcDbArc
50
54.591117084564
51
73.449400626389
0
LINE
5
7e7
100
AcDbEntity
8
0-0
6
CONTINUOUS
62
7
100
AcDbLine
10
2176.055468014271
20
993.030990401665
30
0.0
11
2455.505599961860
21
993.030990401665
31
0.0
0
LINE
5
7e8
100
AcDbEntity
8
0-0
6
CONTINUOUS
62
7
100
AcDbLine
10
2186.190300055920
20
1021.576990401665
30
0.0
11
2186.947116725084
21
993.196365308042
31
0.0
0
LINE
5
7e9
100
AcDbEntity
8
0-0
6
CONTINUOUS
62
7
100
AcDbLine
10
2170.090300055920
20
1220.328990401665
30
0.0
11
2176.150504101428
21
993.069351742986
31
0.0
0
LINE
5
7ea
100
AcDbEntity
8
0-0
6
CONTINUOUS
62
7
100
AcDbLine
10
2446.190300055920
20
1021.576990401665
30
0.0
11
2445.432144621600
21
993.146161614675
31
0.0
0
LINE
5
7eb
100
AcDbEntity
8
0-0
6
CONTINUOUS
62
7
100
AcDbLine
10
2462.290300055920
20
1220.328990401665
30
0.0
11
2456.225792502982
21
992.907968803364
31
0.0
0
ARC
5
7ec
100
AcDbEntity
8
0-0
6
CONTINUOUS
62
7
100
AcDbCircle
10
2114.738539663201
20
1120.477377873058
30
0.0
40
9.625929816131
100
AcDbArc
50
141.441277284353
51
218.558722715647
0
ARC
5
7ed
100
AcDbEntity
8
0-0
6
CONTINUOUS
62
7
100
AcDbCircle
10
2134.738539663201
20
1120.477377873058
30
0.0
40
9.625929816131
100
AcDbArc
50
141.441277284353
51
218.558722715647
0
ARC
5
7ee
100
AcDbEntity
8
0-0
6
CONTINUOUS
62
7
100
AcDbCircle
10
2119.684168228290
20
1120.477377873058
30
0.0
40
9.625929816131
100
AcDbArc
50
321.441277284353
51
398.558722715647
0
ARC
5
7ef
100
AcDbEntity
8
0-0
6
CONTINUOUS
62
7
100
AcDbCircle
10
2099.684168228290
20
1120.477377873058
30
0.0
40
9.625929816131
100
AcDbArc
50
321.441277284353
51
398.558722715647
0
ARC
5
7f0
100
AcDbEntity
8
0-0
6
CONTINUOUS
62
7
100
AcDbCircle
10
2119.553571018994
20
1120.477377873058
30
0.0
40
6.440961171922
100
AcDbArc
50
111.324157753203
51
217.825680452866
0
ARC
5
7f1
100
AcDbEntity
8
0-0
6
CONTINUOUS
62
7
100
AcDbCircle
10
2114.869136872497
20
1120.477377873058
30
0.0
40
6.440961171922
100
AcDbArc
50
322.174319547135
51
428.675842246797
0
CIRCLE
5
7f2
100
AcDbEntity
8
0-0
6
CONTINUOUS
62
7
100
AcDbCircle
10
2117.211353945746
20
1091.477377873058
30
0.0
40
5.560000000000
0
LINE
5
7f3
100
AcDbEntity
8
0-0
6
CONTINUOUS
62
7
100
AcDbLine
10
2107.211353945746
20
1126.477377873058
30
0.0
11
2127.211353945746
21
1126.477377873058
31
0.0
0
ELLIPSE
  5
7f4
100
AcDbEntity
8
0-0
6
CONTINUOUS
62
7
100
AcDbEllipse
10
2116.928095566148
20
1091.515108619601
30
0.0
11
0.000000000000
21
24.534999686935
31
0.0
210
0.0
220
0.0
230
1.0
40
0.500000000000
41
0.000000000000
42
6.283185307180
0
LINE
5
7f5
100
AcDbEntity
8
0-0
6
CONTINUOUS
62
7
100
AcDbLine
10
2107.119076457418
20
1114.444084677569
30
0.0
11
2112.448988630312
21
1114.444084677569
31
0.0
0
LINE
5
7f6
100
AcDbEntity
8
0-0
6
CONTINUOUS
62
7
100
AcDbLine
10
2121.332175585135
20
1114.444084677569
30
0.0
11
2127.106247105770
21
1114.444084677569
31
0.0
0
LINE
5
7f7
100
AcDbEntity
8
0-0
6
CONTINUOUS
62
7
100
AcDbLine
10
2107.468509877916
20
1114.393564183039
30
0.0
11
2107.468509877916
21
1107.418929243786
31
0.0
0
LINE
5
7f8
100
AcDbEntity
8
0-0
6
CONTINUOUS
62
7
100
AcDbLine
10
2127.017134566808
20
1114.393564183039
30
0.0
11
2127.017134566808
21
1105.454243345405
31
0.0
0
LINE
5
7f9
100
AcDbEntity
8
0-0
6
CONTINUOUS
62
7
100
AcDbLine
10
3878.954585719214
20
1116.631247895851
30
0.0
11
3733.179818754391
21
1116.631247895851
31
0.0
0
LINE
5
7fa
100
AcDbEntity
8
0-0
6
CONTINUOUS
62
7
100
AcDbLine
10
3733.318409106603
20
1036.601474272398
30
0.0
11
3733.254409106603
21
1116.073474272398
31
0.0
0
LINE
5
7fb
100
AcDbEntity
8
0-0
6
CONTINUOUS
62
7
100
AcDbLine
10
3387.499326038790
20
1102.672170575891
30
0.0
11
3397.299677667320
21
1102.672170575891
31
0.0
0
LINE
5
7fc
100
AcDbEntity
8
0-0
6
CONTINUOUS
62
7
100
AcDbLine
10
3298.982840142995
20
1127.721702741414
30
0.0
11
3298.982840142995
21
1072.116014756552
31
0.0
0
LINE
5
7fd
100
AcDbEntity
8
0-0
6
CONTINUOUS
62
7
100
AcDbLine
10
3374.583105429352
20
1111.212402560750
30
0.0
11
3374.583105429352
21
1086.212402560750
31
0.0
0
LINE
5
7fe
100
AcDbEntity
8
0-0
6
CONTINUOUS
62
7
100
AcDbLine
10
3310.775347227996
20
1114.672170575891
30
0.0
11
3310.775347227996
21
1082.672170575891
31
0.0
0
ARC
5
7ff
100
AcDbEntity
8
0-0
6
CONTINUOUS
62
7
100
AcDbCircle
10
3298.775347227996
20
1082.672170575891
30
0.0
40
12.000000000000
100
AcDbArc
50
270.000000000000
51
360.000000000000
0
ARC
5
800
100
AcDbEntity
8
0-0
6
CONTINUOUS
62
7
100
AcDbCircle
10
3298.775347227996
20
1114.672170575891
30
0.0
40
12.000000000000
100
AcDbArc
50
0.000000000000
51
90.000000000000
0
LINE
5
801
100
AcDbEntity
8
0-0
6
CONTINUOUS
62
7
100
AcDbLine
10
3299.058050397952
20
1126.423876778450
30
0.0
11
3299.058050397952
21
1070.818188793588
31
0.0
0
LINE
5
802
100
AcDbEntity
8
0-0
6
CONTINUOUS
62
7
100
AcDbLine
10
3345.290639646221
20
1086.212402560750
30
0.0
11
3345.290639646221
21
1111.212402560750
31
0.0
0
LINE
5
803
100
AcDbEntity
8
0-0
6
CONTINUOUS
62
7
100
AcDbLine
10
3337.290639646221
20
1111.212402560750
30
0.0
11
3337.290639646221
21
1086.212402560750
31
0.0
0
ARC
5
804
100
AcDbEntity
8
0-0
6
CONTINUOUS
62
7
100
AcDbCircle
10
3341.330317573308
20
1098.663142813824
30
0.0
40
13.134414676531
100
AcDbArc
50
72.702435514475
51
107.723236616886
0
ARC
5
805
100
AcDbEntity
8
0-0
6
CONTINUOUS
62
7
100
AcDbCircle
10
3341.330317573308
20
1098.663142813824
30
0.0
40
13.134414676531
100
AcDbArc
50
251.982390785310
51
287.478114533726
0
CIRCLE
5
806
100
AcDbEntity
8
0-0
6
CONTINUOUS
62
7
100
AcDbCircle
10
3341.317599867672
20
1098.679601021117
30
0.0
40
3.389457447208
0
ARC
5
807
100
AcDbEntity
8
0-0
6
CONTINUOUS
62
7
100
AcDbCircle
10
3341.314336326938
20
1086.011007133581
30
0.0
40
3.389457447208
100
AcDbArc
50
0.021929785002
51
180.028490417393
0
ARC
5
808
100
AcDbEntity
8
0-0
6
CONTINUOUS
62
7
100
AcDbCircle
10
3341.328100579592
20
1111.320367976359
30
0.0
40
3.389457447208
100
AcDbArc
50
180.232247779006
51
359.660169619824
0
LINE
5
809
100
AcDbEntity
8
0-0
6
CONTINUOUS
62
7
100
AcDbLine
10
3311.252640743012
20
1090.672170575891
30
0.0
11
3337.152218305831
21
1090.672170575891
31
0.0
0
LINE
5
80a
100
AcDbEntity
8
0-0
6
CONTINUOUS
62
7
100
AcDbLine
10
3311.004411362356
20
1106.672170575891
30
0.0
11
3337.218097969982
21
1106.672170575891
31
0.0
0
ARC
5
80b
100
AcDbEntity
8
0-0
6
CONTINUOUS
62
7
100
AcDbCircle
10
3406.256809128743
20
1102.992170575891
30
0.0
40
3.240000000000
100
AcDbArc
50
0.000000000000
51
90.000000000000
0
ARC
5
80c
100
AcDbEntity
8
0-0
6
CONTINUOUS
62
7
100
AcDbCircle
10
3406.256809128743
20
1094.352170575891
30
0.0
40
3.240000000000
100
AcDbArc
50
270.000000000000
51
360.000000000000
0
LINE
5
80d
100
AcDbEntity
8
0-0
6
CONTINUOUS
62
7
100
AcDbLine
10
3409.496809128745
20
1102.992170575891
30
0.0
11
3409.496809128745
21
1094.352170575891
31
0.0
0
ARC
5
80e
100
AcDbEntity
8
0-0
6
CONTINUOUS
62
7
100
AcDbCircle
10
3400.227443929832
20
1076.781217489361
30
0.0
40
3.000000000000
100
AcDbArc
50
180.000000000000
51
270.000000000000
0
LINE
5
80f
100
AcDbEntity
8
0-0
6
CONTINUOUS
62
7
100
AcDbLine
10
3403.227443929832
20
1073.781217489361
30
0.0
11
3400.227443929832
21
1073.781217489361
31
0.0
0
ARC
5
810
100
AcDbEntity
8
0-0
6
CONTINUOUS
62
7
100
AcDbCircle
10
3403.227443929832
20
1076.781217489361
30
0.0
40
3.000000000000
100
AcDbArc
50
270.000000000000
51
360.000000000000
0
LINE
5
811
100
AcDbEntity
8
0-0
6
CONTINUOUS
62
7
100
AcDbLine
10
3397.227443929832
20
1120.781217489360
30
0.0
11
3397.227443929832
21
1076.781217489361
31
0.0
0
ARC
5
812
100
AcDbEntity
8
0-0
6
CONTINUOUS
62
7
100
AcDbCircle
10
3400.227443929832
20
1120.781217489360
30
0.0
40
3.000000000000
100
AcDbArc
50
90.000000000000
51
180.000000000000
0
LINE
5
813
100
AcDbEntity
8
0-0
6
CONTINUOUS
62
7
100
AcDbLine
10
3403.227443929832
20
1123.781217489361
30
0.0
11
3400.227443929832
21
1123.781217489361
31
0.0
0
LINE
5
814
100
AcDbEntity
8
0-0
6
CONTINUOUS
62
7
100
AcDbLine
10
3406.227443929832
20
1120.781217489360
30
0.0
11
3406.227443929832
21
1076.781217489361
31
0.0
0
ARC
5
815
100
AcDbEntity
8
0-0
6
CONTINUOUS
62
7
100
AcDbCircle
10
3403.227443929832
20
1120.781217489360
30
0.0
40
3.000000000000
100
AcDbArc
50
0.000000000000
51
90.000000000000
0
LINE
5
816
100
AcDbEntity
8
0-0
6
CONTINUOUS
62
7
100
AcDbLine
10
3349.647053307247
20
1133.678557528950
30
0.0
11
3369.647053307247
21
1133.678557528950
31
0.0
0
LINE
5
817
100
AcDbEntity
8
0-0
6
CONTINUOUS
62
7
100
AcDbLine
10
3350.761982620506
20
1119.678557528950
30
0.0
11
3368.532123993985
21
1119.678557528950
31
0.0
0
LINE
5
818
100
AcDbEntity
8
0-0
6
CONTINUOUS
62
7
100
AcDbLine
10
3349.647053307247
20
1121.678557528950
30
0.0
11
3369.647053307247
21
1121.678557528950
31
0.0
0
ARC
5
819
100
AcDbEntity
8
0-0
6
CONTINUOUS
62
7
100
AcDbCircle
10
3342.119867589788
20
1127.678557528950
30
0.0
40
9.625929816131
100
AcDbArc
50
321.441277284353
51
398.558722715647
0
ARC
5
81a
100
AcDbEntity
8
0-0
6
CONTINUOUS
62
7
100
AcDbCircle
10
3357.304836233999
20
1127.678557528950
30
0.0
40
6.440961171922
100
AcDbArc
50
291.324157753203
51
428.675842246797
0
ARC
5
81b
100
AcDbEntity
8
0-0
6
CONTINUOUS
62
7
100
AcDbCircle
10
3361.989270380492
20
1127.678557528950
30
0.0
40
6.440961171922
100
AcDbArc
50
111.324157753203
51
248.675842246797
0
ARC
5
81c
100
AcDbEntity
8
0-0
6
CONTINUOUS
62
7
100
AcDbCircle
10
3357.174239024703
20
1127.678557528950
30
0.0
40
9.625929816131
100
AcDbArc
50
141.441277284353
51
218.558722715647
0
ARC
5
81d
100
AcDbEntity
8
0-0
6
CONTINUOUS
62
7
100
AcDbCircle
10
3377.174239024703
20
1127.678557528950
30
0.0
40
9.625929816131
100
AcDbArc
50
141.441277284353
51
218.558722715647
0
ARC
5
81e
100
AcDbEntity
8
0-0
6
CONTINUOUS
62
7
100
AcDbCircle
10
3362.119867589788
20
1127.678557528950
30
0.0
40
9.625929816131
100
AcDbArc
50
321.441277284353
51
398.558722715647
0
POLYLINE
5
81f
100
AcDbEntity
8
0-0
6
CONTINUOUS
62
  7
100
AcDb2dPolyline
66
1
10
0.0
20
0.0
30
0.0
70
0
0
VERTEX
5
820
100
AcDbEntity
8
0-0
6
CONTINUOUS
62
  7
100
AcDbVertex
100
AcDb2dVertex
10
3345.325181712820
20
1111.126733315152
30
0.0
0
VERTEX
5
821
100
AcDbEntity
8
0-0
6
CONTINUOUS
62
  7
100
AcDbVertex
100
AcDb2dVertex
10
3345.474524460034
20
1111.279508752958
30
0.0
0
VERTEX
5
822
100
AcDbEntity
8
0-0
6
CONTINUOUS
62
  7
100
AcDbVertex
100
AcDb2dVertex
10
3345.731729882876
20
1111.543006851959
30
0.0
0
VERTEX
5
823
100
AcDbEntity
8
0-0
6
CONTINUOUS
62
  7
100
AcDbVertex
100
AcDb2dVertex
10
3345.988151771401
20
1111.806760983604
30
0.0
0
VERTEX
5
824
100
AcDbEntity
8
0-0
6
CONTINUOUS
62
  7
100
AcDbVertex
100
AcDb2dVertex
10
3346.243294217814
20
1112.070933193868
30
0.0
0
VERTEX
5
825
100
AcDbEntity
8
0-0
6
CONTINUOUS
62
  7
100
AcDbVertex
100
AcDb2dVertex
10
3346.496661314320
20
1112.335685528730
30
0.0
0
VERTEX
5
826
100
AcDbEntity
8
0-0
6
CONTINUOUS
62
  7
100
AcDbVertex
100
AcDb2dVertex
10
3346.747757153124
20
1112.601180034165
30
0.0
0
VERTEX
5
827
100
AcDbEntity
8
0-0
6
CONTINUOUS
62
  7
100
AcDbVertex
100
AcDb2dVertex
10
3346.996085826429
20
1112.867578756151
30
0.0
0
VERTEX
5
828
100
AcDbEntity
8
0-0
6
CONTINUOUS
62
  7
100
AcDbVertex
100
AcDb2dVertex
10
3347.241151426440
20
1113.135043740663
30
0.0
0
VERTEX
5
829
100
AcDbEntity
8
0-0
6
CONTINUOUS
62
  7
100
AcDbVertex
100
AcDb2dVertex
10
3347.482458045363
20
1113.403737033679
30
0.0
0
VERTEX
5
82a
100
AcDbEntity
8
0-0
6
CONTINUOUS
62
  7
100
AcDbVertex
100
AcDb2dVertex
10
3347.719509775403
20
1113.673820681176
30
0.0
0
VERTEX
5
82b
100
AcDbEntity
8
0-0
6
CONTINUOUS
62
  7
100
AcDbVertex
100
AcDb2dVertex
10
3347.951810708762
20
1113.945456729130
30
0.0
0
VERTEX
5
82c
100
AcDbEntity
8
0-0
6
CONTINUOUS
62
  7
100
AcDbVertex
100
AcDb2dVertex
10
3348.178864937647
20
1114.218807223518
30
0.0
0
VERTEX
5
82d
100
AcDbEntity
8
0-0
6
CONTINUOUS
62
  7
100
AcDbVertex
100
AcDb2dVertex
10
3348.400176554261
20
1114.494034210317
30
0.0
0
VERTEX
5
82e
100
AcDbEntity
8
0-0
6
CONTINUOUS
62
  7
100
AcDbVertex
100
AcDb2dVertex
10
3348.615249650810
20
1114.771299735503
30
0.0
0
VERTEX
5
82f
100
AcDbEntity
8
0-0
6
CONTINUOUS
62
  7
100
AcDbVertex
100
AcDb2dVertex
10
3348.823588319498
20
1115.050765845054
30
0.0
0
VERTEX
5
830
100
AcDbEntity
8
0-0
6
CONTINUOUS
62
  7
100
AcDbVertex
100
AcDb2dVertex
10
3349.024696652530
20
1115.332594584946
30
0.0
0
VERTEX
5
831
100
AcDbEntity
8
0-0
6
CONTINUOUS
62
  7
100
AcDbVertex
100
AcDb2dVertex
10
3349.218078742110
20
1115.616948001155
30
0.0
0
VERTEX
5
832
100
AcDbEntity
8
0-0
6
CONTINUOUS
62
  7
100
AcDbVertex
100
AcDb2dVertex
10
3349.403238680444
20
1115.903988139659
30
0.0
0
VERTEX
5
833
100
AcDbEntity
8
0-0
6
CONTINUOUS
62
  7
100
AcDbVertex
100
AcDb2dVertex
10
3349.579680559735
20
1116.193877046434
30
0.0
0
VERTEX
5
834
100
AcDbEntity
8
0-0
6
CONTINUOUS
62
  7
100
AcDbVertex
100
AcDb2dVertex
10
3349.746908472189
20
1116.486776767458
30
0.0
0
VERTEX
5
835
100
AcDbEntity
8
0-0
6
CONTINUOUS
62
  7
100
AcDbVertex
100
AcDb2dVertex
10
3349.904426510009
20
1116.782849348706
30
0.0
0
VERTEX
5
836
100
AcDbEntity
8
0-0
6
CONTINUOUS
62
  7
100
AcDbVertex
100
AcDb2dVertex
10
3350.051738765401
20
1117.082256836156
30
0.0
0
VERTEX
5
837
100
AcDbEntity
8
0-0
6
CONTINUOUS
62
  7
100
AcDbVertex
100
AcDb2dVertex
10
3350.188349330570
20
1117.385161275784
30
0.0
0
VERTEX
5
838
100
AcDbEntity
8
0-0
6
CONTINUOUS
62
  7
100
AcDbVertex
100
AcDb2dVertex
10
3350.313762297720
20
1117.691724713567
30
0.0
0
VERTEX
5
839
100
AcDbEntity
8
0-0
6
CONTINUOUS
62
  7
100
AcDbVertex
100
AcDb2dVertex
10
3350.427481759055
20
1118.002109195482
30
0.0
0
VERTEX
5
83a
100
AcDbEntity
8
0-0
6
CONTINUOUS
62
  7
100
AcDbVertex
100
AcDb2dVertex
10
3350.529011806781
20
1118.316476767506
30
0.0
0
VERTEX
5
83b
100
AcDbEntity
8
0-0
6
CONTINUOUS
62
  7
100
AcDbVertex
100
AcDb2dVertex
10
3350.617856533101
20
1118.634989475614
30
0.0
0
VERTEX
5
83c
100
AcDbEntity
8
0-0
6
CONTINUOUS
62
  7
100
AcDbVertex
100
AcDb2dVertex
10
3350.693520030221
20
1118.957809365785
30
0.0
0
VERTEX
5
83d
100
AcDbEntity
8
0-0
6
CONTINUOUS
62
  7
100
AcDbVertex
100
AcDb2dVertex
10
3350.755506390346
20
1119.285098483995
30
0.0
0
VERTEX
5
83e
100
AcDbEntity
8
0-0
6
CONTINUOUS
62
  7
100
AcDbVertex
100
AcDb2dVertex
10
3350.784996201587
20
1119.477037827385
30
0.0
0
VERTEX
5
83f
100
AcDbEntity
8
0-0
6
CONTINUOUS
62
  7
100
AcDbVertex
100
AcDb2dVertex
10
3350.790422834116
20
1119.516418143744
30
0.0
0
VERTEX
5
840
100
AcDbEntity
8
0-0
6
CONTINUOUS
62
  7
100
AcDbVertex
100
AcDb2dVertex
10
3350.799314692654
20
1119.584466992654
30
0.0
0
VERTEX
5
841
100
AcDbEntity
8
0-0
6
CONTINUOUS
62
  7
100
AcDbVertex
100
AcDb2dVertex
10
3350.807636473634
20
1119.652702123724
30
0.0
0
VERTEX
5
842
100
AcDbEntity
8
0-0
6
CONTINUOUS
62
  7
100
AcDbVertex
100
AcDb2dVertex
10
3350.815408847018
20
1119.721116782705
30
0.0
0
VERTEX
5
843
100
AcDbEntity
8
0-0
6
CONTINUOUS
62
  7
100
AcDbVertex
100
AcDb2dVertex
10
3350.822652482768
20
1119.789704215350
30
0.0
0
VERTEX
5
844
100
AcDbEntity
8
0-0
6
CONTINUOUS
62
  7
100
AcDbVertex
100
AcDb2dVertex
10
3350.829388050846
20
1119.858457667409
30
0.0
0
VERTEX
5
845
100
AcDbEntity
8
0-0
6
CONTINUOUS
62
  7
100
AcDbVertex
100
AcDb2dVertex
10
3350.835636221216
20
1119.927370384635
30
0.0
0
VERTEX
5
846
100
AcDbEntity
8
0-0
6
CONTINUOUS
62
  7
100
AcDbVertex
100
AcDb2dVertex
10
3350.841417663838
20
1119.996435612780
30
0.0
0
VERTEX
5
847
100
AcDbEntity
8
0-0
6
CONTINUOUS
62
  7
100
AcDbVertex
100
AcDb2dVertex
10
3350.846753048676
20
1120.065646597597
30
0.0
0
VERTEX
5
848
100
AcDbEntity
8
0-0
6
CONTINUOUS
62
  7
100
AcDbVertex
100
AcDb2dVertex
10
3350.851663045691
20
1120.134996584836
30
0.0
0
VERTEX
5
849
100
AcDbEntity
8
0-0
6
CONTINUOUS
62
  7
100
AcDbVertex
100
AcDb2dVertex
10
3350.856168324845
20
1120.204478820251
30
0.0
0
VERTEX
5
84a
100
AcDbEntity
8
0-0
6
CONTINUOUS
62
  7
100
AcDbVertex
100
AcDb2dVertex
10
3350.860289556102
20
1120.274086549592
30
0.0
0
VERTEX
5
84b
100
AcDbEntity
8
0-0
6
CONTINUOUS
62
  7
100
AcDbVertex
100
AcDb2dVertex
10
3350.864047409422
20
1120.343813018613
30
0.0
0
VERTEX
5
84c
100
AcDbEntity
8
0-0
6
CONTINUOUS
62
  7
100
AcDbVertex
100
AcDb2dVertex
10
3350.867462554769
20
1120.413651473066
30
0.0
0
VERTEX
5
84d
100
AcDbEntity
8
0-0
6
CONTINUOUS
62
  7
100
AcDbVertex
100
AcDb2dVertex
10
3350.870555662104
20
1120.483595158701
30
0.0
0
VERTEX
5
84e
100
AcDbEntity
8
0-0
6
CONTINUOUS
62
  7
100
AcDbVertex
100
AcDb2dVertex
10
3350.873347401391
20
1120.553637321272
30
0.0
0
VERTEX
5
84f
100
AcDbEntity
8
0-0
6
CONTINUOUS
62
  7
100
AcDbVertex
100
AcDb2dVertex
10
3350.875858442590
20
1120.623771206530
30
0.0
0
VERTEX
5
850
100
AcDbEntity
8
0-0
6
CONTINUOUS
62
  7
100
AcDbVertex
100
AcDb2dVertex
10
3350.878109455664
20
1120.693990060228
30
0.0
0
VERTEX
5
851
100
AcDbEntity
8
0-0
6
CONTINUOUS
62
  7
100
AcDbVertex
100
AcDb2dVertex
10
3350.880121110577
20
1120.764287128117
30
0.0
0
VERTEX
5
852
100
AcDbEntity
8
0-0
6
CONTINUOUS
62
  7
100
AcDbVertex
100
AcDb2dVertex
10
3350.881914077288
20
1120.834655655950
30
0.0
0
VERTEX
5
853
100
AcDbEntity
8
0-0
6
CONTINUOUS
62
  7
100
AcDbVertex
100
AcDb2dVertex
10
3350.883509025761
20
1120.905088889479
30
0.0
0
VERTEX
5
854
100
AcDbEntity
8
0-0
6
CONTINUOUS
62
  7
100
AcDbVertex
100
AcDb2dVertex
10
3350.884926625959
20
1120.975580074454
30
0.0
0
VERTEX
5
855
100
AcDbEntity
8
0-0
6
CONTINUOUS
62
  7
100
AcDbVertex
100
AcDb2dVertex
10
3350.886187547843
20
1121.046122456630
30
0.0
0
VERTEX
5
856
100
AcDbEntity
8
0-0
6
CONTINUOUS
62
  7
100
AcDbVertex
100
AcDb2dVertex
10
3350.887312461375
20
1121.116709281757
30
0.0
0
VERTEX
5
857
100
AcDbEntity
8
0-0
6
CONTINUOUS
62
  7
100
AcDbVertex
100
AcDb2dVertex
10
3350.888322036519
20
1121.187333795587
30
0.0
0
VERTEX
5
858
100
AcDbEntity
8
0-0
6
CONTINUOUS
62
  7
100
AcDbVertex
100
AcDb2dVertex
10
3350.889236943235
20
1121.257989243873
30
0.0
0
VERTEX
5
859
100
AcDbEntity
8
0-0
6
CONTINUOUS
62
  7
100
AcDbVertex
100
AcDb2dVertex
10
3350.890077851486
20
1121.328668872367
30
0.0
0
VERTEX
5
85a
100
AcDbEntity
8
0-0
6
CONTINUOUS
62
  7
100
AcDbVertex
100
AcDb2dVertex
10
3350.890865431235
20
1121.399365926821
30
0.0
0
VERTEX
5
85b
100
AcDbEntity
8
0-0
6
CONTINUOUS
62
  7
100
AcDbVertex
100
AcDb2dVertex
10
3350.891620352444
20
1121.470073652986
30
0.0
0
VERTEX
5
85c
100
AcDbEntity
8
0-0
6
CONTINUOUS
62
  7
100
AcDbVertex
100
AcDb2dVertex
10
3350.892051387642
20
1121.511086362416
30
0.0
0
SEQEND
5
85d
100
AcDbEntity
8
0-0
0
ARC
5
85e
100
AcDbEntity
8
0-0
6
CONTINUOUS
62
7
100
AcDbCircle
10
3378.622783356438
20
1098.663142813824
30
0.0
40
13.134414676531
100
AcDbArc
50
72.702435514475
51
107.723236616886
0
ARC
5
85f
100
AcDbEntity
8
0-0
6
CONTINUOUS
62
7
100
AcDbCircle
10
3378.622783356438
20
1098.663142813824
30
0.0
40
13.134414676531
100
AcDbArc
50
251.982390785310
51
287.478114533726
0
CIRCLE
5
860
100
AcDbEntity
8
0-0
6
CONTINUOUS
62
7
100
AcDbCircle
10
3378.610065650802
20
1098.679601021117
30
0.0
40
3.389457447208
0
ARC
5
861
100
AcDbEntity
8
0-0
6
CONTINUOUS
62
7
100
AcDbCircle
10
3378.606802110068
20
1086.011007133582
30
0.0
40
3.389457447208
100
AcDbArc
50
0.021929785002
51
180.028490417393
0
ARC
5
862
100
AcDbEntity
8
0-0
6
CONTINUOUS
62
7
100
AcDbCircle
10
3378.620566362722
20
1111.320367976359
30
0.0
40
3.389457447208
100
AcDbArc
50
180.232247779006
51
359.660169619824
0
LINE
5
863
100
AcDbEntity
8
0-0
6
CONTINUOUS
62
7
100
AcDbLine
10
3382.309489221872
20
1086.314989010364
30
0.0
11
3382.309489221872
21
1111.182864608748
31
0.0
0
LINE
5
864
100
AcDbEntity
8
0-0
6
CONTINUOUS
62
7
100
AcDbLine
10
3345.357426313972
20
1086.472144983509
30
0.0
11
3374.506503524453
21
1086.472144983509
31
0.0
0
POLYLINE
5
865
100
AcDbEntity
8
0-0
6
CONTINUOUS
62
  7
100
AcDb2dPolyline
66
1
10
0.0
20
0.0
30
0.0
70
0
0
VERTEX
5
866
100
AcDbEntity
8
0-0
6
CONTINUOUS
62
  7
100
AcDbVertex
100
AcDb2dVertex
10
3368.382853999081
20
1121.589950877959
30
0.0
0
VERTEX
5
867
100
AcDbEntity
8
0-0
6
CONTINUOUS
62
  7
100
AcDbVertex
100
AcDb2dVertex
10
3368.604687260397
20
1120.904545401745
30
0.0
0
VERTEX
5
868
100
AcDbEntity
8
0-0
6
CONTINUOUS
62
  7
100
AcDbVertex
100
AcDb2dVertex
10
3368.996455567937
20
1119.728837484259
30
0.0
0
VERTEX
5
869
100
AcDbEntity
8
0-0
6
CONTINUOUS
62
  7
100
AcDbVertex
100
AcDb2dVertex
10
3369.414049340303
20
1118.569867517310
30
0.0
0
VERTEX
5
86a
100
AcDbEntity
8
0-0
6
CONTINUOUS
62
  7
100
AcDbVertex
100
AcDb2dVertex
10
3369.873813808399
20
1117.438229140479
30
0.0
0
VERTEX
5
86b
100
AcDbEntity
8
0-0
6
CONTINUOUS
62
  7
100
AcDbVertex
100
AcDb2dVertex
10
3370.392094203128
20
1116.344515993346
30
0.0
0
VERTEX
5
86c
100
AcDbEntity
8
0-0
6
CONTINUOUS
62
  7
100
AcDbVertex
100
AcDb2dVertex
10
3370.985235755394
20
1115.299321715490
30
0.0
0
VERTEX
5
86d
100
AcDbEntity
8
0-0
6
CONTINUOUS
62
  7
100
AcDbVertex
100
AcDb2dVertex
10
3371.370000109018
20
1114.719514825102
30
0.0
0
VERTEX
5
86e
100
AcDbEntity
8
0-0
6
CONTINUOUS
62
  7
100
AcDbVertex
100
AcDb2dVertex
10
3371.625414879149
20
1114.370205589050
30
0.0
0
VERTEX
5
86f
100
AcDbEntity
8
0-0
6
CONTINUOUS
62
  7
100
AcDbVertex
100
AcDb2dVertex
10
3372.092867011268
20
1113.785500514726
30
0.0
0
VERTEX
5
870
100
AcDbEntity
8
0-0
6
CONTINUOUS
62
  7
100
AcDbVertex
100
AcDb2dVertex
10
3372.589180559448
20
1113.219501045806
30
0.0
0
VERTEX
5
871
100
AcDbEntity
8
0-0
6
CONTINUOUS
62
  7
100
AcDbVertex
100
AcDb2dVertex
10
3373.108053904463
20
1112.668122988972
30
0.0
0
VERTEX
5
872
100
AcDbEntity
8
0-0
6
CONTINUOUS
62
  7
100
AcDbVertex
100
AcDb2dVertex
10
3373.643185427084
20
1112.127282150904
30
0.0
0
VERTEX
5
873
100
AcDbEntity
8
0-0
6
CONTINUOUS
62
  7
100
AcDbVertex
100
AcDb2dVertex
10
3374.188273508084
20
1111.592894338281
30
0.0
0
VERTEX
5
874
100
AcDbEntity
8
0-0
6
CONTINUOUS
62
  7
100
AcDbVertex
100
AcDb2dVertex
10
3374.506503524453
20
1111.284296798673
30
0.0
0
SEQEND
5
875
100
AcDbEntity
8
0-0
0
POLYLINE
5
876
100
AcDbEntity
8
0-0
6
CONTINUOUS
62
  7
100
AcDb2dPolyline
66
1
10
0.0
20
0.0
30
0.0
70
0
0
VERTEX
5
877
100
AcDbEntity
8
0-0
6
CONTINUOUS
62
  7
100
AcDbVertex
100
AcDb2dVertex
10
3382.305736023029
20
1086.143355788399
30
0.0
0
VERTEX
5
878
100
AcDbEntity
8
0-0
6
CONTINUOUS
62
  7
100
AcDbVertex
100
AcDb2dVertex
10
3382.580883794833
20
1086.615424882497
30
0.0
0
VERTEX
5
879
100
AcDbEntity
8
0-0
6
CONTINUOUS
62
  7
100
AcDbVertex
100
AcDb2dVertex
10
3383.058023042278
20
1087.427329987676
30
0.0
0
VERTEX
5
87a
100
AcDbEntity
8
0-0
6
CONTINUOUS
62
  7
100
AcDbVertex
100
AcDb2dVertex
10
3383.542791560376
20
1088.233659742786
30
0.0
0
VERTEX
5
87b
100
AcDbEntity
8
0-0
6
CONTINUOUS
62
  7
100
AcDbVertex
100
AcDb2dVertex
10
3384.040018001444
20
1089.030885445252
30
0.0
0
VERTEX
5
87c
100
AcDbEntity
8
0-0
6
CONTINUOUS
62
  7
100
AcDbVertex
100
AcDb2dVertex
10
3384.554531017791
20
1089.815478392497
30
0.0
0
VERTEX
5
87d
100
AcDbEntity
8
0-0
6
CONTINUOUS
62
  7
100
AcDbVertex
100
AcDb2dVertex
10
3385.091159261733
20
1090.583909881948
30
0.0
0
VERTEX
5
87e
100
AcDbEntity
8
0-0
6
CONTINUOUS
62
  7
100
AcDbVertex
100
AcDb2dVertex
10
3385.414439580604
20
1091.020804473561
30
0.0
0
VERTEX
5
87f
100
AcDbEntity
8
0-0
6
CONTINUOUS
62
  7
100
AcDbVertex
100
AcDb2dVertex
10
3385.606052234202
20
1091.270532538956
30
0.0
0
VERTEX
5
880
100
AcDbEntity
8
0-0
6
CONTINUOUS
62
  7
100
AcDbVertex
100
AcDb2dVertex
10
3385.943375882164
20
1091.696014100819
30
0.0
0
VERTEX
5
881
100
AcDbEntity
8
0-0
6
CONTINUOUS
62
  7
100
AcDbVertex
100
AcDb2dVertex
10
3386.288113686289
20
1092.116077514875
30
0.0
0
VERTEX
5
882
100
AcDbEntity
8
0-0
6
CONTINUOUS
62
  7
100
AcDbVertex
100
AcDb2dVertex
10
3386.638646835188
20
1092.531905782826
30
0.0
0
VERTEX
5
883
100
AcDbEntity
8
0-0
6
CONTINUOUS
62
  7
100
AcDbVertex
100
AcDb2dVertex
10
3386.993356517473
20
1092.944681906378
30
0.0
0
VERTEX
5
884
100
AcDbEntity
8
0-0
6
CONTINUOUS
62
  7
100
AcDbVertex
100
AcDb2dVertex
10
3387.350623921753
20
1093.355588887237
30
0.0
0
VERTEX
5
885
100
AcDbEntity
8
0-0
6
CONTINUOUS
62
  7
100
AcDbVertex
100
AcDb2dVertex
10
3387.558373068588
20
1093.593524659141
30
0.0
0
SEQEND
5
886
100
AcDbEntity
8
0-0
0
LINE
5
887
100
AcDbEntity
8
0-0
6
CONTINUOUS
62
7
100
AcDbLine
10
3387.588457944569
20
1103.672170575891
30
0.0
11
3387.588457944569
21
1093.672170575891
31
0.0
0
POLYLINE
5
888
100
AcDbEntity
8
0-0
6
CONTINUOUS
62
  7
100
AcDb2dPolyline
66
1
10
0.0
20
0.0
30
0.0
70
0
0
VERTEX
5
889
100
AcDbEntity
8
0-0
6
CONTINUOUS
62
  7
100
AcDbVertex
100
AcDb2dVertex
10
3382.359334360228
20
1111.280975935003
30
0.0
0
VERTEX
5
88a
100
AcDbEntity
8
0-0
6
CONTINUOUS
62
  7
100
AcDbVertex
100
AcDb2dVertex
10
3382.618021271382
20
1110.789410392584
30
0.0
0
VERTEX
5
88b
100
AcDbEntity
8
0-0
6
CONTINUOUS
62
  7
100
AcDbVertex
100
AcDb2dVertex
10
3383.067775976383
20
1109.944572341209
30
0.0
0
VERTEX
5
88c
100
AcDbEntity
8
0-0
6
CONTINUOUS
62
  7
100
AcDbVertex
100
AcDb2dVertex
10
3383.527927318106
20
1109.107203028441
30
0.0
0
VERTEX
5
88d
100
AcDbEntity
8
0-0
6
CONTINUOUS
62
  7
100
AcDbVertex
100
AcDb2dVertex
10
3384.005055446373
20
1108.282029504034
30
0.0
0
VERTEX
5
88e
100
AcDbEntity
8
0-0
6
CONTINUOUS
62
  7
100
AcDbVertex
100
AcDb2dVertex
10
3384.505740511008
20
1107.473778817739
30
0.0
0
VERTEX
5
88f
100
AcDbEntity
8
0-0
6
CONTINUOUS
62
  7
100
AcDbVertex
100
AcDb2dVertex
10
3385.036562661834
20
1106.687178019306
30
0.0
0
VERTEX
5
890
100
AcDbEntity
8
0-0
6
CONTINUOUS
62
  7
100
AcDbVertex
100
AcDb2dVertex
10
3385.360841243405
20
1106.242732238242
30
0.0
0
VERTEX
5
891
100
AcDbEntity
8
0-0
6
CONTINUOUS
62
  7
100
AcDbVertex
100
AcDb2dVertex
10
3385.558301805520
20
1105.985035002231
30
0.0
0
VERTEX
5
892
100
AcDbEntity
8
0-0
6
CONTINUOUS
62
  7
100
AcDbVertex
100
AcDb2dVertex
10
3385.908589124226
20
1105.547796900843
30
0.0
0
VERTEX
5
893
100
AcDbEntity
8
0-0
6
CONTINUOUS
62
  7
100
AcDbVertex
100
AcDb2dVertex
10
3386.269360987201
20
1105.118090689111
30
0.0
0
VERTEX
5
894
100
AcDbEntity
8
0-0
6
CONTINUOUS
62
  7
100
AcDbVertex
100
AcDb2dVertex
10
3386.638328192639
20
1104.694271849642
30
0.0
0
VERTEX
5
895
100
AcDbEntity
8
0-0
6
CONTINUOUS
62
  7
100
AcDbVertex
100
AcDb2dVertex
10
3387.013201538735
20
1104.274695865044
30
0.0
0
VERTEX
5
896
100
AcDbEntity
8
0-0
6
CONTINUOUS
62
  7
100
AcDbVertex
100
AcDb2dVertex
10
3387.391691823684
20
1103.857718217926
30
0.0
0
VERTEX
5
897
100
AcDbEntity
8
0-0
6
CONTINUOUS
62
  7
100
AcDbVertex
100
AcDb2dVertex
10
3387.611971405787
20
1103.616413715462
30
0.0
0
SEQEND
5
898
100
AcDbEntity
8
0-0
0
LINE
5
899
100
AcDbEntity
8
0-0
6
CONTINUOUS
62
7
100
AcDbLine
10
3387.566584191160
20
1094.672170575891
30
0.0
11
3397.299677667320
21
1094.672170575891
31
0.0
0
LINE
5
89a
100
AcDbEntity
8
0-0
6
CONTINUOUS
62
7
100
AcDbLine
10
3468.573409106602
20
1745.110474272398
30
0.0
11
3303.573409106602
21
1745.110474272398
31
0.0
0
LINE
5
89b
100
AcDbEntity
8
0-0
6
CONTINUOUS
62
7
100
AcDbLine
10
3298.573409106602
20
1740.110474272398
30
0.0
11
3298.573409106602
21
1327.695474272398
31
0.0
0
LINE
5
89c
100
AcDbEntity
8
0-0
6
CONTINUOUS
62
7
100
AcDbLine
10
4013.573409106603
20
1370.110474272398
30
0.0
11
3483.497409106602
21
1370.110474272398
31
0.0
0
POLYLINE
5
89d
100
AcDbEntity
8
0-0
6
CONTINUOUS
62
  7
100
AcDb2dPolyline
66
1
10
0.0
20
0.0
30
0.0
70
0
0
VERTEX
5
89e
100
AcDbEntity
8
0-0
6
CONTINUOUS
62
  7
100
AcDbVertex
100
AcDb2dVertex
10
3473.573409106602
20
1700.110474272398
30
0.0
0
VERTEX
5
89f
100
AcDbEntity
8
0-0
6
CONTINUOUS
62
  7
100
AcDbVertex
100
AcDb2dVertex
10
3478.497409106603
20
1375.033474272398
30
0.0
0
VERTEX
5
8a0
100
AcDbEntity
8
0-0
6
CONTINUOUS
62
  7
100
AcDbVertex
100
AcDb2dVertex
10
3473.746409106603
20
1036.736474272398
30
0.0
0
SEQEND
5
8a1
100
AcDbEntity
8
0-0
0
LINE
5
8a2
100
AcDbEntity
8
0-0
6
CONTINUOUS
62
7
100
AcDbLine
10
3483.746409106602
20
1026.565474272398
30
0.0
11
3723.319409106603
21
1026.593474272398
31
0.0
0
LINE
5
8a3
100
AcDbEntity
8
0-0
6
CONTINUOUS
62
7
100
AcDbLine
10
3298.573409106602
20
1700.110474272398
30
0.0
11
3473.573409106602
21
1700.110474272398
31
0.0
0
LINE
5
8a4
100
AcDbEntity
8
0-0
6
CONTINUOUS
62
7
100
AcDbLine
10
4009.961409106603
20
1383.122474272398
30
0.0
11
4013.670409106603
21
1373.110474272398
31
0.0
0
LINE
5
8a5
100
AcDbEntity
8
0-0
6
CONTINUOUS
62
7
100
AcDbLine
10
4009.961409106603
20
1398.122474272398
30
0.0
11
4013.670409106603
21
1388.110474272398
31
0.0
0
LINE
5
8a6
100
AcDbEntity
8
0-0
6
CONTINUOUS
62
7
100
AcDbLine
10
4007.189409106602
20
1385.110474272398
30
0.0
11
3589.594409106602
21
1385.110474272398
31
0.0
0
LINE
5
8a7
100
AcDbEntity
8
0-0
6
CONTINUOUS
62
7
100
AcDbLine
10
4013.670409106603
20
1373.110474272398
30
0.0
11
3578.573409106602
21
1373.110474272398
31
0.0
0
LINE
5
8a8
100
AcDbEntity
8
0-0
6
CONTINUOUS
62
7
100
AcDbLine
10
3578.573409106602
20
1375.468474272398
30
0.0
11
3578.573409106602
21
1370.110474272398
31
0.0
0
LINE
5
8a9
100
AcDbEntity
8
0-0
6
CONTINUOUS
62
7
100
AcDbLine
10
3473.573409106602
20
1700.110474272398
30
0.0
11
3473.573409106602
21
1740.110474272398
31
0.0
0
POLYLINE
5
8aa
100
AcDbEntity
8
0-0
6
CONTINUOUS
62
  7
100
AcDb2dPolyline
66
1
10
0.0
20
0.0
30
0.0
70
0
0
VERTEX
5
8ab
100
AcDbEntity
8
0-0
6
CONTINUOUS
62
  7
100
AcDbVertex
100
AcDb2dVertex
10
3363.573409106602
20
1745.110474272398
30
0.0
0
VERTEX
5
8ac
100
AcDbEntity
8
0-0
6
CONTINUOUS
62
  7
100
AcDbVertex
100
AcDb2dVertex
10
3413.573409106602
20
1745.110474272398
30
0.0
0
VERTEX
5
8ad
100
AcDbEntity
8
0-0
6
CONTINUOUS
62
  7
100
AcDbVertex
100
AcDb2dVertex
10
3413.573409106602
20
1748.110474272398
30
0.0
0
VERTEX
5
8ae
100
AcDbEntity
8
0-0
6
CONTINUOUS
62
  7
100
AcDbVertex
100
AcDb2dVertex
10
3363.573409106602
20
1748.110474272398
30
0.0
0
VERTEX
5
8af
100
AcDbEntity
8
0-0
6
CONTINUOUS
62
  7
100
AcDbVertex
100
AcDb2dVertex
10
3363.573409106602
20
1745.110474272398
30
0.0
0
SEQEND
5
8b0
100
AcDbEntity
8
0-0
0
POLYLINE
5
8b1
100
AcDbEntity
8
0-0
6
CONTINUOUS
62
  7
100
AcDb2dPolyline
66
1
10
0.0
20
0.0
30
0.0
70
0
0
VERTEX
5
8b2
100
AcDbEntity
8
0-0
6
CONTINUOUS
62
  7
100
AcDbVertex
100
AcDb2dVertex
10
3373.573409106602
20
1748.110474272398
30
0.0
0
VERTEX
5
8b3
100
AcDbEntity
8
0-0
6
CONTINUOUS
62
  7
100
AcDbVertex
100
AcDb2dVertex
10
3403.573409106602
20
1748.110474272398
30
0.0
0
VERTEX
5
8b4
100
AcDbEntity
8
0-0
6
CONTINUOUS
62
  7
100
AcDbVertex
100
AcDb2dVertex
10
3403.573409106602
20
1750.110474272398
30
0.0
0
VERTEX
5
8b5
100
AcDbEntity
8
0-0
6
CONTINUOUS
62
  7
100
AcDbVertex
100
AcDb2dVertex
10
3373.573409106602
20
1750.110474272398
30
0.0
0
VERTEX
5
8b6
100
AcDbEntity
8
0-0
6
CONTINUOUS
62
  7
100
AcDbVertex
100
AcDb2dVertex
10
3373.573409106602
20
1748.110474272398
30
0.0
0
SEQEND
5
8b7
100
AcDbEntity
8
0-0
0
ARC
5
8b8
100
AcDbEntity
8
0-0
6
CONTINUOUS
62
7
100
AcDbCircle
10
4013.573409106603
20
1365.110474272398
30
0.0
40
5.000000000000
100
AcDbArc
50
0.000000000000
51
90.000000000000
0
ARC
5
8b9
100
AcDbEntity
8
0-0
6
CONTINUOUS
62
7
100
AcDbCircle
10
4013.573409106603
20
1365.110474272398
30
0.0
40
5.000000000000
100
AcDbArc
50
0.000000000000
51
90.000000000000
0
ARC
5
8ba
100
AcDbEntity
8
0-0
6
CONTINUOUS
62
7
100
AcDbCircle
10
3468.573409106602
20
1740.110474272398
30
0.0
40
5.000000000000
100
AcDbArc
50
0.000000000000
51
90.000000000000
0
ARC
5
8bb
100
AcDbEntity
8
0-0
6
CONTINUOUS
62
7
100
AcDbCircle
10
3303.573409106602
20
1740.110474272398
30
0.0
40
5.000000000000
100
AcDbArc
50
90.000000000000
51
180.000000000000
0
ARC
5
8bc
100
AcDbEntity
8
0-0
6
CONTINUOUS
62
7
100
AcDbCircle
10
3483.745409106602
20
1036.565474272398
30
0.0
40
10.000000000000
100
AcDbArc
50
179.024204460210
51
270.006505730231
0
ARC
5
8bd
100
AcDbEntity
8
0-0
6
CONTINUOUS
62
7
100
AcDbCircle
10
3723.318409106603
20
1036.593474272398
30
0.0
40
10.000000000000
100
AcDbArc
50
270.006567978772
51
360.046165998094
0
ARC
5
8be
100
AcDbEntity
8
0-0
6
CONTINUOUS
62
7
100
AcDbCircle
10
3467.404409106603
20
1196.157474272398
30
0.0
40
88.568000000000
100
AcDbArc
50
21.372260783429
51
83.636164859471
0
ARC
5
8bf
100
AcDbEntity
8
0-0
6
CONTINUOUS
62
7
100
AcDbCircle
10
3729.404409106603
20
1298.452474272398
30
0.0
40
192.694000000000
100
AcDbArc
50
201.307224284981
51
238.320990051178
0
ARC
5
8c0
100
AcDbEntity
8
0-0
6
CONTINUOUS
62
7
100
AcDbCircle
10
3673.729409106603
20
1200.855474272398
30
0.0
40
80.493000000000
100
AcDbArc
50
235.561873153656
51
302.887496584797
0
ARC
5
8c1
100
AcDbEntity
8
0-0
6
CONTINUOUS
62
7
100
AcDbCircle
10
3681.210409106603
20
1382.410474272398
30
0.0
40
318.376000000000
100
AcDbArc
50
249.230644943672
51
279.415241605566
0
ARC
5
8c2
100
AcDbEntity
8
0-0
6
CONTINUOUS
62
7
100
AcDbCircle
10
3610.308409106603
20
1170.856474272398
30
0.0
40
95.825000000000
100
AcDbArc
50
211.595619141515
51
244.007058343342
0
ARC
5
8c3
100
AcDbEntity
8
0-0
6
CONTINUOUS
62
7
100
AcDbCircle
10
3314.459409106603
20
1008.727474272398
30
0.0
40
241.704000000000
100
AcDbArc
50
27.585015856922
51
44.376260219023
0
ARC
5
8c4
100
AcDbEntity
8
0-0
6
CONTINUOUS
62
7
100
AcDbCircle
10
3483.260409106602
20
1173.924474272398
30
0.0
40
5.518000000000
100
AcDbArc
50
44.141624232508
51
197.770584754034
0
ARC
5
8c5
100
AcDbEntity
8
0-0
6
CONTINUOUS
62
7
100
AcDbCircle
10
3580.520409106603
20
1170.486474272398
30
0.0
40
102.530000000000
100
AcDbArc
50
179.020233164356
51
215.795073371250
0
ARC
5
8c6
100
AcDbEntity
8
0-0
6
CONTINUOUS
62
7
100
AcDbCircle
10
3468.382409106603
20
1081.187474272399
30
0.0
40
41.229000000000
100
AcDbArc
50
353.378485856317
51
405.350374909739
0
ARC
5
8c7
100
AcDbEntity
8
0-0
6
CONTINUOUS
62
7
100
AcDbCircle
10
3531.741409106603
20
1072.607474272398
30
0.0
40
22.729000000000
100
AcDbArc
50
170.309121460354
51
247.814786969741
0
ARC
5
8c8
100
AcDbEntity
8
0-0
6
CONTINUOUS
62
7
100
AcDbCircle
10
3555.883409106602
20
1196.947474272398
30
0.0
40
149.024000000000
100
AcDbArc
50
257.314837440212
51
276.207721050798
0
ARC
5
8c9
100
AcDbEntity
8
0-0
6
CONTINUOUS
62
7
100
AcDbCircle
10
3709.820409106603
20
-2182.427525727601
30
0.0
40
3234.162000000001
100
AcDbArc
50
89.583913393252
51
92.442366195566
0
ARC
5
8ca
100
AcDbEntity
8
0-0
6
CONTINUOUS
62
7
100
AcDbCircle
10
4006.846409106603
20
1396.705474272398
30
0.0
40
3.423000000000
100
AcDbArc
50
24.454000000000
51
84.243000000000
0
ARC
5
8cb
100
AcDbEntity
8
0-0
6
CONTINUOUS
62
7
100
AcDbCircle
10
4006.846409106603
20
1381.705474272398
30
0.0
40
3.423000000000
100
AcDbArc
50
24.454000000000
51
84.243000000000
0
ARC
5
8cc
100
AcDbEntity
8
0-0
6
CONTINUOUS
62
7
100
AcDbCircle
10
3807.457409106602
20
232.546474272398
30
0.0
40
1184.525000000000
100
AcDbArc
50
80.292549826286
51
95.482754931166
0
ARC
5
8cd
100
AcDbEntity
8
0-0
6
CONTINUOUS
62
7
100
AcDbCircle
10
3593.864409106602
20
1369.110474272398
30
0.0
40
16.560000000000
100
AcDbArc
50
80.157398692586
51
157.423123494442
0
ARC
5
8ce
100
AcDbEntity
8
0-0
6
CONTINUOUS
62
7
100
AcDbCircle
10
3876.657409106603
20
-9718.545525727606
30
0.0
40
11107.501000000000
100
AcDbArc
50
89.293230716542
51
91.444280297056
0
ARC
5
8cf
100
AcDbEntity
8
0-0
6
CONTINUOUS
62
7
100
AcDbCircle
10
3483.497409106602
20
1375.110474272398
30
0.0
40
5.000000000000
100
AcDbArc
50
180.881000000000
51
270.000000000000
0
ARC
5
8d0
100
AcDbEntity
8
0-0
6
CONTINUOUS
62
7
100
AcDbCircle
10
3482.656409106603
20
1315.122474272398
30
0.0
40
5.000000000000
100
AcDbArc
50
90.000000000000
51
179.119000000000
0
LINE
5
8d1
100
AcDbEntity
8
0-0
6
CONTINUOUS
62
7
100
AcDbLine
10
4001.990855861752
20
1320.110474272398
30
0.0
11
3482.313409106603
21
1320.110474272398
31
0.0
0
ARC
5
8d2
100
AcDbEntity
8
0-0
6
CONTINUOUS
62
7
100
AcDbCircle
10
3670.855409106603
20
1689.395474272398
30
0.0
40
278.730000000000
100
AcDbArc
50
252.830059025956
51
274.821047237777
0
LINE
5
8d3
100
AcDbEntity
8
0-0
6
CONTINUOUS
62
7
100
AcDbLine
10
3516.843179984264
20
1380.110474272398
30
0.0
11
3516.843179984264
21
1370.110474272398
31
0.0
0
LINE
5
8d4
100
AcDbEntity
8
0-0
6
CONTINUOUS
62
7
100
AcDbLine
10
3541.843179984264
20
1380.110474272398
30
0.0
11
3516.843179984264
21
1380.110474272398
31
0.0
0
LINE
5
8d5
100
AcDbEntity
8
0-0
6
CONTINUOUS
62
7
100
AcDbLine
10
3566.843179984264
20
1370.110474272398
30
0.0
11
3516.843179984264
21
1370.110474272398
31
0.0
0
ARC
5
8d6
100
AcDbEntity
8
0-0
6
CONTINUOUS
62
7
100
AcDbCircle
10
3441.533179984263
20
1437.453474272398
30
0.0
40
115.543000000000
100
AcDbArc
50
330.245171103881
51
356.356340427656
0
ARC
5
8d7
100
AcDbEntity
8
0-0
6
CONTINUOUS
62
7
100
AcDbCircle
10
3567.094179984264
20
1446.457474272398
30
0.0
40
70.989000000000
100
AcDbArc
50
249.163705804059
51
265.381666527435
0
ARC
5
8d8
100
AcDbEntity
8
0-0
6
CONTINUOUS
62
7
100
AcDbCircle
10
3567.094179984264
20
1446.457474272398
30
0.0
40
70.989000000000
100
AcDbArc
50
269.563250824946
51
269.797508783493
0
POLYLINE
5
8d9
100
AcDbEntity
8
0-0
6
CONTINUOUS
62
  7
100
AcDb2dPolyline
66
1
10
0.0
20
0.0
30
0.0
70
0
0
VERTEX
5
8da
100
AcDbEntity
8
0-0
6
CONTINUOUS
62
  7
100
AcDbVertex
100
AcDb2dVertex
10
3556.987464811392
20
1429.995630518469
30
0.0
0
VERTEX
5
8db
100
AcDbEntity
8
0-0
6
CONTINUOUS
62
  7
100
AcDbVertex
100
AcDb2dVertex
10
3558.151497014801
20
1429.731420061435
30
0.0
0
VERTEX
5
8dc
100
AcDbEntity
8
0-0
6
CONTINUOUS
62
  7
100
AcDbVertex
100
AcDb2dVertex
10
3560.158629558326
20
1429.276710919225
30
0.0
0
VERTEX
5
8dd
100
AcDbEntity
8
0-0
6
CONTINUOUS
62
  7
100
AcDbVertex
100
AcDb2dVertex
10
3562.166263403742
20
1428.824296578508
30
0.0
0
VERTEX
5
8de
100
AcDbEntity
8
0-0
6
CONTINUOUS
62
  7
100
AcDbVertex
100
AcDb2dVertex
10
3564.174715830728
20
1428.375629445294
30
0.0
0
VERTEX
5
8df
100
AcDbEntity
8
0-0
6
CONTINUOUS
62
  7
100
AcDbVertex
100
AcDb2dVertex
10
3566.184304118962
20
1427.932161925590
30
0.0
0
VERTEX
5
8e0
100
AcDbEntity
8
0-0
6
CONTINUOUS
62
  7
100
AcDbVertex
100
AcDb2dVertex
10
3568.195345548122
20
1427.495346425405
30
0.0
0
VERTEX
5
8e1
100
AcDbEntity
8
0-0
6
CONTINUOUS
62
  7
100
AcDbVertex
100
AcDb2dVertex
10
3569.362540430899
20
1427.245613714134
30
0.0
0
VERTEX
5
8e2
100
AcDbEntity
8
0-0
6
CONTINUOUS
62
  7
100
AcDbVertex
100
AcDb2dVertex
10
3570.383828374022
20
1427.029537469095
30
0.0
0
VERTEX
5
8e3
100
AcDbEntity
8
0-0
6
CONTINUOUS
62
  7
100
AcDbVertex
100
AcDb2dVertex
10
3572.145479589286
20
1426.660712815731
30
0.0
0
VERTEX
5
8e4
100
AcDbEntity
8
0-0
6
CONTINUOUS
62
  7
100
AcDbVertex
100
AcDb2dVertex
10
3573.907595096686
20
1426.294049586444
30
0.0
0
VERTEX
5
8e5
100
AcDbEntity
8
0-0
6
CONTINUOUS
62
  7
100
AcDbVertex
100
AcDb2dVertex
10
3575.669522639480
20
1425.926584767284
30
0.0
0
VERTEX
5
8e6
100
AcDbEntity
8
0-0
6
CONTINUOUS
62
  7
100
AcDbVertex
100
AcDb2dVertex
10
3577.430609960924
20
1425.555355344299
30
0.0
0
VERTEX
5
8e7
100
AcDbEntity
8
0-0
6
CONTINUOUS
62
  7
100
AcDbVertex
100
AcDb2dVertex
10
3579.190204804278
20
1425.177398303536
30
0.0
0
VERTEX
5
8e8
100
AcDbEntity
8
0-0
6
CONTINUOUS
62
  7
100
AcDbVertex
100
AcDb2dVertex
10
3580.209828936887
20
1424.953933043855
30
0.0
0
VERTEX
5
8e9
100
AcDbEntity
8
0-0
6
CONTINUOUS
62
  7
100
AcDbVertex
100
AcDb2dVertex
10
3581.017017262422
20
1424.774289043787
30
0.0
0
VERTEX
5
8ea
100
AcDbEntity
8
0-0
6
CONTINUOUS
62
  7
100
AcDbVertex
100
AcDb2dVertex
10
3582.407616530467
20
1424.459562378636
30
0.0
0
VERTEX
5
8eb
100
AcDbEntity
8
0-0
6
CONTINUOUS
62
  7
100
AcDbVertex
100
AcDb2dVertex
10
3583.797038463240
20
1424.139511814581
30
0.0
0
VERTEX
5
8ec
100
AcDbEntity
8
0-0
6
CONTINUOUS
62
  7
100
AcDbVertex
100
AcDb2dVertex
10
3585.185540120844
20
1423.815299774963
30
0.0
0
VERTEX
5
8ed
100
AcDbEntity
8
0-0
6
CONTINUOUS
62
  7
100
AcDbVertex
100
AcDb2dVertex
10
3586.573378563382
20
1423.488088683125
30
0.0
0
VERTEX
5
8ee
100
AcDbEntity
8
0-0
6
CONTINUOUS
62
  7
100
AcDbVertex
100
AcDb2dVertex
10
3587.960810850958
20
1423.159040962406
30
0.0
0
VERTEX
5
8ef
100
AcDbEntity
8
0-0
6
CONTINUOUS
62
  7
100
AcDbVertex
100
AcDb2dVertex
10
3588.765436772595
20
1422.967809796280
30
0.0
0
SEQEND
5
8f0
100
AcDbEntity
8
0-0
0
POLYLINE
5
8f1
100
AcDbEntity
8
0-0
6
CONTINUOUS
62
  7
100
AcDb2dPolyline
66
1
10
0.0
20
0.0
30
0.0
70
0
0
VERTEX
5
8f2
100
AcDbEntity
8
0-0
6
CONTINUOUS
62
  7
100
AcDbVertex
100
AcDb2dVertex
10
3561.358203244907
20
1375.754963692364
30
0.0
0
VERTEX
5
8f3
100
AcDbEntity
8
0-0
6
CONTINUOUS
62
  7
100
AcDbVertex
100
AcDb2dVertex
10
3561.860252710726
20
1375.722165398804
30
0.0
0
VERTEX
5
8f4
100
AcDbEntity
8
0-0
6
CONTINUOUS
62
  7
100
AcDbVertex
100
AcDb2dVertex
10
3562.726462059688
20
1375.666350574209
30
0.0
0
VERTEX
5
8f5
100
AcDbEntity
8
0-0
6
CONTINUOUS
62
  7
100
AcDbVertex
100
AcDb2dVertex
10
3563.594357024447
20
1375.612574520180
30
0.0
0
VERTEX
5
8f6
100
AcDbEntity
8
0-0
6
CONTINUOUS
62
  7
100
AcDbVertex
100
AcDb2dVertex
10
3564.465004450444
20
1375.562127597838
30
0.0
0
VERTEX
5
8f7
100
AcDbEntity
8
0-0
6
CONTINUOUS
62
  7
100
AcDbVertex
100
AcDb2dVertex
10
3565.339471183122
20
1375.516300168299
30
0.0
0
VERTEX
5
8f8
100
AcDbEntity
8
0-0
6
CONTINUOUS
62
  7
100
AcDbVertex
100
AcDb2dVertex
10
3566.218824067920
20
1375.476382592682
30
0.0
0
VERTEX
5
8f9
100
AcDbEntity
8
0-0
6
CONTINUOUS
62
  7
100
AcDbVertex
100
AcDb2dVertex
10
3566.731507968585
20
1375.456446763270
30
0.0
0
VERTEX
5
8fa
100
AcDbEntity
8
0-0
6
CONTINUOUS
62
  7
100
AcDbVertex
100
AcDb2dVertex
10
3567.580658959534
20
1375.430162590687
30
0.0
0
VERTEX
5
8fb
100
AcDbEntity
8
0-0
6
CONTINUOUS
62
  7
100
AcDbVertex
100
AcDb2dVertex
10
3569.051164257826
20
1375.415935154944
30
0.0
0
VERTEX
5
8fc
100
AcDbEntity
8
0-0
6
CONTINUOUS
62
  7
100
AcDbVertex
100
AcDb2dVertex
10
3570.518276690274
20
1375.462288738515
30
0.0
0
VERTEX
5
8fd
100
AcDbEntity
8
0-0
6
CONTINUOUS
62
  7
100
AcDbVertex
100
AcDb2dVertex
10
3571.968554647163
20
1375.593905269669
30
0.0
0
VERTEX
5
8fe
100
AcDbEntity
8
0-0
6
CONTINUOUS
62
  7
100
AcDbVertex
100
AcDb2dVertex
10
3573.388556518783
20
1375.835466676675
30
0.0
0
VERTEX
5
8ff
100
AcDbEntity
8
0-0
6
CONTINUOUS
62
  7
100
AcDbVertex
100
AcDb2dVertex
10
3574.764840695418
20
1376.211654887799
30
0.0
0
VERTEX
5
900
100
AcDbEntity
8
0-0
6
CONTINUOUS
62
  7
100
AcDbVertex
100
AcDb2dVertex
10
3575.537757376834
20
1376.501256015097
30
0.0
0
VERTEX
5
901
100
AcDbEntity
8
0-0
6
CONTINUOUS
62
  7
100
AcDbVertex
100
AcDb2dVertex
10
3575.946193250460
20
1376.681147994930
30
0.0
0
VERTEX
5
902
100
AcDbEntity
8
0-0
6
CONTINUOUS
62
  7
100
AcDbVertex
100
AcDb2dVertex
10
3576.636797179560
20
1377.026597358376
30
0.0
0
VERTEX
5
903
100
AcDbEntity
8
0-0
6
CONTINUOUS
62
  7
100
AcDbVertex
100
AcDb2dVertex
10
3577.312240191320
20
1377.409653152125
30
0.0
0
VERTEX
5
904
100
AcDbEntity
8
0-0
6
CONTINUOUS
62
  7
100
AcDbVertex
100
AcDb2dVertex
10
3577.974904870835
20
1377.822099748295
30
0.0
0
VERTEX
5
905
100
AcDbEntity
8
0-0
6
CONTINUOUS
62
  7
100
AcDbVertex
100
AcDb2dVertex
10
3578.627173803202
20
1378.255721519003
30
0.0
0
VERTEX
5
906
100
AcDbEntity
8
0-0
6
CONTINUOUS
62
  7
100
AcDbVertex
100
AcDb2dVertex
10
3579.271429573515
20
1378.702302836366
30
0.0
0
VERTEX
5
907
100
AcDbEntity
8
0-0
6
CONTINUOUS
62
  7
100
AcDbVertex
100
AcDb2dVertex
10
3579.642365151865
20
1378.964020680115
30
0.0
0
VERTEX
5
908
100
AcDbEntity
8
0-0
6
CONTINUOUS
62
  7
100
AcDbVertex
100
AcDb2dVertex
10
3579.890266476266
20
1379.139699914311
30
0.0
0
VERTEX
5
909
100
AcDbEntity
8
0-0
6
CONTINUOUS
62
  7
100
AcDbVertex
100
AcDb2dVertex
10
3580.316349625414
20
1379.442588511787
30
0.0
0
VERTEX
5
90a
100
AcDbEntity
8
0-0
6
CONTINUOUS
62
  7
100
AcDbVertex
100
AcDb2dVertex
10
3580.741012259038
20
1379.745470039447
30
0.0
0
VERTEX
5
90b
100
AcDbEntity
8
0-0
6
CONTINUOUS
62
  7
100
AcDbVertex
100
AcDb2dVertex
10
3581.164564533367
20
1380.048346040919
30
0.0
0
VERTEX
5
90c
100
AcDbEntity
8
0-0
6
CONTINUOUS
62
  7
100
AcDbVertex
100
AcDb2dVertex
10
3581.587316604627
20
1380.351218059830
30
0.0
0
VERTEX
5
90d
100
AcDbEntity
8
0-0
6
CONTINUOUS
62
  7
100
AcDbVertex
100
AcDb2dVertex
10
3582.009578629047
20
1380.654087639809
30
0.0
0
VERTEX
5
90e
100
AcDbEntity
8
0-0
6
CONTINUOUS
62
  7
100
AcDbVertex
100
AcDb2dVertex
10
3582.254388281431
20
1380.829751486948
30
0.0
0
SEQEND
5
90f
100
AcDbEntity
8
0-0
0
LINE
5
910
100
AcDbEntity
8
0-0
6
CONTINUOUS
62
7
100
AcDbLine
10
3384.610852052961
20
996.564474272398
30
0.0
11
3373.447169049226
21
996.564474272398
31
0.0
0
LINE
5
911
100
AcDbEntity
8
0-0
6
CONTINUOUS
62
7
100
AcDbLine
10
3373.447169049226
20
1247.723474272398
30
0.0
11
3373.447169049226
21
1123.980829533229
31
0.0
0
ARC
5
912
100
AcDbEntity
8
0-0
6
CONTINUOUS
62
7
100
AcDbCircle
10
3330.627169049226
20
1248.904474272398
30
0.0
40
42.836000000000
100
AcDbArc
50
358.420501114890
51
458.393866871970
0
ARC
5
913
100
AcDbEntity
8
0-0
6
CONTINUOUS
62
7
100
AcDbCircle
10
3343.358409106603
20
1331.748474272398
30
0.0
40
44.968000000000
100
AcDbArc
50
185.171353060101
51
244.435009556847
0
POLYLINE
5
914
100
AcDbEntity
8
0-0
6
CONTINUOUS
62
  7
100
AcDb2dPolyline
66
1
10
0.0
20
0.0
30
0.0
70
0
0
VERTEX
5
915
100
AcDbEntity
8
0-0
6
CONTINUOUS
62
  7
100
AcDbVertex
100
AcDb2dVertex
10
3367.583680425870
20
1133.351136741457
30
0.0
0
VERTEX
5
916
100
AcDbEntity
8
0-0
6
CONTINUOUS
62
  7
100
AcDbVertex
100
AcDb2dVertex
10
3366.570102206300
20
1140.275794470694
30
0.0
0
VERTEX
5
917
100
AcDbEntity
8
0-0
6
CONTINUOUS
62
  7
100
AcDbVertex
100
AcDb2dVertex
10
3364.935305084578
20
1152.203829608962
30
0.0
0
VERTEX
5
918
100
AcDbEntity
8
0-0
6
CONTINUOUS
62
  7
100
AcDbVertex
100
AcDb2dVertex
10
3363.613706664821
20
1164.101226102393
30
0.0
0
VERTEX
5
919
100
AcDbEntity
8
0-0
6
CONTINUOUS
62
  7
100
AcDbVertex
100
AcDb2dVertex
10
3362.803533973587
20
1175.948592403622
30
0.0
0
VERTEX
5
91a
100
AcDbEntity
8
0-0
6
CONTINUOUS
62
  7
100
AcDbVertex
100
AcDb2dVertex
10
3362.703014037437
20
1187.726536965284
30
0.0
0
VERTEX
5
91b
100
AcDbEntity
8
0-0
6
CONTINUOUS
62
  7
100
AcDbVertex
100
AcDb2dVertex
10
3363.510373882931
20
1199.415668240014
30
0.0
0
VERTEX
5
91c
100
AcDbEntity
8
0-0
6
CONTINUOUS
62
  7
100
AcDbVertex
100
AcDb2dVertex
10
3364.472744865536
20
1206.147028853263
30
0.0
0
VERTEX
5
91d
100
AcDbEntity
8
0-0
6
CONTINUOUS
62
  7
100
AcDbVertex
100
AcDb2dVertex
10
3365.245295268266
20
1210.199836547520
30
0.0
0
VERTEX
5
91e
100
AcDbEntity
8
0-0
6
CONTINUOUS
62
  7
100
AcDbVertex
100
AcDb2dVertex
10
3366.842861720171
20
1217.162316991656
30
0.0
0
VERTEX
5
91f
100
AcDbEntity
8
0-0
6
CONTINUOUS
62
  7
100
AcDbVertex
100
AcDb2dVertex
10
3368.644591076115
20
1224.107218580254
30
0.0
0
VERTEX
5
920
100
AcDbEntity
8
0-0
6
CONTINUOUS
62
  7
100
AcDbVertex
100
AcDb2dVertex
10
3370.496973909055
20
1231.051073154418
30
0.0
0
VERTEX
5
921
100
AcDbEntity
8
0-0
6
CONTINUOUS
62
  7
100
AcDbVertex
100
AcDb2dVertex
10
3372.246500791951
20
1238.010412555250
30
0.0
0
VERTEX
5
922
100
AcDbEntity
8
0-0
6
CONTINUOUS
62
  7
100
AcDbVertex
100
AcDb2dVertex
10
3373.034769282731
20
1241.701283017194
30
0.0
0
SEQEND
5
923
100
AcDbEntity
8
0-0
0
POLYLINE
5
924
100
AcDbEntity
8
0-0
6
CONTINUOUS
62
  7
100
AcDb2dPolyline
66
1
10
0.0
20
0.0
30
0.0
70
0
0
VERTEX
5
925
100
AcDbEntity
8
0-0
6
CONTINUOUS
62
  7
100
AcDbVertex
100
AcDb2dVertex
10
3351.677697443903
20
1133.351136741457
30
0.0
0
VERTEX
5
926
100
AcDbEntity
8
0-0
6
CONTINUOUS
62
  7
100
AcDbVertex
100
AcDb2dVertex
10
3350.664119224334
20
1140.275794470694
30
0.0
0
VERTEX
5
927
100
AcDbEntity
8
0-0
6
CONTINUOUS
62
  7
100
AcDbVertex
100
AcDb2dVertex
10
3349.029322102611
20
1152.203829608962
30
0.0
0
VERTEX
5
928
100
AcDbEntity
8
0-0
6
CONTINUOUS
62
  7
100
AcDbVertex
100
AcDb2dVertex
10
3347.707723682854
20
1164.101226102393
30
0.0
0
VERTEX
5
929
100
AcDbEntity
8
0-0
6
CONTINUOUS
62
  7
100
AcDbVertex
100
AcDb2dVertex
10
3346.897550991620
20
1175.948592403622
30
0.0
0
VERTEX
5
92a
100
AcDbEntity
8
0-0
6
CONTINUOUS
62
  7
100
AcDbVertex
100
AcDb2dVertex
10
3346.797031055470
20
1187.726536965284
30
0.0
0
VERTEX
5
92b
100
AcDbEntity
8
0-0
6
CONTINUOUS
62
  7
100
AcDbVertex
100
AcDb2dVertex
10
3347.604390900964
20
1199.415668240014
30
0.0
0
VERTEX
5
92c
100
AcDbEntity
8
0-0
6
CONTINUOUS
62
  7
100
AcDbVertex
100
AcDb2dVertex
10
3348.566761883569
20
1206.147028853263
30
0.0
0
VERTEX
5
92d
100
AcDbEntity
8
0-0
6
CONTINUOUS
62
  7
100
AcDbVertex
100
AcDb2dVertex
10
3349.339312286299
20
1210.199836547520
30
0.0
0
VERTEX
5
92e
100
AcDbEntity
8
0-0
6
CONTINUOUS
62
  7
100
AcDbVertex
100
AcDb2dVertex
10
3350.936878738204
20
1217.162316991656
30
0.0
0
VERTEX
5
92f
100
AcDbEntity
8
0-0
6
CONTINUOUS
62
  7
100
AcDbVertex
100
AcDb2dVertex
10
3352.738608094148
20
1224.107218580254
30
0.0
0
VERTEX
5
930
100
AcDbEntity
8
0-0
6
CONTINUOUS
62
  7
100
AcDbVertex
100
AcDb2dVertex
10
3354.590990927089
20
1231.051073154418
30
0.0
0
VERTEX
5
931
100
AcDbEntity
8
0-0
6
CONTINUOUS
62
  7
100
AcDbVertex
100
AcDb2dVertex
10
3356.340517809984
20
1238.010412555250
30
0.0
0
VERTEX
5
932
100
AcDbEntity
8
0-0
6
CONTINUOUS
62
  7
100
AcDbVertex
100
AcDb2dVertex
10
3357.833679315793
20
1245.001768623853
30
0.0
0
VERTEX
5
933
100
AcDbEntity
8
0-0
6
CONTINUOUS
62
  7
100
AcDbVertex
100
AcDb2dVertex
10
3358.521755676637
20
1249.077939585866
30
0.0
0
VERTEX
5
934
100
AcDbEntity
8
0-0
6
CONTINUOUS
62
  7
100
AcDbVertex
100
AcDb2dVertex
10
3359.012360528776
20
1252.835462854886
30
0.0
0
VERTEX
5
935
100
AcDbEntity
8
0-0
6
CONTINUOUS
62
  7
100
AcDbVertex
100
AcDb2dVertex
10
3359.565038288406
20
1259.348116382613
30
0.0
0
VERTEX
5
936
100
AcDbEntity
8
0-0
6
CONTINUOUS
62
  7
100
AcDbVertex
100
AcDb2dVertex
10
3359.805257361345
20
1265.897180071482
30
0.0
0
VERTEX
5
937
100
AcDbEntity
8
0-0
6
CONTINUOUS
62
  7
100
AcDbVertex
100
AcDb2dVertex
10
3359.801240168267
20
1272.474704104650
30
0.0
0
VERTEX
5
938
100
AcDbEntity
8
0-0
6
CONTINUOUS
62
  7
100
AcDbVertex
100
AcDb2dVertex
10
3359.621209129849
20
1279.072738665274
30
0.0
0
VERTEX
5
939
100
AcDbEntity
8
0-0
6
CONTINUOUS
62
  7
100
AcDbVertex
100
AcDb2dVertex
10
3359.573047844652
20
1280.178888479868
30
0.0
0
SEQEND
5
93a
100
AcDbEntity
8
0-0
0
ARC
5
93b
100
AcDbEntity
8
0-0
6
CONTINUOUS
62
7
100
AcDbCircle
10
3463.780409106603
20
1513.468474272398
30
0.0
40
574.286000000000
100
AcDbArc
50
316.143986616241
51
345.029000000000
0
ARC
5
93c
100
AcDbEntity
8
0-0
6
CONTINUOUS
62
7
100
AcDbCircle
10
4147.841409106602
20
1513.468474272398
30
0.0
40
574.286000000000
100
AcDbArc
50
199.675000000000
51
223.448827450971
0
LINE
5
93d
100
AcDbEntity
8
0-0
6
CONTINUOUS
62
7
100
AcDbLine
10
3373.447169049226
20
1133.659373400481
30
0.0
11
3373.447169049226
21
1112.039502798073
31
0.0
0
LINE
5
93e
100
AcDbEntity
8
0-0
6
CONTINUOUS
62
7
100
AcDbLine
10
3373.447169049226
20
1086.330226347529
30
0.0
11
3373.447169049226
21
996.564474272398
31
0.0
0
LINE
5
93f
100
AcDbEntity
8
0-0
6
CONTINUOUS
62
7
100
AcDbLine
10
3878.954585719214
20
996.564474272398
30
0.0
11
3372.894719559679
21
996.564474272398
31
0.0
0
LINE
5
940
100
AcDbEntity
8
0-0
6
CONTINUOUS
62
7
100
AcDbLine
10
3878.954585719214
20
1116.539807426653
30
0.0
11
3878.954585719214
21
996.564474272398
31
0.0
0
LINE
5
941
100
AcDbEntity
8
0-0
6
CONTINUOUS
62
7
100
AcDbLine
10
4763.326312318050
20
1116.447064802528
30
0.0
11
4909.101079282873
21
1116.447064802528
31
0.0
0
LINE
5
942
100
AcDbEntity
8
0-0
6
CONTINUOUS
62
7
100
AcDbLine
10
4908.962488930661
20
1036.417291179075
30
0.0
11
4909.026488930660
21
1115.889291179075
31
0.0
0
LINE
5
943
100
AcDbEntity
8
0-0
6
CONTINUOUS
62
7
100
AcDbLine
10
5173.707488930661
20
1744.926291179075
30
0.0
11
5338.707488930661
21
1744.926291179075
31
0.0
0
LINE
5
944
100
AcDbEntity
8
0-0
6
CONTINUOUS
62
7
100
AcDbLine
10
5343.707488930661
20
1739.926291179075
30
0.0
11
5343.707488930661
21
1327.511291179075
31
0.0
0
LINE
5
945
100
AcDbEntity
8
0-0
6
CONTINUOUS
62
7
100
AcDbLine
10
4628.707488930661
20
1369.926291179074
30
0.0
11
5158.783488930661
21
1369.926291179074
31
0.0
0
POLYLINE
5
946
100
AcDbEntity
8
0-0
6
CONTINUOUS
62
  7
100
AcDb2dPolyline
66
1
10
0.0
20
0.0
30
0.0
70
0
0
VERTEX
5
947
100
AcDbEntity
8
0-0
6
CONTINUOUS
62
  7
100
AcDbVertex
100
AcDb2dVertex
10
5168.707488930661
20
1699.926291179075
30
0.0
0
VERTEX
5
948
100
AcDbEntity
8
0-0
6
CONTINUOUS
62
  7
100
AcDbVertex
100
AcDb2dVertex
10
5163.783488930660
20
1374.849291179075
30
0.0
0
VERTEX
5
949
100
AcDbEntity
8
0-0
6
CONTINUOUS
62
  7
100
AcDbVertex
100
AcDb2dVertex
10
5168.534488930660
20
1036.552291179075
30
0.0
0
SEQEND
5
94a
100
AcDbEntity
8
0-0
0
LINE
5
94b
100
AcDbEntity
8
0-0
6
CONTINUOUS
62
7
100
AcDbLine
10
5158.534488930662
20
1026.381291179075
30
0.0
11
4918.961488930660
21
1026.409291179074
31
0.0
0
LINE
5
94c
100
AcDbEntity
8
0-0
6
CONTINUOUS
62
7
100
AcDbLine
10
5343.707488930661
20
1699.926291179075
30
0.0
11
5168.707488930661
21
1699.926291179075
31
0.0
0
LINE
5
94d
100
AcDbEntity
8
0-0
6
CONTINUOUS
62
7
100
AcDbLine
10
4632.319488930661
20
1382.938291179074
30
0.0
11
4628.610488930661
21
1372.926291179075
31
0.0
0
LINE
5
94e
100
AcDbEntity
8
0-0
6
CONTINUOUS
62
7
100
AcDbLine
10
4632.319488930661
20
1397.938291179075
30
0.0
11
4628.610488930661
21
1387.926291179075
31
0.0
0
LINE
5
94f
100
AcDbEntity
8
0-0
6
CONTINUOUS
62
7
100
AcDbLine
10
4635.091488930661
20
1384.926291179074
30
0.0
11
5052.686488930661
21
1384.926291179074
31
0.0
0
LINE
5
950
100
AcDbEntity
8
0-0
6
CONTINUOUS
62
7
100
AcDbLine
10
4628.610488930661
20
1372.926291179075
30
0.0
11
5063.707488930661
21
1372.926291179075
31
0.0
0
LINE
5
951
100
AcDbEntity
8
0-0
6
CONTINUOUS
62
7
100
AcDbLine
10
5063.707488930661
20
1375.284291179074
30
0.0
11
5063.707488930661
21
1369.926291179074
31
0.0
0
LINE
5
952
100
AcDbEntity
8
0-0
6
CONTINUOUS
62
7
100
AcDbLine
10
5168.707488930661
20
1699.926291179075
30
0.0
11
5168.707488930661
21
1739.926291179075
31
0.0
0
POLYLINE
5
953
100
AcDbEntity
8
0-0
6
CONTINUOUS
62
  7
100
AcDb2dPolyline
66
1
10
0.0
20
0.0
30
0.0
70
0
0
VERTEX
5
954
100
AcDbEntity
8
0-0
6
CONTINUOUS
62
  7
100
AcDbVertex
100
AcDb2dVertex
10
5278.707488930661
20
1744.926291179075
30
0.0
0
VERTEX
5
955
100
AcDbEntity
8
0-0
6
CONTINUOUS
62
  7
100
AcDbVertex
100
AcDb2dVertex
10
5228.707488930661
20
1744.926291179075
30
0.0
0
VERTEX
5
956
100
AcDbEntity
8
0-0
6
CONTINUOUS
62
  7
100
AcDbVertex
100
AcDb2dVertex
10
5228.707488930661
20
1747.926291179075
30
0.0
0
VERTEX
5
957
100
AcDbEntity
8
0-0
6
CONTINUOUS
62
  7
100
AcDbVertex
100
AcDb2dVertex
10
5278.707488930661
20
1747.926291179075
30
0.0
0
VERTEX
5
958
100
AcDbEntity
8
0-0
6
CONTINUOUS
62
  7
100
AcDbVertex
100
AcDb2dVertex
10
5278.707488930661
20
1744.926291179075
30
0.0
0
SEQEND
5
959
100
AcDbEntity
8
0-0
0
POLYLINE
5
95a
100
AcDbEntity
8
0-0
6
CONTINUOUS
62
  7
100
AcDb2dPolyline
66
1
10
0.0
20
0.0
30
0.0
70
0
0
VERTEX
5
95b
100
AcDbEntity
8
0-0
6
CONTINUOUS
62
  7
100
AcDbVertex
100
AcDb2dVertex
10
5268.707488930661
20
1747.926291179075
30
0.0
0
VERTEX
5
95c
100
AcDbEntity
8
0-0
6
CONTINUOUS
62
  7
100
AcDbVertex
100
AcDb2dVertex
10
5238.707488930661
20
1747.926291179075
30
0.0
0
VERTEX
5
95d
100
AcDbEntity
8
0-0
6
CONTINUOUS
62
  7
100
AcDbVertex
100
AcDb2dVertex
10
5238.707488930661
20
1749.926291179075
30
0.0
0
VERTEX
5
95e
100
AcDbEntity
8
0-0
6
CONTINUOUS
62
  7
100
AcDbVertex
100
AcDb2dVertex
10
5268.707488930661
20
1749.926291179075
30
0.0
0
VERTEX
5
95f
100
AcDbEntity
8
0-0
6
CONTINUOUS
62
  7
100
AcDbVertex
100
AcDb2dVertex
10
5268.707488930661
20
1747.926291179075
30
0.0
0
SEQEND
5
960
100
AcDbEntity
8
0-0
0
ARC
5
961
100
AcDbEntity
8
0-0
6
CONTINUOUS
62
7
100
AcDbCircle
10
4628.707488930661
20
1364.926291179074
30
0.0
40
5.000000000000
100
AcDbArc
50
90.000000000000
51
180.000000000000
0
ARC
5
962
100
AcDbEntity
8
0-0
6
CONTINUOUS
62
7
100
AcDbCircle
10
4628.707488930661
20
1364.926291179074
30
0.0
40
5.000000000000
100
AcDbArc
50
90.000000000000
51
180.000000000000
0
ARC
5
963
100
AcDbEntity
8
0-0
6
CONTINUOUS
62
7
100
AcDbCircle
10
5173.707488930661
20
1739.926291179075
30
0.0
40
5.000000000000
100
AcDbArc
50
90.000000000000
51
180.000000000000
0
ARC
5
964
100
AcDbEntity
8
0-0
6
CONTINUOUS
62
7
100
AcDbCircle
10
5338.707488930661
20
1739.926291179075
30
0.0
40
5.000000000000
100
AcDbArc
50
360.000000000000
51
450.000000000000
0
ARC
5
965
100
AcDbEntity
8
0-0
6
CONTINUOUS
62
7
100
AcDbCircle
10
5158.535488930661
20
1036.381291179075
30
0.0
40
10.000000000000
100
AcDbArc
50
269.993494269769
51
360.975795539790
0
ARC
5
966
100
AcDbEntity
8
0-0
6
CONTINUOUS
62
7
100
AcDbCircle
10
4918.962488930661
20
1036.409291179074
30
0.0
40
10.000000000000
100
AcDbArc
50
179.953834001906
51
269.993432021228
0
ARC
5
967
100
AcDbEntity
8
0-0
6
CONTINUOUS
62
7
100
AcDbCircle
10
5174.876488930660
20
1195.973291179075
30
0.0
40
88.568000000000
100
AcDbArc
50
96.363835140529
51
158.627739216571
0
ARC
5
968
100
AcDbEntity
8
0-0
6
CONTINUOUS
62
7
100
AcDbCircle
10
4912.876488930660
20
1298.268291179075
30
0.0
40
192.694000000000
100
AcDbArc
50
301.679009948823
51
338.692775715019
0
ARC
5
969
100
AcDbEntity
8
0-0
6
CONTINUOUS
62
7
100
AcDbCircle
10
4968.551488930661
20
1200.671291179075
30
0.0
40
80.493000000000
100
AcDbArc
50
237.112503415203
51
304.438126846344
0
ARC
5
96a
100
AcDbEntity
8
0-0
6
CONTINUOUS
62
7
100
AcDbCircle
10
4961.070488930661
20
1382.226291179075
30
0.0
40
318.376000000000
100
AcDbArc
50
260.584758394433
51
290.769355056328
0
ARC
5
96b
100
AcDbEntity
8
0-0
6
CONTINUOUS
62
7
100
AcDbCircle
10
5031.972488930660
20
1170.672291179075
30
0.0
40
95.825000000000
100
AcDbArc
50
295.992941656659
51
328.404380858485
0
ARC
5
96c
100
AcDbEntity
8
0-0
6
CONTINUOUS
62
7
100
AcDbCircle
10
5327.821488930660
20
1008.543291179075
30
0.0
40
241.704000000000
100
AcDbArc
50
135.623739780977
51
152.414984143078
0
ARC
5
96d
100
AcDbEntity
8
0-0
6
CONTINUOUS
62
7
100
AcDbCircle
10
5159.020488930661
20
1173.740291179075
30
0.0
40
5.518000000000
100
AcDbArc
50
342.229415245966
51
495.858375767492
0
ARC
5
96e
100
AcDbEntity
8
0-0
6
CONTINUOUS
62
7
100
AcDbCircle
10
5061.760488930660
20
1170.302291179075
30
0.0
40
102.530000000000
100
AcDbArc
50
324.204926628750
51
360.979766835644
0
ARC
5
96f
100
AcDbEntity
8
0-0
6
CONTINUOUS
62
7
100
AcDbCircle
10
5173.898488930661
20
1081.003291179075
30
0.0
40
41.229000000000
100
AcDbArc
50
134.649625090261
51
186.621514143683
0
ARC
5
970
100
AcDbEntity
8
0-0
6
CONTINUOUS
62
7
100
AcDbCircle
10
5110.539488930661
20
1072.423291179075
30
0.0
40
22.729000000000
100
AcDbArc
50
292.185213030258
51
369.690878539646
0
ARC
5
971
100
AcDbEntity
8
0-0
6
CONTINUOUS
62
7
100
AcDbCircle
10
5086.397488930661
20
1196.763291179075
30
0.0
40
149.024000000000
100
AcDbArc
50
263.792278949202
51
282.685162559788
0
ARC
5
972
100
AcDbEntity
8
0-0
6
CONTINUOUS
62
7
100
AcDbCircle
10
4932.460488930661
20
-2182.611708820925
30
0.0
40
3234.162000000001
100
AcDbArc
50
87.557633804434
51
90.416086606748
0
ARC
5
973
100
AcDbEntity
8
0-0
6
CONTINUOUS
62
7
100
AcDbCircle
10
4635.434488930660
20
1396.521291179075
30
0.0
40
3.423000000000
100
AcDbArc
50
95.757000000000
51
155.546000000000
0
ARC
5
974
100
AcDbEntity
8
0-0
6
CONTINUOUS
62
7
100
AcDbCircle
10
4635.434488930660
20
1381.521291179075
30
0.0
40
3.423000000000
100
AcDbArc
50
95.757000000000
51
155.546000000000
0
ARC
5
975
100
AcDbEntity
8
0-0
6
CONTINUOUS
62
7
100
AcDbCircle
10
4834.823488930661
20
232.362291179075
30
0.0
40
1184.525000000000
100
AcDbArc
50
84.517245068834
51
99.707450173714
0
ARC
5
976
100
AcDbEntity
8
0-0
6
CONTINUOUS
62
7
100
AcDbCircle
10
5048.416488930661
20
1368.926291179075
30
0.0
40
16.560000000000
100
AcDbArc
50
22.576876505558
51
99.842601307414
0
ARC
5
977
100
AcDbEntity
8
0-0
6
CONTINUOUS
62
7
100
AcDbCircle
10
4765.623488930660
20
-9718.729708820929
30
0.0
40
11107.501000000000
100
AcDbArc
50
88.555719702944
51
90.706769283458
0
ARC
5
978
100
AcDbEntity
8
0-0
6
CONTINUOUS
62
7
100
AcDbCircle
10
5158.783488930661
20
1374.926291179074
30
0.0
40
5.000000000000
100
AcDbArc
50
270.000000000000
51
359.119000000000
0
ARC
5
979
100
AcDbEntity
8
0-0
6
CONTINUOUS
62
7
100
AcDbCircle
10
5159.624488930660
20
1314.938291179074
30
0.0
40
5.000000000000
100
AcDbArc
50
0.881000000000
51
90.000000000000
0
LINE
5
97a
100
AcDbEntity
8
0-0
6
CONTINUOUS
62
7
100
AcDbLine
10
4640.290042175511
20
1319.926291179074
30
0.0
11
5159.967488930661
21
1319.926291179074
31
0.0
0
ARC
5
97b
100
AcDbEntity
8
0-0
6
CONTINUOUS
62
7
100
AcDbCircle
10
4971.425488930660
20
1689.211291179075
30
0.0
40
278.730000000000
100
AcDbArc
50
265.178952762223
51
287.169940974044
0
LINE
5
97c
100
AcDbEntity
8
0-0
6
CONTINUOUS
62
7
100
AcDbLine
10
5125.437718052999
20
1379.926291179074
30
0.0
11
5125.437718052999
21
1369.926291179074
31
0.0
0
LINE
5
97d
100
AcDbEntity
8
0-0
6
CONTINUOUS
62
7
100
AcDbLine
10
5100.437718052999
20
1379.926291179074
30
0.0
11
5125.437718052999
21
1379.926291179074
31
0.0
0
LINE
5
97e
100
AcDbEntity
8
0-0
6
CONTINUOUS
62
7
100
AcDbLine
10
5075.437718052999
20
1369.926291179074
30
0.0
11
5125.437718052999
21
1369.926291179074
31
0.0
0
ARC
5
97f
100
AcDbEntity
8
0-0
6
CONTINUOUS
62
7
100
AcDbCircle
10
5200.747718052999
20
1437.269291179075
30
0.0
40
115.543000000000
100
AcDbArc
50
183.643659572344
51
209.754828896119
0
ARC
5
980
100
AcDbEntity
8
0-0
6
CONTINUOUS
62
7
100
AcDbCircle
10
5075.186718052999
20
1446.273291179075
30
0.0
40
70.989000000000
100
AcDbArc
50
274.618333472565
51
290.836294195941
0
ARC
5
981
100
AcDbEntity
8
0-0
6
CONTINUOUS
62
7
100
AcDbCircle
10
5075.186718052999
20
1446.273291179075
30
0.0
40
70.989000000000
100
AcDbArc
50
270.202491216507
51
270.436749175054
0
POLYLINE
5
982
100
AcDbEntity
8
0-0
6
CONTINUOUS
62
  7
100
AcDb2dPolyline
66
1
10
0.0
20
0.0
30
0.0
70
0
0
VERTEX
5
983
100
AcDbEntity
8
0-0
6
CONTINUOUS
62
  7
100
AcDbVertex
100
AcDb2dVertex
10
5085.293433225871
20
1429.811447425145
30
0.0
0
VERTEX
5
984
100
AcDbEntity
8
0-0
6
CONTINUOUS
62
  7
100
AcDbVertex
100
AcDb2dVertex
10
5084.129401022462
20
1429.547236968112
30
0.0
0
VERTEX
5
985
100
AcDbEntity
8
0-0
6
CONTINUOUS
62
  7
100
AcDbVertex
100
AcDb2dVertex
10
5082.122268478937
20
1429.092527825902
30
0.0
0
VERTEX
5
986
100
AcDbEntity
8
0-0
6
CONTINUOUS
62
  7
100
AcDbVertex
100
AcDb2dVertex
10
5080.114634633521
20
1428.640113485185
30
0.0
0
VERTEX
5
987
100
AcDbEntity
8
0-0
6
CONTINUOUS
62
  7
100
AcDbVertex
100
AcDb2dVertex
10
5078.106182206535
20
1428.191446351970
30
0.0
0
VERTEX
5
988
100
AcDbEntity
8
0-0
6
CONTINUOUS
62
  7
100
AcDbVertex
100
AcDb2dVertex
10
5076.096593918301
20
1427.747978832267
30
0.0
0
VERTEX
5
989
100
AcDbEntity
8
0-0
6
CONTINUOUS
62
  7
100
AcDbVertex
100
AcDb2dVertex
10
5074.085552489141
20
1427.311163332081
30
0.0
0
VERTEX
5
98a
100
AcDbEntity
8
0-0
6
CONTINUOUS
62
  7
100
AcDbVertex
100
AcDb2dVertex
10
5072.918357606364
20
1427.061430620810
30
0.0
0
VERTEX
5
98b
100
AcDbEntity
8
0-0
6
CONTINUOUS
62
  7
100
AcDbVertex
100
AcDb2dVertex
10
5071.897069663241
20
1426.845354375772
30
0.0
0
VERTEX
5
98c
100
AcDbEntity
8
0-0
6
CONTINUOUS
62
  7
100
AcDbVertex
100
AcDb2dVertex
10
5070.135418447977
20
1426.476529722407
30
0.0
0
VERTEX
5
98d
100
AcDbEntity
8
0-0
6
CONTINUOUS
62
  7
100
AcDbVertex
100
AcDb2dVertex
10
5068.373302940578
20
1426.109866493121
30
0.0
0
VERTEX
5
98e
100
AcDbEntity
8
0-0
6
CONTINUOUS
62
  7
100
AcDbVertex
100
AcDb2dVertex
10
5066.611375397783
20
1425.742401673961
30
0.0
0
VERTEX
5
98f
100
AcDbEntity
8
0-0
6
CONTINUOUS
62
  7
100
AcDbVertex
100
AcDb2dVertex
10
5064.850288076339
20
1425.371172250975
30
0.0
0
VERTEX
5
990
100
AcDbEntity
8
0-0
6
CONTINUOUS
62
  7
100
AcDbVertex
100
AcDb2dVertex
10
5063.090693232985
20
1424.993215210213
30
0.0
0
VERTEX
5
991
100
AcDbEntity
8
0-0
6
CONTINUOUS
62
  7
100
AcDbVertex
100
AcDb2dVertex
10
5062.071069100376
20
1424.769749950531
30
0.0
0
VERTEX
5
992
100
AcDbEntity
8
0-0
6
CONTINUOUS
62
  7
100
AcDbVertex
100
AcDb2dVertex
10
5061.263880774841
20
1424.590105950464
30
0.0
0
VERTEX
5
993
100
AcDbEntity
8
0-0
6
CONTINUOUS
62
  7
100
AcDbVertex
100
AcDb2dVertex
10
5059.873281506796
20
1424.275379285313
30
0.0
0
VERTEX
5
994
100
AcDbEntity
8
0-0
6
CONTINUOUS
62
  7
100
AcDbVertex
100
AcDb2dVertex
10
5058.483859574023
20
1423.955328721258
30
0.0
0
VERTEX
5
995
100
AcDbEntity
8
0-0
6
CONTINUOUS
62
  7
100
AcDbVertex
100
AcDb2dVertex
10
5057.095357916419
20
1423.631116681640
30
0.0
0
VERTEX
5
996
100
AcDbEntity
8
0-0
6
CONTINUOUS
62
  7
100
AcDbVertex
100
AcDb2dVertex
10
5055.707519473881
20
1423.303905589801
30
0.0
0
VERTEX
5
997
100
AcDbEntity
8
0-0
6
CONTINUOUS
62
  7
100
AcDbVertex
100
AcDb2dVertex
10
5054.320087186306
20
1422.974857869083
30
0.0
0
VERTEX
5
998
100
AcDbEntity
8
0-0
6
CONTINUOUS
62
  7
100
AcDbVertex
100
AcDb2dVertex
10
5053.515461264668
20
1422.783626702956
30
0.0
0
SEQEND
5
999
100
AcDbEntity
8
0-0
0
POLYLINE
5
99a
100
AcDbEntity
8
0-0
6
CONTINUOUS
62
  7
100
AcDb2dPolyline
66
1
10
0.0
20
0.0
30
0.0
70
0
0
VERTEX
5
99b
100
AcDbEntity
8
0-0
6
CONTINUOUS
62
  7
100
AcDbVertex
100
AcDb2dVertex
10
5080.922694792356
20
1375.570780599040
30
0.0
0
VERTEX
5
99c
100
AcDbEntity
8
0-0
6
CONTINUOUS
62
  7
100
AcDbVertex
100
AcDb2dVertex
10
5080.420645326537
20
1375.537982305481
30
0.0
0
VERTEX
5
99d
100
AcDbEntity
8
0-0
6
CONTINUOUS
62
  7
100
AcDbVertex
100
AcDb2dVertex
10
5079.554435977575
20
1375.482167480885
30
0.0
0
VERTEX
5
99e
100
AcDbEntity
8
0-0
6
CONTINUOUS
62
  7
100
AcDbVertex
100
AcDb2dVertex
10
5078.686541012816
20
1375.428391426858
30
0.0
0
VERTEX
5
99f
100
AcDbEntity
8
0-0
6
CONTINUOUS
62
  7
100
AcDbVertex
100
AcDb2dVertex
10
5077.815893586819
20
1375.377944504514
30
0.0
0
VERTEX
5
9a0
100
AcDbEntity
8
0-0
6
CONTINUOUS
62
  7
100
AcDbVertex
100
AcDb2dVertex
10
5076.941426854141
20
1375.332117074975
30
0.0
0
VERTEX
5
9a1
100
AcDbEntity
8
0-0
6
CONTINUOUS
62
  7
100
AcDbVertex
100
AcDb2dVertex
10
5076.062073969342
20
1375.292199499359
30
0.0
0
VERTEX
5
9a2
100
AcDbEntity
8
0-0
6
CONTINUOUS
62
  7
100
AcDbVertex
100
AcDb2dVertex
10
5075.549390068678
20
1375.272263669947
30
0.0
0
VERTEX
5
9a3
100
AcDbEntity
8
0-0
6
CONTINUOUS
62
  7
100
AcDbVertex
100
AcDb2dVertex
10
5074.700239077729
20
1375.245979497364
30
0.0
0
VERTEX
5
9a4
100
AcDbEntity
8
0-0
6
CONTINUOUS
62
  7
100
AcDbVertex
100
AcDb2dVertex
10
5073.229733779437
20
1375.231752061620
30
0.0
0
VERTEX
5
9a5
100
AcDbEntity
8
0-0
6
CONTINUOUS
62
  7
100
AcDbVertex
100
AcDb2dVertex
10
5071.762621346989
20
1375.278105645192
30
0.0
0
VERTEX
5
9a6
100
AcDbEntity
8
0-0
6
CONTINUOUS
62
  7
100
AcDbVertex
100
AcDb2dVertex
10
5070.312343390099
20
1375.409722176346
30
0.0
0
VERTEX
5
9a7
100
AcDbEntity
8
0-0
6
CONTINUOUS
62
  7
100
AcDbVertex
100
AcDb2dVertex
10
5068.892341518481
20
1375.651283583351
30
0.0
0
VERTEX
5
9a8
100
AcDbEntity
8
0-0
6
CONTINUOUS
62
  7
100
AcDbVertex
100
AcDb2dVertex
10
5067.516057341845
20
1376.027471794476
30
0.0
0
VERTEX
5
9a9
100
AcDbEntity
8
0-0
6
CONTINUOUS
62
  7
100
AcDbVertex
100
AcDb2dVertex
10
5066.743140660428
20
1376.317072921773
30
0.0
0
VERTEX
5
9aa
100
AcDbEntity
8
0-0
6
CONTINUOUS
62
  7
100
AcDbVertex
100
AcDb2dVertex
10
5066.334704786804
20
1376.496964901607
30
0.0
0
VERTEX
5
9ab
100
AcDbEntity
8
0-0
6
CONTINUOUS
62
  7
100
AcDbVertex
100
AcDb2dVertex
10
5065.644100857704
20
1376.842414265052
30
0.0
0
VERTEX
5
9ac
100
AcDbEntity
8
0-0
6
CONTINUOUS
62
  7
100
AcDbVertex
100
AcDb2dVertex
10
5064.968657845943
20
1377.225470058801
30
0.0
0
VERTEX
5
9ad
100
AcDbEntity
8
0-0
6
CONTINUOUS
62
  7
100
AcDbVertex
100
AcDb2dVertex
10
5064.305993166428
20
1377.637916654972
30
0.0
0
VERTEX
5
9ae
100
AcDbEntity
8
0-0
6
CONTINUOUS
62
  7
100
AcDbVertex
100
AcDb2dVertex
10
5063.653724234062
20
1378.071538425680
30
0.0
0
VERTEX
5
9af
100
AcDbEntity
8
0-0
6
CONTINUOUS
62
  7
100
AcDbVertex
100
AcDb2dVertex
10
5063.009468463749
20
1378.518119743043
30
0.0
0
VERTEX
5
9b0
100
AcDbEntity
8
0-0
6
CONTINUOUS
62
  7
100
AcDbVertex
100
AcDb2dVertex
10
5062.638532885398
20
1378.779837586792
30
0.0
0
VERTEX
5
9b1
100
AcDbEntity
8
0-0
6
CONTINUOUS
62
  7
100
AcDbVertex
100
AcDb2dVertex
10
5062.390631560997
20
1378.955516820988
30
0.0
0
VERTEX
5
9b2
100
AcDbEntity
8
0-0
6
CONTINUOUS
62
  7
100
AcDbVertex
100
AcDb2dVertex
10
5061.964548411849
20
1379.258405418464
30
0.0
0
VERTEX
5
9b3
100
AcDbEntity
8
0-0
6
CONTINUOUS
62
  7
100
AcDbVertex
100
AcDb2dVertex
10
5061.539885778226
20
1379.561286946124
30
0.0
0
VERTEX
5
9b4
100
AcDbEntity
8
0-0
6
CONTINUOUS
62
  7
100
AcDbVertex
100
AcDb2dVertex
10
5061.116333503896
20
1379.864162947595
30
0.0
0
VERTEX
5
9b5
100
AcDbEntity
8
0-0
6
CONTINUOUS
62
  7
100
AcDbVertex
100
AcDb2dVertex
10
5060.693581432636
20
1380.167034966507
30
0.0
0
VERTEX
5
9b6
100
AcDbEntity
8
0-0
6
CONTINUOUS
62
  7
100
AcDbVertex
100
AcDb2dVertex
10
5060.271319408215
20
1380.469904546486
30
0.0
0
VERTEX
5
9b7
100
AcDbEntity
8
0-0
6
CONTINUOUS
62
  7
100
AcDbVertex
100
AcDb2dVertex
10
5060.026509755832
20
1380.645568393625
30
0.0
0
SEQEND
5
9b8
100
AcDbEntity
8
0-0
0
LINE
5
9b9
100
AcDbEntity
8
0-0
6
CONTINUOUS
62
7
100
AcDbLine
10
5257.670045984302
20
996.380291179075
30
0.0
11
5268.833728988038
21
996.380291179075
31
0.0
0
ARC
5
9ba
100
AcDbEntity
8
0-0
6
CONTINUOUS
62
7
100
AcDbCircle
10
5311.653728988037
20
1248.720291179075
30
0.0
40
42.836000000000
100
AcDbArc
50
81.606133128030
51
181.579498885110
0
ARC
5
9bb
100
AcDbEntity
8
0-0
6
CONTINUOUS
62
7
100
AcDbCircle
10
5298.922488930661
20
1331.564291179075
30
0.0
40
44.968000000000
100
AcDbArc
50
295.564990443154
51
354.828646939899
0
ARC
5
9bc
100
AcDbEntity
8
0-0
6
CONTINUOUS
62
7
100
AcDbCircle
10
5178.500488930660
20
1513.284291179074
30
0.0
40
574.286000000000
100
AcDbArc
50
194.971000000000
51
223.856013383759
0
ARC
5
9bd
100
AcDbEntity
8
0-0
6
CONTINUOUS
62
7
100
AcDbCircle
10
4494.439488930660
20
1513.284291179074
30
0.0
40
574.286000000000
100
AcDbArc
50
316.551172549030
51
340.325000000000
0
LINE
5
9be
100
AcDbEntity
8
0-0
6
CONTINUOUS
62
7
100
AcDbLine
10
5268.833728988038
20
1252.260597652416
30
0.0
11
5268.833728988038
21
996.380291179075
31
0.0
0
POLYLINE
5
9bf
100
AcDbEntity
8
0-0
6
CONTINUOUS
62
  7
100
AcDb2dPolyline
66
1
10
0.0
20
0.0
30
0.0
70
0
0
VERTEX
5
9c0
100
AcDbEntity
8
0-0
6
CONTINUOUS
62
  7
100
AcDbVertex
100
AcDb2dVertex
10
4763.326312318050
20
1116.355624333330
30
0.0
0
VERTEX
5
9c1
100
AcDbEntity
8
0-0
6
CONTINUOUS
62
  7
100
AcDbVertex
100
AcDb2dVertex
10
4763.326312318050
20
996.380291179075
30
0.0
0
VERTEX
5
9c2
100
AcDbEntity
8
0-0
6
CONTINUOUS
62
  7
100
AcDbVertex
100
AcDb2dVertex
10
5269.386178477584
20
996.380291179075
30
0.0
0
SEQEND
5
9c3
100
AcDbEntity
8
0-0
0
LINE
5
9c4
100
AcDbEntity
8
0-0
6
CONTINUOUS
62
7
100
AcDbLine
10
4763.326312318050
20
2622.437101805806
30
0.0
11
4909.101079282873
21
2622.437101805806
31
0.0
0
LINE
5
9c5
100
AcDbEntity
8
0-0
6
CONTINUOUS
62
7
100
AcDbLine
10
4908.962488930661
20
2542.407328182353
30
0.0
11
4909.026488930660
21
2621.879328182353
31
0.0
0
LINE
5
9c6
100
AcDbEntity
8
0-0
6
CONTINUOUS
62
7
100
AcDbLine
10
5173.707488930661
20
3250.916328182353
30
0.0
11
5338.707488930661
21
3250.916328182353
31
0.0
0
LINE
5
9c7
100
AcDbEntity
8
0-0
6
CONTINUOUS
62
7
100
AcDbLine
10
5343.707488930661
20
3245.916328182354
30
0.0
11
5343.707488930661
21
2833.501328182353
31
0.0
0
LINE
5
9c8
100
AcDbEntity
8
0-0
6
CONTINUOUS
62
7
100
AcDbLine
10
4628.707488930661
20
2875.916328182353
30
0.0
11
5158.783488930661
21
2875.916328182353
31
0.0
0
POLYLINE
5
9c9
100
AcDbEntity
8
0-0
6
CONTINUOUS
62
  7
100
AcDb2dPolyline
66
1
10
0.0
20
0.0
30
0.0
70
0
0
VERTEX
5
9ca
100
AcDbEntity
8
0-0
6
CONTINUOUS
62
  7
100
AcDbVertex
100
AcDb2dVertex
10
5168.707488930661
20
3205.916328182353
30
0.0
0
VERTEX
5
9cb
100
AcDbEntity
8
0-0
6
CONTINUOUS
62
  7
100
AcDbVertex
100
AcDb2dVertex
10
5163.783488930660
20
2880.839328182353
30
0.0
0
VERTEX
5
9cc
100
AcDbEntity
8
0-0
6
CONTINUOUS
62
  7
100
AcDbVertex
100
AcDb2dVertex
10
5168.534488930660
20
2542.542328182353
30
0.0
0
SEQEND
5
9cd
100
AcDbEntity
8
0-0
0
LINE
5
9ce
100
AcDbEntity
8
0-0
6
CONTINUOUS
62
7
100
AcDbLine
10
5158.534488930662
20
2532.371328182353
30
0.0
11
4918.961488930660
21
2532.399328182353
31
0.0
0
LINE
5
9cf
100
AcDbEntity
8
0-0
6
CONTINUOUS
62
7
100
AcDbLine
10
5343.707488930661
20
3205.916328182353
30
0.0
11
5168.707488930661
21
3205.916328182353
31
0.0
0
LINE
5
9d0
100
AcDbEntity
8
0-0
6
CONTINUOUS
62
7
100
AcDbLine
10
4632.319488930661
20
2888.928328182353
30
0.0
11
4628.610488930661
21
2878.916328182353
31
0.0
0
LINE
5
9d1
100
AcDbEntity
8
0-0
6
CONTINUOUS
62
7
100
AcDbLine
10
4632.319488930661
20
2903.928328182353
30
0.0
11
4628.610488930661
21
2893.916328182353
31
0.0
0
LINE
5
9d2
100
AcDbEntity
8
0-0
6
CONTINUOUS
62
7
100
AcDbLine
10
4635.091488930661
20
2890.916328182353
30
0.0
11
5052.686488930661
21
2890.916328182353
31
0.0
0
LINE
5
9d3
100
AcDbEntity
8
0-0
6
CONTINUOUS
62
7
100
AcDbLine
10
4628.610488930661
20
2878.916328182353
30
0.0
11
5063.707488930661
21
2878.916328182353
31
0.0
0
LINE
5
9d4
100
AcDbEntity
8
0-0
6
CONTINUOUS
62
7
100
AcDbLine
10
5063.707488930661
20
2881.274328182353
30
0.0
11
5063.707488930661
21
2875.916328182353
31
0.0
0
LINE
5
9d5
100
AcDbEntity
8
0-0
6
CONTINUOUS
62
7
100
AcDbLine
10
5168.707488930661
20
3205.916328182353
30
0.0
11
5168.707488930661
21
3245.916328182354
31
0.0
0
POLYLINE
5
9d6
100
AcDbEntity
8
0-0
6
CONTINUOUS
62
  7
100
AcDb2dPolyline
66
1
10
0.0
20
0.0
30
0.0
70
0
0
VERTEX
5
9d7
100
AcDbEntity
8
0-0
6
CONTINUOUS
62
  7
100
AcDbVertex
100
AcDb2dVertex
10
5278.707488930661
20
3250.916328182353
30
0.0
0
VERTEX
5
9d8
100
AcDbEntity
8
0-0
6
CONTINUOUS
62
  7
100
AcDbVertex
100
AcDb2dVertex
10
5228.707488930661
20
3250.916328182353
30
0.0
0
VERTEX
5
9d9
100
AcDbEntity
8
0-0
6
CONTINUOUS
62
  7
100
AcDbVertex
100
AcDb2dVertex
10
5228.707488930661
20
3253.916328182353
30
0.0
0
VERTEX
5
9da
100
AcDbEntity
8
0-0
6
CONTINUOUS
62
  7
100
AcDbVertex
100
AcDb2dVertex
10
5278.707488930661
20
3253.916328182353
30
0.0
0
VERTEX
5
9db
100
AcDbEntity
8
0-0
6
CONTINUOUS
62
  7
100
AcDbVertex
100
AcDb2dVertex
10
5278.707488930661
20
3250.916328182353
30
0.0
0
SEQEND
5
9dc
100
AcDbEntity
8
0-0
0
POLYLINE
5
9dd
100
AcDbEntity
8
0-0
6
CONTINUOUS
62
  7
100
AcDb2dPolyline
66
1
10
0.0
20
0.0
30
0.0
70
0
0
VERTEX
5
9de
100
AcDbEntity
8
0-0
6
CONTINUOUS
62
  7
100
AcDbVertex
100
AcDb2dVertex
10
5268.707488930661
20
3253.916328182353
30
0.0
0
VERTEX
5
9df
100
AcDbEntity
8
0-0
6
CONTINUOUS
62
  7
100
AcDbVertex
100
AcDb2dVertex
10
5238.707488930661
20
3253.916328182353
30
0.0
0
VERTEX
5
9e0
100
AcDbEntity
8
0-0
6
CONTINUOUS
62
  7
100
AcDbVertex
100
AcDb2dVertex
10
5238.707488930661
20
3255.916328182353
30
0.0
0
VERTEX
5
9e1
100
AcDbEntity
8
0-0
6
CONTINUOUS
62
  7
100
AcDbVertex
100
AcDb2dVertex
10
5268.707488930661
20
3255.916328182353
30
0.0
0
VERTEX
5
9e2
100
AcDbEntity
8
0-0
6
CONTINUOUS
62
  7
100
AcDbVertex
100
AcDb2dVertex
10
5268.707488930661
20
3253.916328182353
30
0.0
0
SEQEND
5
9e3
100
AcDbEntity
8
0-0
0
ARC
5
9e4
100
AcDbEntity
8
0-0
6
CONTINUOUS
62
7
100
AcDbCircle
10
4628.707488930661
20
2870.916328182353
30
0.0
40
5.000000000000
100
AcDbArc
50
90.000000000000
51
180.000000000000
0
ARC
5
9e5
100
AcDbEntity
8
0-0
6
CONTINUOUS
62
7
100
AcDbCircle
10
4628.707488930661
20
2870.916328182353
30
0.0
40
5.000000000000
100
AcDbArc
50
90.000000000000
51
180.000000000000
0
ARC
5
9e6
100
AcDbEntity
8
0-0
6
CONTINUOUS
62
7
100
AcDbCircle
10
5173.707488930661
20
3245.916328182354
30
0.0
40
5.000000000000
100
AcDbArc
50
90.000000000000
51
180.000000000000
0
ARC
5
9e7
100
AcDbEntity
8
0-0
6
CONTINUOUS
62
7
100
AcDbCircle
10
5338.707488930661
20
3245.916328182354
30
0.0
40
5.000000000000
100
AcDbArc
50
360.000000000000
51
450.000000000000
0
ARC
5
9e8
100
AcDbEntity
8
0-0
6
CONTINUOUS
62
7
100
AcDbCircle
10
5158.535488930661
20
2542.371328182353
30
0.0
40
10.000000000000
100
AcDbArc
50
269.993494269769
51
360.975795539790
0
ARC
5
9e9
100
AcDbEntity
8
0-0
6
CONTINUOUS
62
7
100
AcDbCircle
10
4918.962488930661
20
2542.399328182353
30
0.0
40
10.000000000000
100
AcDbArc
50
179.953834001906
51
269.993432021228
0
ARC
5
9ea
100
AcDbEntity
8
0-0
6
CONTINUOUS
62
7
100
AcDbCircle
10
5174.876488930660
20
2701.963328182353
30
0.0
40
88.568000000000
100
AcDbArc
50
96.363835140529
51
158.627739216571
0
ARC
5
9eb
100
AcDbEntity
8
0-0
6
CONTINUOUS
62
7
100
AcDbCircle
10
4912.876488930660
20
2804.258328182354
30
0.0
40
192.694000000000
100
AcDbArc
50
301.679009948823
51
338.692775715019
0
ARC
5
9ec
100
AcDbEntity
8
0-0
6
CONTINUOUS
62
7
100
AcDbCircle
10
4968.551488930661
20
2706.661328182353
30
0.0
40
80.493000000000
100
AcDbArc
50
237.112503415203
51
304.438126846344
0
ARC
5
9ed
100
AcDbEntity
8
0-0
6
CONTINUOUS
62
7
100
AcDbCircle
10
4961.070488930661
20
2888.216328182353
30
0.0
40
318.376000000000
100
AcDbArc
50
260.584758394433
51
290.769355056328
0
ARC
5
9ee
100
AcDbEntity
8
0-0
6
CONTINUOUS
62
7
100
AcDbCircle
10
5031.972488930660
20
2676.662328182353
30
0.0
40
95.825000000000
100
AcDbArc
50
295.992941656659
51
328.404380858485
0
ARC
5
9ef
100
AcDbEntity
8
0-0
6
CONTINUOUS
62
7
100
AcDbCircle
10
5327.821488930660
20
2514.533328182353
30
0.0
40
241.704000000000
100
AcDbArc
50
135.623739780977
51
152.414984143078
0
ARC
5
9f0
100
AcDbEntity
8
0-0
6
CONTINUOUS
62
7
100
AcDbCircle
10
5159.020488930661
20
2679.730328182353
30
0.0
40
5.518000000000
100
AcDbArc
50
342.229415245966
51
495.858375767492
0
ARC
5
9f1
100
AcDbEntity
8
0-0
6
CONTINUOUS
62
7
100
AcDbCircle
10
5061.760488930660
20
2676.292328182353
30
0.0
40
102.530000000000
100
AcDbArc
50
324.204926628750
51
360.979766835644
0
ARC
5
9f2
100
AcDbEntity
8
0-0
6
CONTINUOUS
62
7
100
AcDbCircle
10
5173.898488930661
20
2586.993328182353
30
0.0
40
41.229000000000
100
AcDbArc
50
134.649625090261
51
186.621514143683
0
ARC
5
9f3
100
AcDbEntity
8
0-0
6
CONTINUOUS
62
7
100
AcDbCircle
10
5110.539488930661
20
2578.413328182353
30
0.0
40
22.729000000000
100
AcDbArc
50
292.185213030258
51
369.690878539646
0
ARC
5
9f4
100
AcDbEntity
8
0-0
6
CONTINUOUS
62
7
100
AcDbCircle
10
5086.397488930661
20
2702.753328182354
30
0.0
40
149.024000000000
100
AcDbArc
50
263.792278949202
51
282.685162559788
0
ARC
5
9f5
100
AcDbEntity
8
0-0
6
CONTINUOUS
62
7
100
AcDbCircle
10
4932.460488930661
20
-676.621671817647
30
0.0
40
3234.162000000001
100
AcDbArc
50
87.557633804434
51
90.416086606748
0
ARC
5
9f6
100
AcDbEntity
8
0-0
6
CONTINUOUS
62
7
100
AcDbCircle
10
4635.434488930660
20
2902.511328182353
30
0.0
40
3.423000000000
100
AcDbArc
50
95.757000000000
51
155.546000000000
0
ARC
5
9f7
100
AcDbEntity
8
0-0
6
CONTINUOUS
62
7
100
AcDbCircle
10
4635.434488930660
20
2887.511328182353
30
0.0
40
3.423000000000
100
AcDbArc
50
95.757000000000
51
155.546000000000
0
ARC
5
9f8
100
AcDbEntity
8
0-0
6
CONTINUOUS
62
7
100
AcDbCircle
10
4834.823488930661
20
1738.352328182354
30
0.0
40
1184.525000000000
100
AcDbArc
50
84.517245068834
51
99.707450173714
0
ARC
5
9f9
100
AcDbEntity
8
0-0
6
CONTINUOUS
62
7
100
AcDbCircle
10
5048.416488930661
20
2874.916328182353
30
0.0
40
16.560000000000
100
AcDbArc
50
22.576876505558
51
99.842601307414
0
ARC
5
9fa
100
AcDbEntity
8
0-0
6
CONTINUOUS
62
7
100
AcDbCircle
10
4765.623488930660
20
-8212.739671817652
30
0.0
40
11107.501000000000
100
AcDbArc
50
88.555719702944
51
90.706769283458
0
ARC
5
9fb
100
AcDbEntity
8
0-0
6
CONTINUOUS
62
7
100
AcDbCircle
10
5158.783488930661
20
2880.916328182353
30
0.0
40
5.000000000000
100
AcDbArc
50
270.000000000000
51
359.119000000000
0
ARC
5
9fc
100
AcDbEntity
8
0-0
6
CONTINUOUS
62
7
100
AcDbCircle
10
5159.624488930660
20
2820.928328182353
30
0.0
40
5.000000000000
100
AcDbArc
50
0.881000000000
51
90.000000000000
0
LINE
5
9fd
100
AcDbEntity
8
0-0
6
CONTINUOUS
62
7
100
AcDbLine
10
4640.290042175511
20
2825.916328182353
30
0.0
11
5159.967488930661
21
2825.916328182353
31
0.0
0
ARC
5
9fe
100
AcDbEntity
8
0-0
6
CONTINUOUS
62
7
100
AcDbCircle
10
4971.425488930660
20
3195.201328182353
30
0.0
40
278.730000000000
100
AcDbArc
50
265.178952762223
51
287.169940974044
0
LINE
5
9ff
100
AcDbEntity
8
0-0
6
CONTINUOUS
62
7
100
AcDbLine
10
5125.437718052999
20
2885.916328182353
30
0.0
11
5125.437718052999
21
2875.916328182353
31
0.0
0
LINE
5
a00
100
AcDbEntity
8
0-0
6
CONTINUOUS
62
7
100
AcDbLine
10
5100.437718052999
20
2885.916328182353
30
0.0
11
5125.437718052999
21
2885.916328182353
31
0.0
0
LINE
5
a01
100
AcDbEntity
8
0-0
6
CONTINUOUS
62
7
100
AcDbLine
10
5075.437718052999
20
2875.916328182353
30
0.0
11
5125.437718052999
21
2875.916328182353
31
0.0
0
ARC
5
a02
100
AcDbEntity
8
0-0
6
CONTINUOUS
62
7
100
AcDbCircle
10
5200.747718052999
20
2943.259328182353
30
0.0
40
115.543000000000
100
AcDbArc
50
183.643659572344
51
209.754828896119
0
ARC
5
a03
100
AcDbEntity
8
0-0
6
CONTINUOUS
62
7
100
AcDbCircle
10
5075.186718052999
20
2952.263328182353
30
0.0
40
70.989000000000
100
AcDbArc
50
274.618333472565
51
290.836294195941
0
ARC
5
a04
100
AcDbEntity
8
0-0
6
CONTINUOUS
62
7
100
AcDbCircle
10
5075.186718052999
20
2952.263328182353
30
0.0
40
70.989000000000
100
AcDbArc
50
270.202491216507
51
270.436749175054
0
POLYLINE
5
a05
100
AcDbEntity
8
0-0
6
CONTINUOUS
62
  7
100
AcDb2dPolyline
66
1
10
0.0
20
0.0
30
0.0
70
0
0
VERTEX
5
a06
100
AcDbEntity
8
0-0
6
CONTINUOUS
62
  7
100
AcDbVertex
100
AcDb2dVertex
10
5085.293433225871
20
2935.801484428424
30
0.0
0
VERTEX
5
a07
100
AcDbEntity
8
0-0
6
CONTINUOUS
62
  7
100
AcDbVertex
100
AcDb2dVertex
10
5084.129401022462
20
2935.537273971390
30
0.0
0
VERTEX
5
a08
100
AcDbEntity
8
0-0
6
CONTINUOUS
62
  7
100
AcDbVertex
100
AcDb2dVertex
10
5082.122268478937
20
2935.082564829180
30
0.0
0
VERTEX
5
a09
100
AcDbEntity
8
0-0
6
CONTINUOUS
62
  7
100
AcDbVertex
100
AcDb2dVertex
10
5080.114634633521
20
2934.630150488463
30
0.0
0
VERTEX
5
a0a
100
AcDbEntity
8
0-0
6
CONTINUOUS
62
  7
100
AcDbVertex
100
AcDb2dVertex
10
5078.106182206535
20
2934.181483355249
30
0.0
0
VERTEX
5
a0b
100
AcDbEntity
8
0-0
6
CONTINUOUS
62
  7
100
AcDbVertex
100
AcDb2dVertex
10
5076.096593918301
20
2933.738015835545
30
0.0
0
VERTEX
5
a0c
100
AcDbEntity
8
0-0
6
CONTINUOUS
62
  7
100
AcDbVertex
100
AcDb2dVertex
10
5074.085552489141
20
2933.301200335360
30
0.0
0
VERTEX
5
a0d
100
AcDbEntity
8
0-0
6
CONTINUOUS
62
  7
100
AcDbVertex
100
AcDb2dVertex
10
5072.918357606364
20
2933.051467624089
30
0.0
0
VERTEX
5
a0e
100
AcDbEntity
8
0-0
6
CONTINUOUS
62
  7
100
AcDbVertex
100
AcDb2dVertex
10
5071.897069663241
20
2932.835391379051
30
0.0
0
VERTEX
5
a0f
100
AcDbEntity
8
0-0
6
CONTINUOUS
62
  7
100
AcDbVertex
100
AcDb2dVertex
10
5070.135418447977
20
2932.466566725686
30
0.0
0
VERTEX
5
a10
100
AcDbEntity
8
0-0
6
CONTINUOUS
62
  7
100
AcDbVertex
100
AcDb2dVertex
10
5068.373302940578
20
2932.099903496399
30
0.0
0
VERTEX
5
a11
100
AcDbEntity
8
0-0
6
CONTINUOUS
62
  7
100
AcDbVertex
100
AcDb2dVertex
10
5066.611375397783
20
2931.732438677239
30
0.0
0
VERTEX
5
a12
100
AcDbEntity
8
0-0
6
CONTINUOUS
62
  7
100
AcDbVertex
100
AcDb2dVertex
10
5064.850288076339
20
2931.361209254254
30
0.0
0
VERTEX
5
a13
100
AcDbEntity
8
0-0
6
CONTINUOUS
62
  7
100
AcDbVertex
100
AcDb2dVertex
10
5063.090693232985
20
2930.983252213491
30
0.0
0
VERTEX
5
a14
100
AcDbEntity
8
0-0
6
CONTINUOUS
62
  7
100
AcDbVertex
100
AcDb2dVertex
10
5062.071069100376
20
2930.759786953810
30
0.0
0
VERTEX
5
a15
100
AcDbEntity
8
0-0
6
CONTINUOUS
62
  7
100
AcDbVertex
100
AcDb2dVertex
10
5061.263880774841
20
2930.580142953742
30
0.0
0
VERTEX
5
a16
100
AcDbEntity
8
0-0
6
CONTINUOUS
62
  7
100
AcDbVertex
100
AcDb2dVertex
10
5059.873281506796
20
2930.265416288592
30
0.0
0
VERTEX
5
a17
100
AcDbEntity
8
0-0
6
CONTINUOUS
62
  7
100
AcDbVertex
100
AcDb2dVertex
10
5058.483859574023
20
2929.945365724536
30
0.0
0
VERTEX
5
a18
100
AcDbEntity
8
0-0
6
CONTINUOUS
62
  7
100
AcDbVertex
100
AcDb2dVertex
10
5057.095357916419
20
2929.621153684919
30
0.0
0
VERTEX
5
a19
100
AcDbEntity
8
0-0
6
CONTINUOUS
62
  7
100
AcDbVertex
100
AcDb2dVertex
10
5055.707519473881
20
2929.293942593080
30
0.0
0
VERTEX
5
a1a
100
AcDbEntity
8
0-0
6
CONTINUOUS
62
  7
100
AcDbVertex
100
AcDb2dVertex
10
5054.320087186306
20
2928.964894872362
30
0.0
0
VERTEX
5
a1b
100
AcDbEntity
8
0-0
6
CONTINUOUS
62
  7
100
AcDbVertex
100
AcDb2dVertex
10
5053.515461264668
20
2928.773663706235
30
0.0
0
SEQEND
5
a1c
100
AcDbEntity
8
0-0
0
POLYLINE
5
a1d
100
AcDbEntity
8
0-0
6
CONTINUOUS
62
  7
100
AcDb2dPolyline
66
1
10
0.0
20
0.0
30
0.0
70
0
0
VERTEX
5
a1e
100
AcDbEntity
8
0-0
6
CONTINUOUS
62
  7
100
AcDbVertex
100
AcDb2dVertex
10
5080.922694792356
20
2881.560817602319
30
0.0
0
VERTEX
5
a1f
100
AcDbEntity
8
0-0
6
CONTINUOUS
62
  7
100
AcDbVertex
100
AcDb2dVertex
10
5080.420645326537
20
2881.528019308759
30
0.0
0
VERTEX
5
a20
100
AcDbEntity
8
0-0
6
CONTINUOUS
62
  7
100
AcDbVertex
100
AcDb2dVertex
10
5079.554435977575
20
2881.472204484164
30
0.0
0
VERTEX
5
a21
100
AcDbEntity
8
0-0
6
CONTINUOUS
62
  7
100
AcDbVertex
100
AcDb2dVertex
10
5078.686541012816
20
2881.418428430136
30
0.0
0
VERTEX
5
a22
100
AcDbEntity
8
0-0
6
CONTINUOUS
62
  7
100
AcDbVertex
100
AcDb2dVertex
10
5077.815893586819
20
2881.367981507793
30
0.0
0
VERTEX
5
a23
100
AcDbEntity
8
0-0
6
CONTINUOUS
62
  7
100
AcDbVertex
100
AcDb2dVertex
10
5076.941426854141
20
2881.322154078254
30
0.0
0
VERTEX
5
a24
100
AcDbEntity
8
0-0
6
CONTINUOUS
62
  7
100
AcDbVertex
100
AcDb2dVertex
10
5076.062073969342
20
2881.282236502637
30
0.0
0
VERTEX
5
a25
100
AcDbEntity
8
0-0
6
CONTINUOUS
62
  7
100
AcDbVertex
100
AcDb2dVertex
10
5075.549390068678
20
2881.262300673226
30
0.0
0
VERTEX
5
a26
100
AcDbEntity
8
0-0
6
CONTINUOUS
62
  7
100
AcDbVertex
100
AcDb2dVertex
10
5074.700239077729
20
2881.236016500642
30
0.0
0
VERTEX
5
a27
100
AcDbEntity
8
0-0
6
CONTINUOUS
62
  7
100
AcDbVertex
100
AcDb2dVertex
10
5073.229733779437
20
2881.221789064899
30
0.0
0
VERTEX
5
a28
100
AcDbEntity
8
0-0
6
CONTINUOUS
62
  7
100
AcDbVertex
100
AcDb2dVertex
10
5071.762621346989
20
2881.268142648471
30
0.0
0
VERTEX
5
a29
100
AcDbEntity
8
0-0
6
CONTINUOUS
62
  7
100
AcDbVertex
100
AcDb2dVertex
10
5070.312343390099
20
2881.399759179625
30
0.0
0
VERTEX
5
a2a
100
AcDbEntity
8
0-0
6
CONTINUOUS
62
  7
100
AcDbVertex
100
AcDb2dVertex
10
5068.892341518481
20
2881.641320586630
30
0.0
0
VERTEX
5
a2b
100
AcDbEntity
8
0-0
6
CONTINUOUS
62
  7
100
AcDbVertex
100
AcDb2dVertex
10
5067.516057341845
20
2882.017508797755
30
0.0
0
VERTEX
5
a2c
100
AcDbEntity
8
0-0
6
CONTINUOUS
62
  7
100
AcDbVertex
100
AcDb2dVertex
10
5066.743140660428
20
2882.307109925052
30
0.0
0
VERTEX
5
a2d
100
AcDbEntity
8
0-0
6
CONTINUOUS
62
  7
100
AcDbVertex
100
AcDb2dVertex
10
5066.334704786804
20
2882.487001904886
30
0.0
0
VERTEX
5
a2e
100
AcDbEntity
8
0-0
6
CONTINUOUS
62
  7
100
AcDbVertex
100
AcDb2dVertex
10
5065.644100857704
20
2882.832451268331
30
0.0
0
VERTEX
5
a2f
100
AcDbEntity
8
0-0
6
CONTINUOUS
62
  7
100
AcDbVertex
100
AcDb2dVertex
10
5064.968657845943
20
2883.215507062080
30
0.0
0
VERTEX
5
a30
100
AcDbEntity
8
0-0
6
CONTINUOUS
62
  7
100
AcDbVertex
100
AcDb2dVertex
10
5064.305993166428
20
2883.627953658251
30
0.0
0
VERTEX
5
a31
100
AcDbEntity
8
0-0
6
CONTINUOUS
62
  7
100
AcDbVertex
100
AcDb2dVertex
10
5063.653724234062
20
2884.061575428958
30
0.0
0
VERTEX
5
a32
100
AcDbEntity
8
0-0
6
CONTINUOUS
62
  7
100
AcDbVertex
100
AcDb2dVertex
10
5063.009468463749
20
2884.508156746321
30
0.0
0
VERTEX
5
a33
100
AcDbEntity
8
0-0
6
CONTINUOUS
62
  7
100
AcDbVertex
100
AcDb2dVertex
10
5062.638532885398
20
2884.769874590071
30
0.0
0
VERTEX
5
a34
100
AcDbEntity
8
0-0
6
CONTINUOUS
62
  7
100
AcDbVertex
100
AcDb2dVertex
10
5062.390631560997
20
2884.945553824266
30
0.0
0
VERTEX
5
a35
100
AcDbEntity
8
0-0
6
CONTINUOUS
62
  7
100
AcDbVertex
100
AcDb2dVertex
10
5061.964548411849
20
2885.248442421742
30
0.0
0
VERTEX
5
a36
100
AcDbEntity
8
0-0
6
CONTINUOUS
62
  7
100
AcDbVertex
100
AcDb2dVertex
10
5061.539885778226
20
2885.551323949402
30
0.0
0
VERTEX
5
a37
100
AcDbEntity
8
0-0
6
CONTINUOUS
62
  7
100
AcDbVertex
100
AcDb2dVertex
10
5061.116333503896
20
2885.854199950874
30
0.0
0
VERTEX
5
a38
100
AcDbEntity
8
0-0
6
CONTINUOUS
62
  7
100
AcDbVertex
100
AcDb2dVertex
10
5060.693581432636
20
2886.157071969785
30
0.0
0
VERTEX
5
a39
100
AcDbEntity
8
0-0
6
CONTINUOUS
62
  7
100
AcDbVertex
100
AcDb2dVertex
10
5060.271319408215
20
2886.459941549764
30
0.0
0
VERTEX
5
a3a
100
AcDbEntity
8
0-0
6
CONTINUOUS
62
  7
100
AcDbVertex
100
AcDb2dVertex
10
5060.026509755832
20
2886.635605396903
30
0.0
0
SEQEND
5
a3b
100
AcDbEntity
8
0-0
0
LINE
5
a3c
100
AcDbEntity
8
0-0
6
CONTINUOUS
62
7
100
AcDbLine
10
5257.670045984302
20
2502.370328182353
30
0.0
11
5268.833728988038
21
2502.370328182353
31
0.0
0
ARC
5
a3d
100
AcDbEntity
8
0-0
6
CONTINUOUS
62
7
100
AcDbCircle
10
5311.653728988037
20
2754.710328182353
30
0.0
40
42.836000000000
100
AcDbArc
50
81.606133128030
51
181.579498885110
0
ARC
5
a3e
100
AcDbEntity
8
0-0
6
CONTINUOUS
62
7
100
AcDbCircle
10
5298.922488930661
20
2837.554328182353
30
0.0
40
44.968000000000
100
AcDbArc
50
295.564990443154
51
354.828646939899
0
ARC
5
a3f
100
AcDbEntity
8
0-0
6
CONTINUOUS
62
7
100
AcDbCircle
10
5178.500488930660
20
3019.274328182353
30
0.0
40
574.286000000000
100
AcDbArc
50
194.971000000000
51
223.856013383759
0
ARC
5
a40
100
AcDbEntity
8
0-0
6
CONTINUOUS
62
7
100
AcDbCircle
10
4494.439488930660
20
3019.274328182353
30
0.0
40
574.286000000000
100
AcDbArc
50
316.551172549030
51
340.325000000000
0
LINE
5
a41
100
AcDbEntity
8
0-0
6
CONTINUOUS
62
7
100
AcDbLine
10
5268.833728988038
20
2758.250634655694
30
0.0
11
5268.833728988038
21
2502.370328182353
31
0.0
0
POLYLINE
5
a42
100
AcDbEntity
8
0-0
6
CONTINUOUS
62
  7
100
AcDb2dPolyline
66
1
10
0.0
20
0.0
30
0.0
70
0
0
VERTEX
5
a43
100
AcDbEntity
8
0-0
6
CONTINUOUS
62
  7
100
AcDbVertex
100
AcDb2dVertex
10
4763.326312318050
20
2622.345661336608
30
0.0
0
VERTEX
5
a44
100
AcDbEntity
8
0-0
6
CONTINUOUS
62
  7
100
AcDbVertex
100
AcDb2dVertex
10
4763.326312318050
20
2502.370328182353
30
0.0
0
VERTEX
5
a45
100
AcDbEntity
8
0-0
6
CONTINUOUS
62
  7
100
AcDbVertex
100
AcDb2dVertex
10
5269.386178477584
20
2502.370328182353
30
0.0
0
SEQEND
5
a46
100
AcDbEntity
8
0-0
0
ENDSEC
 0
SECTION
  2
OBJECTS
 0
DICTIONARY
  5
C
100
AcDbDictionary
  3
ACAD_GROUP
350
D
  3
ACAD_MLINESTYLE
350
E
 0
DICTIONARY
  5
D
100
AcDbDictionary
 0
DICTIONARY
  5
E
100
AcDbDictionary
  3
STANDARD
350
13
0
MLINESTYLE
  5
13
100
AcDbMlineStyle
  2
STANDARD
 70
    0
3

62
256
51
90.0
52
90.0
71
0
0
ENDSEC
0
EOF
