0
SECTION
2
HEADER
9
$ACADVER
1
AC1012
9
$DWGCODEPAGE
3
dos932
9
$EXTMIN
10
0.000
20
0.000
30
0.0
9
$EXTMAX
10
5940.000
20
4200.000
30
0.0
9
$LIMMIN
10
0.000
20
0.000
9
$LIMMAX
10
5940.000
20
4200.000
9
$DIMSCALE
40
20.000000
9
$LTSCALE
40
20.000
9
$PDMODE
70
0
9
$PDSIZE
40
40.0
9
$HANDSEED
5
61f3d
9
$UNITMODE
70
0
9
$VISRETAIN
70
0
9
$PLINEGEN
70
0
9
$PSLTSCALE
70
1
9
$TREEDEPTH
70
3020
9
$CMLSTYLE
2
STANDARD
9
$CMLJUST
70
0
9
$CMLSCALE
40
1.0
0
ENDSEC
0
SECTION
2
TABLES
0
TABLE
2
VPORT
5
190
100
AcDbSymbolTable
70
2
0
VPORT
5
191
100
AcDbSymbolTableRecord
100
AcDbViewportTableRecord
2
*ACTIVE
70
0
10
0.0
20
0.0
11
1.0
21
1.0
12
2970.000
22
2100.000
13
0.0
23
0.0
14
1.0
24
1.0
15
0.0
25
0.0
16
0.0
26
0.0
36
1.0
17
0.0
27
0.0
37
0.0
40
4304.348
41
2.0
42
50.0
43
0.0
44
0.0
50
0.0
51
0.0
71
0
72
1000
73
1
74
1
75
0
76
0
77
0
78
0
0
ENDTAB
0
TABLE
2
LTYPE
5
1f4
100
AcDbSymbolTable
70
9
0
LTYPE
5
1f5
100
AcDbSymbolTableRecord
100
AcDbLinetypeTableRecord
2
BYBLOCK
70
 64
3

72
 65
73
  0
40
0.0
0
LTYPE
5
1f6
100
AcDbSymbolTableRecord
100
AcDbLinetypeTableRecord
2
BYLAYER
70
 64
3

72
 65
73
  0
40
0.0
0
LTYPE
5
1f7
100
AcDbSymbolTableRecord
100
AcDbLinetypeTableRecord
2
CONTINUOUS
70
64
3
SolidLine
72
65
73
0
40
0.0
0
LTYPE
5
1f8
100
AcDbSymbolTableRecord
100
AcDbLinetypeTableRecord
2
DOT
70
64
3
--  --  --  --  --  --  --  --     
72
65
73
2
40
3.000
49
1.000
74
0
49
-2.000
74
0
0
LTYPE
5
1f9
100
AcDbSymbolTableRecord
100
AcDbLinetypeTableRecord
2
DASHED
70
64
3
----    ----    ----    ----    
72
65
73
2
40
5.000
49
2.000
74
0
49
-3.000
74
0
0
LTYPE
5
1fa
100
AcDbSymbolTableRecord
100
AcDbLinetypeTableRecord
2
DASHED2
70
64
3
------  ------  ------  ------ 
72
65
73
2
40
10.000
49
4.000
74
0
49
-6.000
74
0
0
LTYPE
5
1fb
100
AcDbSymbolTableRecord
100
AcDbLinetypeTableRecord
2
CENTER
70
64
3
----- - ----- - ----- - ----- - 
72
65
73
4
40
10.000
49
6.000
74
0
49
-3.000
74
0
49
1.000
74
0
49
-3.000
74
0
0
LTYPE
5
1fc
100
AcDbSymbolTableRecord
100
AcDbLinetypeTableRecord
2
CENTER2
70
64
3
----------  --  ----------  -- 
72
65
73
4
40
17.000
49
12.000
74
0
49
-5.000
74
0
49
2.000
74
0
49
-5.000
74
0
0
LTYPE
5
1fd
100
AcDbSymbolTableRecord
100
AcDbLinetypeTableRecord
2
PHANTOM
70
64
3
--- - - --- - - --- - - --- - -
72
65
73
6
40
13.000
49
5.000
74
0
49
-3.000
74
0
49
1.000
74
0
49
-3.000
74
0
49
1.000
74
0
49
-3.000
74
0
0
LTYPE
5
1fe
100
AcDbSymbolTableRecord
100
AcDbLinetypeTableRecord
2
PHANTOM2
70
64
3
--------  -  -  --------  -  -
72
65
73
6
40
20.000
49
6.000
74
0
49
-5.000
74
0
49
2.000
74
0
49
-5.000
74
0
49
2.000
74
0
49
-5.000
74
0
0
LTYPE
5
1ff
100
AcDbSymbolTableRecord
100
AcDbLinetypeTableRecord
2
HIDDEN
70
64
3
-   -   -   -   -   -   -   -   
72
65
73
2
40
3.000
49
0.500
74
0
49
-2.500
74
0
0
ENDTAB
0
TABLE
2
STYLE
5
200
100
AcDbSymbolTable
70
1
0
STYLE
5
201
100
AcDbSymbolTableRecord
100
AcDbTextStyleTableRecord
2
STANDARD
70
0
40
0.0
41
1.0
50
0.0
71
0
42
0.0
3
txt.shx
4
extfont.shx
0
STYLE
5
202
100
AcDbSymbolTableRecord
100
AcDbTextStyleTableRecord
2
TATEGAKI
70
4
40
0.0
41
1.0
50
0.0
71
0
42
0.0
3
txt.shx
4
extfont.shx
0
STYLE
5
203
100
AcDbSymbolTableRecord
100
AcDbTextStyleTableRecord
2
DIM
70
0
40
0.0
41
0.75
50
0.0
71
0
42
0.0
3
txt.shx
4
extfont.shx
0
STYLE
5
204
100
AcDbSymbolTableRecord
100
AcDbTextStyleTableRecord
2
_Gothic_
70
0
40
1.0
41
1.0
50
0.0
71
0
42
10.0
3

4

1001
ACAD
1000
MS Gothic
1071
32817
0
STYLE
5
205
100
AcDbSymbolTableRecord
100
AcDbTextStyleTableRecord
2
_TateGothic_
70
4
40
0.0
41
1.0
50
0.0
71
0
42
0.0
3
@MS Gothic
4

0
ENDTAB
0
TABLE
2
VIEW
5
206
100
AcDbSymbolTable
70
0
0
ENDTAB
0
TABLE
2
UCS
5
207
100
AcDbSymbolTable
70
0
0
ENDTAB
0
TABLE
2
APPID
5
208
100
AcDbSymbolTable
70
1
0
APPID
5
209
100
AcDbSymbolTableRecord
100
AcDbRegAppTableRecord
2
ACAD
70
0
0
ENDTAB
0
TABLE
2
DIMSTYLE
5
403
100
AcDbSymbolTable
70
1
0
DIMSTYLE
105
404
330
402
100
AcDbSymbolTableRecord
100
AcDbDimStyleTableRecord
2
JAC_DIM
70
0
41
40.000
42
0.000
44
0.0
73
0
74
0
77
1
78
8
79
2
140
0.000
170
0
171
2
172
0
173
0
174
0
175
0
176
0
177
0
178
0
270
2
271
0
272
0
273
2
274
2
340
201
275
0
280
0
281
0
282
0
283
0
284
0
285
0
286
0
287
3
288
0
0
ENDTAB
0
TABLE
2
BLOCK_RECORD
5
405
100
AcDbSymbolTable
70
0
0
BLOCK_RECORD
5
406
100
AcDbSymbolTableRecord
100
AcDbBlockTableRecord
2
*MODEL_SPACE
0
BLOCK_RECORD
5
407
100
AcDbSymbolTableRecord
100
AcDbBlockTableRecord
2
*PAPER_SPACE
0
BLOCK_RECORD
5
408
100
AcDbSymbolTableRecord
100
AcDbBlockTableRecord
2
_JACCONVERT_
0
ENDTAB
0
TABLE
2
LAYER
5
409
100
AcDbSymbolTable
70
10
0
LAYER
5
40a
100
AcDbSymbolTableRecord
100
AcDbLayerTableRecord
2
0
70
0
62
7
6
CONTINUOUS
0
LAYER
5
40b
100
AcDbSymbolTableRecord
100
AcDbLayerTableRecord
2
0-0
70
0
62
7
6
CONTINUOUS
0
LAYER
5
40c
100
AcDbSymbolTableRecord
100
AcDbLayerTableRecord
2
F-F_J_ADD
70
0
62
-7
6
CONTINUOUS
0
ENDTAB
0
ENDSEC
0
SECTION
2
BLOCKS
0
BLOCK
5
40d
100
AcDbEntity
67
1
8
0
100
AcDbBlockBegin
2
*MODEL_SPACE
70
0
10
0.0
20
0.0
30
0.0
3
*MODEL_SPACE
1

0
ENDBLK
5
40e
100
AcDbEntity
8
0
100
AcDbBlockEnd
0
BLOCK
5
40f
100
AcDbEntity
67
1
8
0
100
AcDbBlockBegin
2
*PAPER_SPACE
70
0
10
0.0
20
0.0
30
0.0
3
*PAPER_SPACE
1

0
ENDBLK
5
410
100
AcDbEntity
67
1
8
0
100
AcDbBlockEnd
0
BLOCK
5
411
100
AcDbEntity
8
0
100
AcDbBlockBegin
2
_JACCONVERT_
70
2
10
0.0
20
0.0
30
0.0
3
_JACCONVERT_
1
_JACCONVERT_
0
ATTDEF
5
412
100
AcDbEntity
8
0
62
0
100
AcDbText
10
0.0
20
0.0
30
0.0
40
1.0
1
User:HARUOWAKUDA
100
AcDbAttributeDefinition
3

2
USER
70
8
0
ATTDEF
5
413
100
AcDbEntity
8
0
62
0
100
AcDbText
10
0.0
20
2.0
30
0.0
40
1.0
1
Date:06/09/14 11:36
100
AcDbAttributeDefinition
3

2
REVDATE
70
8
0
ATTDEF
5
414
100
AcDbEntity
8
0
62
0
100
AcDbText
10
0.0
20
4.0
30
0.0
40
1.0
1
File:d_25000_cad_20060914.dxf
100
AcDbAttributeDefinition
3

2
FNAME
70
8
0
ATTDEF
5
415
100
AcDbEntity
8
0
62
0
100
AcDbText
10
0.0
20
6.0
30
0.0
40
1.0
1
JacConvert Version2.75 Copyright (c) 2001-2006 K.Nakahara
100
AcDbAttributeDefinition
3

2
VER
70
8
0
ENDBLK
5
416
100
AcDbEntity
67
1
8
0
100
AcDbBlockEnd
0
ENDSEC
0
SECTION
2
ENTITIES
0
LINE
5
417
100
AcDbEntity
8
0-0
6
CONTINUOUS
62
7
100
AcDbLine
10
1002.439100944688
20
1531.889095977723
30
0.0
11
946.001100944688
21
1531.889095977723
31
0.0
0
LINE
5
418
100
AcDbEntity
8
0-0
6
CONTINUOUS
62
7
100
AcDbLine
10
1150.385100944689
20
1711.889095977723
30
0.0
11
770.385100944688
21
1711.889095977723
31
0.0
0
LINE
5
419
100
AcDbEntity
8
0-0
6
CONTINUOUS
62
7
100
AcDbLine
10
770.385100944688
20
1701.889095977723
30
0.0
11
770.385100944688
21
1541.889095977723
31
0.0
0
LINE
5
41a
100
AcDbEntity
8
0-0
6
CONTINUOUS
62
7
100
AcDbLine
10
1150.385100944689
20
1701.889095977723
30
0.0
11
1150.385100944689
21
1541.889095977723
31
0.0
0
LINE
5
41b
100
AcDbEntity
8
0-0
6
CONTINUOUS
62
7
100
AcDbLine
10
770.385100944688
20
1531.889095977723
30
0.0
11
1150.385100944689
21
1531.889095977723
31
0.0
0
LINE
5
41c
100
AcDbEntity
8
0-0
6
CONTINUOUS
62
7
100
AcDbLine
10
765.385100944688
20
1549.889095977722
30
0.0
11
749.385100944688
21
1549.889095977722
31
0.0
0
LINE
5
41d
100
AcDbEntity
8
0-0
6
CONTINUOUS
62
7
100
AcDbLine
10
765.385100944688
20
1604.889095977722
30
0.0
11
749.385100944688
21
1604.889095977722
31
0.0
0
LINE
5
41e
100
AcDbEntity
8
0-0
6
CONTINUOUS
62
7
100
AcDbLine
10
746.385100944689
20
1601.889095977723
30
0.0
11
746.385100944689
21
1552.889095977723
31
0.0
0
LINE
5
41f
100
AcDbEntity
8
0-0
6
CONTINUOUS
62
7
100
AcDbLine
10
740.385100944688
20
1598.889095977722
30
0.0
11
740.385100944688
21
1555.889095977723
31
0.0
0
LINE
5
420
100
AcDbEntity
8
0-0
6
CONTINUOUS
62
7
100
AcDbLine
10
746.385100944689
20
1552.889095977723
30
0.0
11
743.385100944688
21
1552.889095977723
31
0.0
0
LINE
5
421
100
AcDbEntity
8
0-0
6
CONTINUOUS
62
7
100
AcDbLine
10
746.385100944689
20
1601.889095977723
30
0.0
11
743.385100944688
21
1601.889095977723
31
0.0
0
ARC
5
422
100
AcDbEntity
8
0-0
6
CONTINUOUS
62
7
100
AcDbCircle
10
775.385100944688
20
1541.889095977723
30
0.0
40
5.000000000000
100
AcDbArc
50
180.000000000000
51
270.000000000000
0
ARC
5
423
100
AcDbEntity
8
0-0
6
CONTINUOUS
62
7
100
AcDbCircle
10
1145.385100944689
20
1541.889095977723
30
0.0
40
5.000000000000
100
AcDbArc
50
270.000000000000
51
360.000000000000
0
ARC
5
424
100
AcDbEntity
8
0-0
6
CONTINUOUS
62
7
100
AcDbCircle
10
1145.385100944689
20
1701.889095977723
30
0.0
40
5.000000000000
100
AcDbArc
50
0.000000000000
51
90.000000000000
0
ARC
5
425
100
AcDbEntity
8
0-0
6
CONTINUOUS
62
7
100
AcDbCircle
10
960.385100944688
20
-1713.110904022278
30
0.0
40
3425.000000000000
100
AcDbArc
50
86.904000000000
51
93.096000000000
0
ARC
5
426
100
AcDbEntity
8
0-0
6
CONTINUOUS
62
7
100
AcDbCircle
10
960.385100944688
20
4956.889095977723
30
0.0
40
3425.000000000000
100
AcDbArc
50
266.904000000000
51
273.096000000000
0
ARC
5
427
100
AcDbEntity
8
0-0
6
CONTINUOUS
62
7
100
AcDbCircle
10
1150.385100944689
20
1706.889095977723
30
0.0
40
5.000000000000
100
AcDbArc
50
0.000000000000
51
90.000000000000
0
ARC
5
428
100
AcDbEntity
8
0-0
6
CONTINUOUS
62
7
100
AcDbCircle
10
770.385100944688
20
1536.889095977723
30
0.0
40
5.000000000000
100
AcDbArc
50
180.000000000000
51
270.000000000000
0
ARC
5
429
100
AcDbEntity
8
0-0
6
CONTINUOUS
62
7
100
AcDbCircle
10
1150.385100944689
20
1536.889095977723
30
0.0
40
5.000000000000
100
AcDbArc
50
270.000000000000
51
360.000000000000
0
ARC
5
42a
100
AcDbEntity
8
0-0
6
CONTINUOUS
62
7
100
AcDbCircle
10
749.385100944688
20
1601.889095977723
30
0.0
40
3.000000000000
100
AcDbArc
50
90.000000000000
51
180.000000000000
0
ARC
5
42b
100
AcDbEntity
8
0-0
6
CONTINUOUS
62
7
100
AcDbCircle
10
749.385100944688
20
1552.889095977723
30
0.0
40
3.000000000000
100
AcDbArc
50
180.000000000000
51
270.000000000000
0
ARC
5
42c
100
AcDbEntity
8
0-0
6
CONTINUOUS
62
7
100
AcDbCircle
10
743.385100944688
20
1598.889095977722
30
0.0
40
3.000000000000
100
AcDbArc
50
90.000000000000
51
180.000000000000
0
ARC
5
42d
100
AcDbEntity
8
0-0
6
CONTINUOUS
62
7
100
AcDbCircle
10
743.385100944688
20
1555.889095977723
30
0.0
40
3.000000000000
100
AcDbArc
50
180.000000000000
51
270.000000000000
0
LINE
5
42e
100
AcDbEntity
8
0-0
6
CONTINUOUS
62
7
100
AcDbLine
10
850.385100944688
20
1480.938446762943
30
0.0
11
875.385100944688
21
1480.938446762943
31
0.0
0
POLYLINE
5
42f
100
AcDbEntity
8
0-0
6
CONTINUOUS
62
  7
100
AcDb2dPolyline
66
1
10
0.0
20
0.0
30
0.0
70
0
0
VERTEX
5
430
100
AcDbEntity
8
0-0
6
CONTINUOUS
62
  7
100
AcDbVertex
100
AcDb2dVertex
10
850.385100944688
20
1480.938446762943
30
0.0
0
VERTEX
5
431
100
AcDbEntity
8
0-0
6
CONTINUOUS
62
  7
100
AcDbVertex
100
AcDb2dVertex
10
875.385100944688
20
1480.938446762943
30
0.0
0
VERTEX
5
432
100
AcDbEntity
8
0-0
6
CONTINUOUS
62
  7
100
AcDbVertex
100
AcDb2dVertex
10
875.385100944688
20
1500.938446762943
30
0.0
0
SEQEND
5
433
100
AcDbEntity
8
0-0
0
LINE
5
434
100
AcDbEntity
8
0-0
6
CONTINUOUS
62
7
100
AcDbLine
10
905.385100944688
20
1475.938446762943
30
0.0
11
905.385100944688
21
1500.938446762943
31
0.0
0
LINE
5
435
100
AcDbEntity
8
0-0
6
CONTINUOUS
62
7
100
AcDbLine
10
880.385100944688
20
1505.938446762943
30
0.0
11
900.385100944688
21
1505.938446762943
31
0.0
0
LINE
5
436
100
AcDbEntity
8
0-0
6
CONTINUOUS
62
7
100
AcDbLine
10
1045.385100944689
20
1480.938446762943
30
0.0
11
1045.385100944689
21
1500.938446762943
31
0.0
0
LINE
5
437
100
AcDbEntity
8
0-0
6
CONTINUOUS
62
7
100
AcDbLine
10
1015.385100944689
20
1475.938446762943
30
0.0
11
1015.385100944689
21
1500.938446762943
31
0.0
0
LINE
5
438
100
AcDbEntity
8
0-0
6
CONTINUOUS
62
7
100
AcDbLine
10
1020.385100944689
20
1505.938446762943
30
0.0
11
1040.385100944689
21
1505.938446762943
31
0.0
0
LINE
5
439
100
AcDbEntity
8
0-0
6
CONTINUOUS
62
7
100
AcDbLine
10
850.385100944688
20
1465.938446762943
30
0.0
11
1070.385100944689
21
1465.938446762943
31
0.0
0
LINE
5
43a
100
AcDbEntity
8
0-0
6
CONTINUOUS
62
7
100
AcDbLine
10
862.885100944688
20
1480.938446762943
30
0.0
11
862.885100944688
21
1470.938446762943
31
0.0
0
LINE
5
43b
100
AcDbEntity
8
0-0
6
CONTINUOUS
62
7
100
AcDbLine
10
1057.885100944689
20
1480.938446762943
30
0.0
11
1057.885100944689
21
1470.938446762943
31
0.0
0
LINE
5
43c
100
AcDbEntity
8
0-0
6
CONTINUOUS
62
7
100
AcDbLine
10
1045.385100944689
20
1480.938446762943
30
0.0
11
1045.385100944689
21
1475.938446762943
31
0.0
0
LINE
5
43d
100
AcDbEntity
8
0-0
6
CONTINUOUS
62
7
100
AcDbLine
10
875.385100944688
20
1480.938446762943
30
0.0
11
875.385100944688
21
1475.938446762943
31
0.0
0
LINE
5
43e
100
AcDbEntity
8
0-0
6
CONTINUOUS
62
7
100
AcDbLine
10
862.885100944688
20
1470.938446762943
30
0.0
11
1057.885100944689
21
1470.938446762943
31
0.0
0
LINE
5
43f
100
AcDbEntity
8
0-0
6
CONTINUOUS
62
7
100
AcDbLine
10
875.385100944688
20
1475.938446762943
30
0.0
11
1045.385100944689
21
1475.938446762943
31
0.0
0
LINE
5
440
100
AcDbEntity
8
0-0
6
CONTINUOUS
62
7
100
AcDbLine
10
1045.385100944689
20
1480.938446762943
30
0.0
11
1070.385100944689
21
1480.938446762943
31
0.0
0
POLYLINE
5
441
100
AcDbEntity
8
0-0
6
CONTINUOUS
62
  7
100
AcDb2dPolyline
66
1
10
0.0
20
0.0
30
0.0
70
0
0
VERTEX
5
442
100
AcDbEntity
8
0-0
6
CONTINUOUS
62
  7
100
AcDbVertex
100
AcDb2dVertex
10
1045.385100944689
20
1480.938446762943
30
0.0
0
VERTEX
5
443
100
AcDbEntity
8
0-0
6
CONTINUOUS
62
  7
100
AcDbVertex
100
AcDb2dVertex
10
1070.385100944689
20
1480.938446762943
30
0.0
0
VERTEX
5
444
100
AcDbEntity
8
0-0
6
CONTINUOUS
62
  7
100
AcDbVertex
100
AcDb2dVertex
10
1070.385100944689
20
1465.938446762943
30
0.0
0
SEQEND
5
445
100
AcDbEntity
8
0-0
0
LINE
5
446
100
AcDbEntity
8
0-0
6
CONTINUOUS
62
7
100
AcDbLine
10
850.385100944688
20
1480.938446762943
30
0.0
11
850.385100944688
21
1465.938446762943
31
0.0
0
ARC
5
447
100
AcDbEntity
8
0-0
6
CONTINUOUS
62
7
100
AcDbCircle
10
900.385100944688
20
1500.938446762943
30
0.0
40
5.000000000000
100
AcDbArc
50
0.000000000000
51
90.000000000000
0
ARC
5
448
100
AcDbEntity
8
0-0
6
CONTINUOUS
62
7
100
AcDbCircle
10
880.385100944688
20
1500.938446762943
30
0.0
40
5.000000000000
100
AcDbArc
50
90.000000000000
51
180.000000000000
0
ARC
5
449
100
AcDbEntity
8
0-0
6
CONTINUOUS
62
7
100
AcDbCircle
10
1040.385100944689
20
1500.938446762943
30
0.0
40
5.000000000000
100
AcDbArc
50
0.000000000000
51
90.000000000000
0
ARC
5
44a
100
AcDbEntity
8
0-0
6
CONTINUOUS
62
7
100
AcDbCircle
10
1020.385100944689
20
1500.938446762943
30
0.0
40
5.000000000000
100
AcDbArc
50
90.000000000000
51
180.000000000000
0
ARC
5
44b
100
AcDbEntity
8
0-0
6
CONTINUOUS
62
7
100
AcDbCircle
10
1032.247100944688
20
1311.400446762943
30
0.0
40
247.327000000000
100
AcDbArc
50
142.597893592999
51
183.513898372031
0
ARC
5
44c
100
AcDbEntity
8
0-0
6
CONTINUOUS
62
7
100
AcDbCircle
10
467.166100944688
20
1755.751446762943
30
0.0
40
471.571000000000
100
AcDbArc
50
321.412436371091
51
324.354985905584
0
ARC
5
44d
100
AcDbEntity
8
0-0
6
CONTINUOUS
62
7
100
AcDbCircle
10
1042.232100944689
20
1293.819446762943
30
0.0
40
256.859000000000
100
AcDbArc
50
143.493380269305
51
179.459521265988
0
ARC
5
44e
100
AcDbEntity
8
0-0
6
CONTINUOUS
62
7
100
AcDbCircle
10
467.166100944688
20
1740.751446762943
30
0.0
40
471.571000000000
100
AcDbArc
50
321.412436371091
51
324.354985905584
0
ARC
5
44f
100
AcDbEntity
8
0-0
6
CONTINUOUS
62
7
100
AcDbCircle
10
878.538100944689
20
1293.819446762943
30
0.0
40
256.859000000000
100
AcDbArc
50
0.540478734012
51
36.506619730695
0
ARC
5
450
100
AcDbEntity
8
0-0
6
CONTINUOUS
62
7
100
AcDbCircle
10
1453.604100944689
20
1740.751446762943
30
0.0
40
471.571000000000
100
AcDbArc
50
215.645014094416
51
218.587563628909
0
ARC
5
451
100
AcDbEntity
8
0-0
6
CONTINUOUS
62
7
100
AcDbCircle
10
888.523100944689
20
1311.400446762943
30
0.0
40
247.327000000000
100
AcDbArc
50
356.486101627969
51
397.402106407001
0
ARC
5
452
100
AcDbEntity
8
0-0
6
CONTINUOUS
62
7
100
AcDbCircle
10
1453.604100944689
20
1755.751446762943
30
0.0
40
471.571000000000
100
AcDbArc
50
215.645014094416
51
218.587563628909
0
LINE
5
453
100
AcDbEntity
8
0-0
6
CONTINUOUS
62
7
100
AcDbLine
10
765.385100944688
20
1706.889095977723
30
0.0
11
765.385100944688
21
1519.419561932838
31
0.0
0
LINE
5
454
100
AcDbEntity
8
0-0
6
CONTINUOUS
62
7
100
AcDbLine
10
1155.385100944689
20
1706.889095977723
30
0.0
11
1155.385100944689
21
1498.814614208637
31
0.0
0
ELLIPSE
  5
455
100
AcDbEntity
8
0-0
6
CONTINUOUS
62
7
100
AcDbEllipse
10
960.385100944688
20
1299.847491544467
30
0.0
11
0.000000001408
21
275.805000000000
31
0.0
210
0.0
220
0.0
230
1.0
40
0.634505000000
41
1.570796326780
42
4.712388980359
0
ELLIPSE
  5
456
100
AcDbEntity
8
0-0
6
CONTINUOUS
62
7
100
AcDbEllipse
10
959.684853591579
20
1380.777740742733
30
0.0
11
0.000000000000
21
359.787000000000
31
0.0
210
0.0
220
0.0
230
1.0
40
0.541987000000
41
1.570796326780
42
4.712388980359
0
LINE
5
457
100
AcDbEntity
8
0-0
6
CONTINUOUS
62
7
100
AcDbLine
10
765.385100944688
20
1515.703253956195
30
0.0
11
765.385100944688
21
1379.610305596698
31
0.0
0
LINE
5
458
100
AcDbEntity
8
0-0
6
CONTINUOUS
62
7
100
AcDbLine
10
1155.385100944689
20
1508.190526491251
30
0.0
11
1155.385100944689
21
1379.610305596698
31
0.0
0
ARC
5
459
100
AcDbEntity
8
0-0
6
CONTINUOUS
62
7
100
AcDbCircle
10
744.068100611020
20
1712.334102191995
30
0.0
40
12.000000000000
100
AcDbArc
50
180.000000000000
51
270.000000000000
0
ARC
5
45a
100
AcDbEntity
8
0-0
6
CONTINUOUS
62
7
100
AcDbCircle
10
760.059072848954
20
1669.779131846683
30
0.0
40
13.134414676531
100
AcDbArc
50
161.982390785310
51
197.478114533726
0
CIRCLE
5
45b
100
AcDbEntity
8
0-0
6
CONTINUOUS
62
7
100
AcDbCircle
10
760.075531056246
20
1669.791849552319
30
0.0
40
3.389457447208
0
ARC
5
45c
100
AcDbEntity
8
0-0
6
CONTINUOUS
62
7
100
AcDbCircle
10
747.406937168711
20
1669.795113093053
30
0.0
40
3.389457447208
100
AcDbArc
50
270.021929785002
51
450.028490417393
0
LINE
5
45d
100
AcDbEntity
8
0-0
6
CONTINUOUS
62
7
100
AcDbLine
10
752.068100611021
20
1699.856808676979
30
0.0
11
752.068100611021
21
1673.957231114160
31
0.0
0
ARC
5
45e
100
AcDbEntity
8
0-0
6
CONTINUOUS
62
7
100
AcDbCircle
10
738.177147524490
20
1610.882005490159
30
0.0
40
3.000000000000
100
AcDbArc
50
90.000000000000
51
180.000000000000
0
LINE
5
45f
100
AcDbEntity
8
0-0
6
CONTINUOUS
62
7
100
AcDbLine
10
735.177147524490
20
1607.882005490159
30
0.0
11
735.177147524490
21
1610.882005490159
31
0.0
0
ARC
5
460
100
AcDbEntity
8
0-0
6
CONTINUOUS
62
7
100
AcDbCircle
10
738.177147524490
20
1607.882005490159
30
0.0
40
3.000000000000
100
AcDbArc
50
180.000000000000
51
270.000000000000
0
ARC
5
461
100
AcDbEntity
8
0-0
6
CONTINUOUS
62
7
100
AcDbCircle
10
760.059072848954
20
1632.486666063553
30
0.0
40
13.134414676531
100
AcDbArc
50
161.982390785310
51
197.478114533726
0
CIRCLE
5
462
100
AcDbEntity
8
0-0
6
CONTINUOUS
62
7
100
AcDbCircle
10
760.075531056248
20
1632.499383769189
30
0.0
40
3.389457447208
0
ARC
5
463
100
AcDbEntity
8
0-0
6
CONTINUOUS
62
7
100
AcDbCircle
10
747.406937168711
20
1632.502647309923
30
0.0
40
3.389457447208
100
AcDbArc
50
270.021929785002
51
450.028490417393
0
LINE
5
464
100
AcDbEntity
8
0-0
6
CONTINUOUS
62
7
100
AcDbLine
10
747.868075018638
20
1665.752023106019
30
0.0
11
747.868075018638
21
1636.602945895537
31
0.0
0
POLYLINE
5
465
100
AcDbEntity
8
0-0
6
CONTINUOUS
62
  7
100
AcDb2dPolyline
66
1
10
0.0
20
0.0
30
0.0
70
0
0
VERTEX
5
466
100
AcDbEntity
8
0-0
6
CONTINUOUS
62
  7
100
AcDbVertex
100
AcDb2dVertex
10
747.539285823528
20
1628.803713396962
30
0.0
0
VERTEX
5
467
100
AcDbEntity
8
0-0
6
CONTINUOUS
62
  7
100
AcDbVertex
100
AcDb2dVertex
10
748.011354917627
20
1628.528565625157
30
0.0
0
VERTEX
5
468
100
AcDbEntity
8
0-0
6
CONTINUOUS
62
  7
100
AcDbVertex
100
AcDb2dVertex
10
748.823260022806
20
1628.051426377713
30
0.0
0
VERTEX
5
469
100
AcDbEntity
8
0-0
6
CONTINUOUS
62
  7
100
AcDbVertex
100
AcDb2dVertex
10
749.629589777916
20
1627.566657859614
30
0.0
0
VERTEX
5
46a
100
AcDbEntity
8
0-0
6
CONTINUOUS
62
  7
100
AcDbVertex
100
AcDb2dVertex
10
750.426815480381
20
1627.069431418547
30
0.0
0
VERTEX
5
46b
100
AcDbEntity
8
0-0
6
CONTINUOUS
62
  7
100
AcDbVertex
100
AcDb2dVertex
10
751.211408427628
20
1626.554918402199
30
0.0
0
VERTEX
5
46c
100
AcDbEntity
8
0-0
6
CONTINUOUS
62
  7
100
AcDbVertex
100
AcDb2dVertex
10
751.979839917078
20
1626.018290158258
30
0.0
0
VERTEX
5
46d
100
AcDbEntity
8
0-0
6
CONTINUOUS
62
  7
100
AcDbVertex
100
AcDb2dVertex
10
752.416734508691
20
1625.695009839386
30
0.0
0
VERTEX
5
46e
100
AcDbEntity
8
0-0
6
CONTINUOUS
62
  7
100
AcDbVertex
100
AcDb2dVertex
10
752.666462574085
20
1625.503397185789
30
0.0
0
VERTEX
5
46f
100
AcDbEntity
8
0-0
6
CONTINUOUS
62
  7
100
AcDbVertex
100
AcDb2dVertex
10
753.091944135949
20
1625.166073537827
30
0.0
0
VERTEX
5
470
100
AcDbEntity
8
0-0
6
CONTINUOUS
62
  7
100
AcDbVertex
100
AcDb2dVertex
10
753.512007550004
20
1624.821335733702
30
0.0
0
VERTEX
5
471
100
AcDbEntity
8
0-0
6
CONTINUOUS
62
  7
100
AcDbVertex
100
AcDb2dVertex
10
753.927835817956
20
1624.470802584802
30
0.0
0
VERTEX
5
472
100
AcDbEntity
8
0-0
6
CONTINUOUS
62
  7
100
AcDbVertex
100
AcDb2dVertex
10
754.340611941508
20
1624.116092902518
30
0.0
0
VERTEX
5
473
100
AcDbEntity
8
0-0
6
CONTINUOUS
62
  7
100
AcDbVertex
100
AcDb2dVertex
10
754.751518922366
20
1623.758825498238
30
0.0
0
VERTEX
5
474
100
AcDbEntity
8
0-0
6
CONTINUOUS
62
  7
100
AcDbVertex
100
AcDb2dVertex
10
754.989454694271
20
1623.551076351403
30
0.0
0
SEQEND
5
475
100
AcDbEntity
8
0-0
0
LINE
5
476
100
AcDbEntity
8
0-0
6
CONTINUOUS
62
7
100
AcDbLine
10
765.068100611021
20
1623.520991475421
30
0.0
11
755.068100611021
21
1623.520991475421
31
0.0
0
LINE
5
477
100
AcDbEntity
8
0-0
6
CONTINUOUS
62
7
100
AcDbLine
10
756.068100611021
20
1623.542865228831
30
0.0
11
756.068100611021
21
1613.809771752670
31
0.0
0
LINE
5
478
100
AcDbEntity
8
0-0
6
CONTINUOUS
62
7
100
AcDbLine
10
764.863720902445
20
1604.882005490159
30
0.0
11
738.177147524490
21
1604.882005490159
31
0.0
0
LINE
5
479
100
AcDbEntity
8
0-0
6
CONTINUOUS
62
7
100
AcDbLine
10
764.863720902445
20
1613.882005490159
30
0.0
11
738.177147524490
21
1613.882005490159
31
0.0
0
LINE
5
47a
100
AcDbEntity
8
0-0
6
CONTINUOUS
62
7
100
AcDbLine
10
747.710919045493
20
1628.799960198118
30
0.0
11
764.918603521010
21
1628.799960198118
31
0.0
0
LINE
5
47b
100
AcDbEntity
8
0-0
6
CONTINUOUS
62
7
100
AcDbLine
10
765.037903494941
20
1636.526343990639
30
0.0
11
747.608332595880
21
1636.526343990639
31
0.0
0
LINE
5
47c
100
AcDbEntity
8
0-0
6
CONTINUOUS
62
7
100
AcDbLine
10
747.608332595879
20
1665.818809773769
30
0.0
11
764.278096472979
21
1665.818809773769
31
0.0
0
LINE
5
47d
100
AcDbEntity
8
0-0
6
CONTINUOUS
62
7
100
AcDbLine
10
764.728254695902
20
1673.818809773769
30
0.0
11
747.608332595879
21
1673.818809773769
31
0.0
0
LINE
5
47e
100
AcDbEntity
8
0-0
6
CONTINUOUS
62
7
100
AcDbLine
10
764.334316020528
20
1700.334102191995
30
0.0
11
744.068100611020
21
1700.334102191995
31
0.0
0
LINE
5
47f
100
AcDbEntity
8
0-0
6
CONTINUOUS
62
7
100
AcDbLine
10
764.541222937539
20
1712.051399022039
30
0.0
11
732.214118828718
21
1712.051399022039
31
0.0
0
ARC
5
480
100
AcDbEntity
8
0-0
6
DASHED
62
7
100
AcDbCircle
10
775.451994045635
20
1701.889095977723
30
0.0
40
5.000000000000
100
AcDbArc
50
90.000000000000
51
180.000000000000
0
ARC
5
481
100
AcDbEntity
8
0-0
6
DASHED
62
7
100
AcDbCircle
10
770.451994045635
20
1706.889095977723
30
0.0
40
5.000000000000
100
AcDbArc
50
90.000000000000
51
180.000000000000
0
LINE
5
482
100
AcDbEntity
8
0-0
6
DASHED
62
7
100
AcDbLine
10
765.243590571008
20
1623.647511553869
30
0.0
11
765.079236851538
21
1623.497478014203
31
0.0
0
ELLIPSE
  5
483
100
AcDbEntity
8
0-0
6
CONTINUOUS
62
7
100
AcDbEllipse
10
759.553592993887
20
3156.860356487175
30
0.0
11
24.534999686935
21
0.000000000000
31
0.0
210
0.0
220
0.0
230
1.0
40
0.500000000000
41
1.419634620790
42
4.830262147854
0
LINE
5
484
100
AcDbEntity
8
0-0
6
CONTINUOUS
62
7
100
AcDbLine
10
1000.841131599865
20
3036.354862926279
30
0.0
11
944.403131599865
21
3036.354862926279
31
0.0
0
LINE
5
485
100
AcDbEntity
8
0-0
6
CONTINUOUS
62
7
100
AcDbLine
10
1148.787131599866
20
3216.354862926279
30
0.0
11
768.787131599865
21
3216.354862926279
31
0.0
0
LINE
5
486
100
AcDbEntity
8
0-0
6
CONTINUOUS
62
7
100
AcDbLine
10
768.787131599865
20
3206.354862926279
30
0.0
11
768.787131599865
21
3046.354862926279
31
0.0
0
LINE
5
487
100
AcDbEntity
8
0-0
6
CONTINUOUS
62
7
100
AcDbLine
10
1148.787131599866
20
3206.354862926279
30
0.0
11
1148.787131599866
21
3046.354862926279
31
0.0
0
LINE
5
488
100
AcDbEntity
8
0-0
6
CONTINUOUS
62
7
100
AcDbLine
10
768.787131599865
20
3036.354862926279
30
0.0
11
1148.787131599866
21
3036.354862926279
31
0.0
0
LINE
5
489
100
AcDbEntity
8
0-0
6
CONTINUOUS
62
7
100
AcDbLine
10
763.787131599865
20
3054.354862926279
30
0.0
11
747.787131599865
21
3054.354862926279
31
0.0
0
LINE
5
48a
100
AcDbEntity
8
0-0
6
CONTINUOUS
62
7
100
AcDbLine
10
763.787131599865
20
3109.354862926279
30
0.0
11
747.787131599865
21
3109.354862926279
31
0.0
0
LINE
5
48b
100
AcDbEntity
8
0-0
6
CONTINUOUS
62
7
100
AcDbLine
10
744.787131599865
20
3106.354862926279
30
0.0
11
744.787131599865
21
3057.354862926280
31
0.0
0
LINE
5
48c
100
AcDbEntity
8
0-0
6
CONTINUOUS
62
7
100
AcDbLine
10
738.787131599865
20
3103.354862926279
30
0.0
11
738.787131599865
21
3060.354862926279
31
0.0
0
LINE
5
48d
100
AcDbEntity
8
0-0
6
CONTINUOUS
62
7
100
AcDbLine
10
744.787131599865
20
3057.354862926280
30
0.0
11
741.787131599865
21
3057.354862926280
31
0.0
0
LINE
5
48e
100
AcDbEntity
8
0-0
6
CONTINUOUS
62
7
100
AcDbLine
10
744.787131599865
20
3106.354862926279
30
0.0
11
741.787131599865
21
3106.354862926279
31
0.0
0
ARC
5
48f
100
AcDbEntity
8
0-0
6
CONTINUOUS
62
7
100
AcDbCircle
10
773.787131599865
20
3206.354862926279
30
0.0
40
5.000000000000
100
AcDbArc
50
90.000000000000
51
180.000000000000
0
ARC
5
490
100
AcDbEntity
8
0-0
6
CONTINUOUS
62
7
100
AcDbCircle
10
773.787131599865
20
3046.354862926279
30
0.0
40
5.000000000000
100
AcDbArc
50
180.000000000000
51
270.000000000000
0
ARC
5
491
100
AcDbEntity
8
0-0
6
CONTINUOUS
62
7
100
AcDbCircle
10
1143.787131599866
20
3046.354862926279
30
0.0
40
5.000000000000
100
AcDbArc
50
270.000000000000
51
360.000000000000
0
ARC
5
492
100
AcDbEntity
8
0-0
6
CONTINUOUS
62
7
100
AcDbCircle
10
1143.787131599866
20
3206.354862926279
30
0.0
40
5.000000000000
100
AcDbArc
50
0.000000000000
51
90.000000000000
0
ARC
5
493
100
AcDbEntity
8
0-0
6
CONTINUOUS
62
7
100
AcDbCircle
10
958.787131599865
20
-208.645137073722
30
0.0
40
3425.000000000000
100
AcDbArc
50
86.904000000000
51
93.096000000000
0
ARC
5
494
100
AcDbEntity
8
0-0
6
CONTINUOUS
62
7
100
AcDbCircle
10
958.787131599865
20
6461.354862926279
30
0.0
40
3425.000000000000
100
AcDbArc
50
266.904000000000
51
273.096000000000
0
ARC
5
495
100
AcDbEntity
8
0-0
6
CONTINUOUS
62
7
100
AcDbCircle
10
768.787131599865
20
3211.354862926279
30
0.0
40
5.000000000000
100
AcDbArc
50
90.000000000000
51
180.000000000000
0
ARC
5
496
100
AcDbEntity
8
0-0
6
CONTINUOUS
62
7
100
AcDbCircle
10
1148.787131599866
20
3211.354862926279
30
0.0
40
5.000000000000
100
AcDbArc
50
0.000000000000
51
90.000000000000
0
ARC
5
497
100
AcDbEntity
8
0-0
6
CONTINUOUS
62
7
100
AcDbCircle
10
768.787131599865
20
3041.354862926279
30
0.0
40
5.000000000000
100
AcDbArc
50
180.000000000000
51
270.000000000000
0
ARC
5
498
100
AcDbEntity
8
0-0
6
CONTINUOUS
62
7
100
AcDbCircle
10
1148.787131599866
20
3041.354862926279
30
0.0
40
5.000000000000
100
AcDbArc
50
270.000000000000
51
360.000000000000
0
ARC
5
499
100
AcDbEntity
8
0-0
6
CONTINUOUS
62
7
100
AcDbCircle
10
747.787131599865
20
3106.354862926279
30
0.0
40
3.000000000000
100
AcDbArc
50
90.000000000000
51
180.000000000000
0
ARC
5
49a
100
AcDbEntity
8
0-0
6
CONTINUOUS
62
7
100
AcDbCircle
10
747.787131599865
20
3057.354862926280
30
0.0
40
3.000000000000
100
AcDbArc
50
180.000000000000
51
270.000000000000
0
ARC
5
49b
100
AcDbEntity
8
0-0
6
CONTINUOUS
62
7
100
AcDbCircle
10
741.787131599865
20
3103.354862926279
30
0.0
40
3.000000000000
100
AcDbArc
50
90.000000000000
51
180.000000000000
0
ARC
5
49c
100
AcDbEntity
8
0-0
6
CONTINUOUS
62
7
100
AcDbCircle
10
741.787131599865
20
3060.354862926279
30
0.0
40
3.000000000000
100
AcDbArc
50
180.000000000000
51
270.000000000000
0
LINE
5
49d
100
AcDbEntity
8
0-0
6
CONTINUOUS
62
7
100
AcDbLine
10
848.787131599865
20
2985.404213711499
30
0.0
11
873.787131599865
21
2985.404213711499
31
0.0
0
POLYLINE
5
49e
100
AcDbEntity
8
0-0
6
CONTINUOUS
62
  7
100
AcDb2dPolyline
66
1
10
0.0
20
0.0
30
0.0
70
0
0
VERTEX
5
49f
100
AcDbEntity
8
0-0
6
CONTINUOUS
62
  7
100
AcDbVertex
100
AcDb2dVertex
10
848.787131599865
20
2985.404213711499
30
0.0
0
VERTEX
5
4a0
100
AcDbEntity
8
0-0
6
CONTINUOUS
62
  7
100
AcDbVertex
100
AcDb2dVertex
10
873.787131599865
20
2985.404213711499
30
0.0
0
VERTEX
5
4a1
100
AcDbEntity
8
0-0
6
CONTINUOUS
62
  7
100
AcDbVertex
100
AcDb2dVertex
10
873.787131599865
20
3005.404213711499
30
0.0
0
SEQEND
5
4a2
100
AcDbEntity
8
0-0
0
LINE
5
4a3
100
AcDbEntity
8
0-0
6
CONTINUOUS
62
7
100
AcDbLine
10
903.787131599865
20
2980.404213711499
30
0.0
11
903.787131599865
21
3005.404213711499
31
0.0
0
LINE
5
4a4
100
AcDbEntity
8
0-0
6
CONTINUOUS
62
7
100
AcDbLine
10
878.787131599865
20
3010.404213711499
30
0.0
11
898.787131599865
21
3010.404213711499
31
0.0
0
LINE
5
4a5
100
AcDbEntity
8
0-0
6
CONTINUOUS
62
7
100
AcDbLine
10
1043.787131599866
20
2985.404213711499
30
0.0
11
1043.787131599866
21
3005.404213711499
31
0.0
0
LINE
5
4a6
100
AcDbEntity
8
0-0
6
CONTINUOUS
62
7
100
AcDbLine
10
1013.787131599866
20
2980.404213711499
30
0.0
11
1013.787131599866
21
3005.404213711499
31
0.0
0
LINE
5
4a7
100
AcDbEntity
8
0-0
6
CONTINUOUS
62
7
100
AcDbLine
10
1018.787131599866
20
3010.404213711499
30
0.0
11
1038.787131599866
21
3010.404213711499
31
0.0
0
LINE
5
4a8
100
AcDbEntity
8
0-0
6
CONTINUOUS
62
7
100
AcDbLine
10
848.787131599865
20
2970.404213711499
30
0.0
11
1068.787131599866
21
2970.404213711499
31
0.0
0
LINE
5
4a9
100
AcDbEntity
8
0-0
6
CONTINUOUS
62
7
100
AcDbLine
10
861.287131599865
20
2985.404213711499
30
0.0
11
861.287131599865
21
2975.404213711499
31
0.0
0
LINE
5
4aa
100
AcDbEntity
8
0-0
6
CONTINUOUS
62
7
100
AcDbLine
10
1056.287131599866
20
2985.404213711499
30
0.0
11
1056.287131599866
21
2975.404213711499
31
0.0
0
LINE
5
4ab
100
AcDbEntity
8
0-0
6
CONTINUOUS
62
7
100
AcDbLine
10
1043.787131599866
20
2985.404213711499
30
0.0
11
1043.787131599866
21
2980.404213711499
31
0.0
0
LINE
5
4ac
100
AcDbEntity
8
0-0
6
CONTINUOUS
62
7
100
AcDbLine
10
873.787131599865
20
2985.404213711499
30
0.0
11
873.787131599865
21
2980.404213711499
31
0.0
0
LINE
5
4ad
100
AcDbEntity
8
0-0
6
CONTINUOUS
62
7
100
AcDbLine
10
861.287131599865
20
2975.404213711499
30
0.0
11
1056.287131599866
21
2975.404213711499
31
0.0
0
LINE
5
4ae
100
AcDbEntity
8
0-0
6
CONTINUOUS
62
7
100
AcDbLine
10
873.787131599865
20
2980.404213711499
30
0.0
11
1043.787131599866
21
2980.404213711499
31
0.0
0
LINE
5
4af
100
AcDbEntity
8
0-0
6
CONTINUOUS
62
7
100
AcDbLine
10
1043.787131599866
20
2985.404213711499
30
0.0
11
1068.787131599866
21
2985.404213711499
31
0.0
0
POLYLINE
5
4b0
100
AcDbEntity
8
0-0
6
CONTINUOUS
62
  7
100
AcDb2dPolyline
66
1
10
0.0
20
0.0
30
0.0
70
0
0
VERTEX
5
4b1
100
AcDbEntity
8
0-0
6
CONTINUOUS
62
  7
100
AcDbVertex
100
AcDb2dVertex
10
1043.787131599866
20
2985.404213711499
30
0.0
0
VERTEX
5
4b2
100
AcDbEntity
8
0-0
6
CONTINUOUS
62
  7
100
AcDbVertex
100
AcDb2dVertex
10
1068.787131599866
20
2985.404213711499
30
0.0
0
VERTEX
5
4b3
100
AcDbEntity
8
0-0
6
CONTINUOUS
62
  7
100
AcDbVertex
100
AcDb2dVertex
10
1068.787131599866
20
2970.404213711499
30
0.0
0
SEQEND
5
4b4
100
AcDbEntity
8
0-0
0
LINE
5
4b5
100
AcDbEntity
8
0-0
6
CONTINUOUS
62
7
100
AcDbLine
10
848.787131599865
20
2985.404213711499
30
0.0
11
848.787131599865
21
2970.404213711499
31
0.0
0
ARC
5
4b6
100
AcDbEntity
8
0-0
6
CONTINUOUS
62
7
100
AcDbCircle
10
898.787131599865
20
3005.404213711499
30
0.0
40
5.000000000000
100
AcDbArc
50
0.000000000000
51
90.000000000000
0
ARC
5
4b7
100
AcDbEntity
8
0-0
6
CONTINUOUS
62
7
100
AcDbCircle
10
878.787131599865
20
3005.404213711499
30
0.0
40
5.000000000000
100
AcDbArc
50
90.000000000000
51
180.000000000000
0
ARC
5
4b8
100
AcDbEntity
8
0-0
6
CONTINUOUS
62
7
100
AcDbCircle
10
1038.787131599866
20
3005.404213711499
30
0.0
40
5.000000000000
100
AcDbArc
50
0.000000000000
51
90.000000000000
0
ARC
5
4b9
100
AcDbEntity
8
0-0
6
CONTINUOUS
62
7
100
AcDbCircle
10
1018.787131599866
20
3005.404213711499
30
0.0
40
5.000000000000
100
AcDbArc
50
90.000000000000
51
180.000000000000
0
ARC
5
4ba
100
AcDbEntity
8
0-0
6
CONTINUOUS
62
7
100
AcDbCircle
10
1030.649131599865
20
2815.866213711500
30
0.0
40
247.327000000000
100
AcDbArc
50
142.597893592999
51
183.513898372031
0
ARC
5
4bb
100
AcDbEntity
8
0-0
6
CONTINUOUS
62
7
100
AcDbCircle
10
465.568131599865
20
3260.217213711499
30
0.0
40
471.571000000000
100
AcDbArc
50
321.412436371091
51
324.354985905584
0
ARC
5
4bc
100
AcDbEntity
8
0-0
6
CONTINUOUS
62
7
100
AcDbCircle
10
1040.634131599866
20
2798.285213711500
30
0.0
40
256.859000000000
100
AcDbArc
50
143.493380269305
51
179.459521265988
0
ARC
5
4bd
100
AcDbEntity
8
0-0
6
CONTINUOUS
62
7
100
AcDbCircle
10
465.568131599865
20
3245.217213711499
30
0.0
40
471.571000000000
100
AcDbArc
50
321.412436371091
51
324.354985905584
0
ARC
5
4be
100
AcDbEntity
8
0-0
6
CONTINUOUS
62
7
100
AcDbCircle
10
876.940131599866
20
2798.285213711500
30
0.0
40
256.859000000000
100
AcDbArc
50
0.540478734012
51
36.506619730695
0
ARC
5
4bf
100
AcDbEntity
8
0-0
6
CONTINUOUS
62
7
100
AcDbCircle
10
1452.006131599865
20
3245.217213711499
30
0.0
40
471.571000000000
100
AcDbArc
50
215.645014094416
51
218.587563628909
0
ARC
5
4c0
100
AcDbEntity
8
0-0
6
CONTINUOUS
62
7
100
AcDbCircle
10
886.925131599865
20
2815.866213711500
30
0.0
40
247.327000000000
100
AcDbArc
50
356.486101627969
51
397.402106407001
0
ARC
5
4c1
100
AcDbEntity
8
0-0
6
CONTINUOUS
62
7
100
AcDbCircle
10
1452.006131599865
20
3260.217213711499
30
0.0
40
471.571000000000
100
AcDbArc
50
215.645014094416
51
218.587563628909
0
LINE
5
4c2
100
AcDbEntity
8
0-0
6
CONTINUOUS
62
7
100
AcDbLine
10
763.787131599865
20
3211.354862926279
30
0.0
11
763.787131599865
21
3023.885328881394
31
0.0
0
LINE
5
4c3
100
AcDbEntity
8
0-0
6
CONTINUOUS
62
7
100
AcDbLine
10
1153.787131599866
20
3211.354862926279
30
0.0
11
1153.787131599866
21
3003.280381157194
31
0.0
0
ELLIPSE
  5
4c4
100
AcDbEntity
8
0-0
6
CONTINUOUS
62
7
100
AcDbEllipse
10
958.787131599865
20
2804.313258493024
30
0.0
11
0.000000001408
21
275.805000000000
31
0.0
210
0.0
220
0.0
230
1.0
40
0.634505000000
41
1.570796326780
42
4.712388980359
0
ELLIPSE
  5
4c5
100
AcDbEntity
8
0-0
6
CONTINUOUS
62
7
100
AcDbEllipse
10
958.086884246755
20
2885.243507691289
30
0.0
11
0.000000000000
21
359.787000000000
31
0.0
210
0.0
220
0.0
230
1.0
40
0.541987000000
41
1.570796326780
42
4.712388980359
0
LINE
5
4c6
100
AcDbEntity
8
0-0
6
CONTINUOUS
62
7
100
AcDbLine
10
763.787131599865
20
3020.169020904752
30
0.0
11
763.787131599865
21
2884.076072545255
31
0.0
0
LINE
5
4c7
100
AcDbEntity
8
0-0
6
CONTINUOUS
62
7
100
AcDbLine
10
1153.787131599866
20
3012.656293439807
30
0.0
11
1153.787131599866
21
2884.076072545255
31
0.0
0
ARC
5
4c8
100
AcDbEntity
8
0-0
6
CONTINUOUS
62
7
100
AcDbCircle
10
759.515862247344
20
3156.577098107577
30
0.0
40
5.560000000000
100
AcDbArc
50
40.632586263171
51
319.146130704979
0
LINE
5
4c9
100
AcDbEntity
8
0-0
6
CONTINUOUS
62
7
100
AcDbLine
10
2145.247958572614
20
1229.525942036373
30
0.0
11
2103.267958572615
21
1019.525942036373
31
0.0
0
LINE
5
4ca
100
AcDbEntity
8
0-0
6
CONTINUOUS
62
7
100
AcDbLine
10
2405.767958572615
20
1649.525942036373
30
0.0
11
2035.767958572615
21
1649.525942036373
31
0.0
0
LINE
5
4cb
100
AcDbEntity
8
0-0
6
CONTINUOUS
62
7
100
AcDbLine
10
2295.767958572615
20
1229.525942036373
30
0.0
11
2338.267958572615
21
1019.525942036373
31
0.0
0
POLYLINE
5
4cc
100
AcDbEntity
8
0-0
6
CONTINUOUS
62
  7
100
AcDb2dPolyline
66
1
10
0.0
20
0.0
30
0.0
70
0
0
VERTEX
5
4cd
100
AcDbEntity
8
0-0
6
CONTINUOUS
62
  7
100
AcDbVertex
100
AcDb2dVertex
10
2195.767958572615
20
1649.525942036373
30
0.0
0
VERTEX
5
4ce
100
AcDbEntity
8
0-0
6
CONTINUOUS
62
  7
100
AcDbVertex
100
AcDb2dVertex
10
2245.767958572615
20
1649.525942036373
30
0.0
0
VERTEX
5
4cf
100
AcDbEntity
8
0-0
6
CONTINUOUS
62
  7
100
AcDbVertex
100
AcDb2dVertex
10
2245.767958572615
20
1652.525942036373
30
0.0
0
VERTEX
5
4d0
100
AcDbEntity
8
0-0
6
CONTINUOUS
62
  7
100
AcDbVertex
100
AcDb2dVertex
10
2195.767958572615
20
1652.525942036373
30
0.0
0
VERTEX
5
4d1
100
AcDbEntity
8
0-0
6
CONTINUOUS
62
  7
100
AcDbVertex
100
AcDb2dVertex
10
2195.767958572615
20
1649.525942036373
30
0.0
0
SEQEND
5
4d2
100
AcDbEntity
8
0-0
0
LINE
5
4d3
100
AcDbEntity
8
0-0
6
CONTINUOUS
62
7
100
AcDbLine
10
2025.767958572615
20
1389.525942036373
30
0.0
11
2030.767958572615
21
1644.525942036373
31
0.0
0
LINE
5
4d4
100
AcDbEntity
8
0-0
6
CONTINUOUS
62
7
100
AcDbLine
10
2415.767958572615
20
1389.525942036373
30
0.0
11
2410.767958572615
21
1644.525942036373
31
0.0
0
LINE
5
4d5
100
AcDbEntity
8
0-0
6
CONTINUOUS
62
7
100
AcDbLine
10
2117.351958572614
20
1609.525942036373
30
0.0
11
2153.389958572614
21
1609.525942036373
31
0.0
0
POLYLINE
5
4d6
100
AcDbEntity
8
0-0
6
CONTINUOUS
62
  7
100
AcDb2dPolyline
66
1
10
0.0
20
0.0
30
0.0
70
0
0
VERTEX
5
4d7
100
AcDbEntity
8
0-0
6
CONTINUOUS
62
  7
100
AcDbVertex
100
AcDb2dVertex
10
2205.767958572615
20
1652.525942036373
30
0.0
0
VERTEX
5
4d8
100
AcDbEntity
8
0-0
6
CONTINUOUS
62
  7
100
AcDbVertex
100
AcDb2dVertex
10
2235.767958572615
20
1652.525942036373
30
0.0
0
VERTEX
5
4d9
100
AcDbEntity
8
0-0
6
CONTINUOUS
62
  7
100
AcDbVertex
100
AcDb2dVertex
10
2235.767958572615
20
1654.525942036373
30
0.0
0
VERTEX
5
4da
100
AcDbEntity
8
0-0
6
CONTINUOUS
62
  7
100
AcDbVertex
100
AcDb2dVertex
10
2205.767958572615
20
1654.525942036373
30
0.0
0
VERTEX
5
4db
100
AcDbEntity
8
0-0
6
CONTINUOUS
62
  7
100
AcDbVertex
100
AcDb2dVertex
10
2205.767958572615
20
1652.525942036373
30
0.0
0
SEQEND
5
4dc
100
AcDbEntity
8
0-0
0
LINE
5
4dd
100
AcDbEntity
8
0-0
6
CONTINUOUS
62
7
100
AcDbLine
10
2411.453958572614
20
1609.525942036373
30
0.0
11
2030.081958572614
21
1609.525942036373
31
0.0
0
LINE
5
4de
100
AcDbEntity
8
0-0
6
CONTINUOUS
62
7
100
AcDbLine
10
2103.267958572615
20
1019.525942036373
30
0.0
11
2338.267958572615
21
1019.525942036373
31
0.0
0
ARC
5
4df
100
AcDbEntity
8
0-0
6
CONTINUOUS
62
7
100
AcDbCircle
10
2035.767958572615
20
1644.525942036373
30
0.0
40
5.000000000000
100
AcDbArc
50
90.000000000000
51
180.000000000000
0
ARC
5
4e0
100
AcDbEntity
8
0-0
6
CONTINUOUS
62
7
100
AcDbCircle
10
2405.767958572615
20
1644.525942036373
30
0.0
40
5.000000000000
100
AcDbArc
50
0.000000000000
51
90.000000000000
0
ARC
5
4e1
100
AcDbEntity
8
0-0
6
CONTINUOUS
62
7
100
AcDbCircle
10
2198.937958572614
20
1394.229942036373
30
0.0
40
173.234000000000
100
AcDbArc
50
181.555874457218
51
251.944903598851
0
ARC
5
4e2
100
AcDbEntity
8
0-0
6
CONTINUOUS
62
7
100
AcDbCircle
10
2243.073958572614
20
1394.045942036373
30
0.0
40
172.753000000000
100
AcDbArc
50
287.759610315905
51
358.500594392062
0
ARC
5
4e3
100
AcDbEntity
8
0-0
6
CONTINUOUS
62
7
100
AcDbCircle
10
2220.507958572614
20
1048.221942036373
30
0.0
40
196.304000000000
100
AcDbArc
50
67.456000000000
51
112.544000000000
0
LINE
5
4e4
100
AcDbEntity
8
0-0
6
CONTINUOUS
62
7
100
AcDbLine
10
2055.767958572615
20
1406.617554668932
30
0.0
11
2385.767958572615
21
1406.617554668932
31
0.0
0
LINE
5
4e5
100
AcDbEntity
8
0-0
6
CONTINUOUS
62
7
100
AcDbLine
10
2045.767958572615
20
1406.617554668932
30
0.0
11
2395.767958572615
21
1406.617554668932
31
0.0
0
LINE
5
4e6
100
AcDbEntity
8
0-0
6
CONTINUOUS
62
7
100
AcDbLine
10
2052.248958572614
20
1418.617554668932
30
0.0
11
2389.286958572614
21
1418.617554668932
31
0.0
0
LINE
5
4e7
100
AcDbEntity
8
0-0
6
CONTINUOUS
62
7
100
AcDbLine
10
2049.476958572614
20
1416.629554668932
30
0.0
11
2045.767958572615
21
1406.617554668932
31
0.0
0
LINE
5
4e8
100
AcDbEntity
8
0-0
6
CONTINUOUS
62
7
100
AcDbLine
10
2392.059958572614
20
1416.629554668932
30
0.0
11
2395.767958572615
21
1406.617554668932
31
0.0
0
LINE
5
4e9
100
AcDbEntity
8
0-0
6
CONTINUOUS
62
7
100
AcDbLine
10
2410.767958572615
20
1403.617554668932
30
0.0
11
2030.767958572615
21
1403.617554668932
31
0.0
0
ARC
5
4ea
100
AcDbEntity
8
0-0
6
CONTINUOUS
62
7
100
AcDbCircle
10
2030.767958572615
20
1398.617554668932
30
0.0
40
5.000000000000
100
AcDbArc
50
90.000000000000
51
180.000000000000
0
ARC
5
4eb
100
AcDbEntity
8
0-0
6
CONTINUOUS
62
7
100
AcDbCircle
10
2410.767958572615
20
1398.617554668932
30
0.0
40
5.000000000000
100
AcDbArc
50
0.000000000000
51
90.000000000000
0
ARC
5
4ec
100
AcDbEntity
8
0-0
6
CONTINUOUS
62
7
100
AcDbCircle
10
4793.049958572615
20
1303.904554668932
30
0.0
40
2739.097000000000
100
AcDbArc
50
177.850978826010
51
177.913774998784
0
ARC
5
4ed
100
AcDbEntity
8
0-0
6
CONTINUOUS
62
7
100
AcDbCircle
10
-352.407041427386
20
1303.904554668932
30
0.0
40
2739.097000000000
100
AcDbArc
50
2.086225001215
51
2.149021173990
0
ARC
5
4ee
100
AcDbEntity
8
0-0
6
CONTINUOUS
62
7
100
AcDbCircle
10
2052.591958572614
20
1415.212554668932
30
0.0
40
3.423000000000
100
AcDbArc
50
95.757000000000
51
155.546000000000
0
ARC
5
4ef
100
AcDbEntity
8
0-0
6
CONTINUOUS
62
7
100
AcDbCircle
10
2388.943958572614
20
1415.212554668932
30
0.0
40
3.423000000000
100
AcDbArc
50
24.454000000000
51
84.243000000000
0
LINE
5
4f0
100
AcDbEntity
8
0-0
6
CONTINUOUS
62
7
100
AcDbLine
10
2045.767958572615
20
1423.599018909779
30
0.0
11
2395.767958572615
21
1423.599018909779
31
0.0
0
LINE
5
4f1
100
AcDbEntity
8
0-0
6
CONTINUOUS
62
7
100
AcDbLine
10
2110.767958572615
20
1465.599018909779
30
0.0
11
2330.767958572615
21
1465.599018909779
31
0.0
0
LINE
5
4f2
100
AcDbEntity
8
0-0
6
CONTINUOUS
62
7
100
AcDbLine
10
2052.248958572614
20
1435.599018909779
30
0.0
11
2389.286958572614
21
1435.599018909779
31
0.0
0
LINE
5
4f3
100
AcDbEntity
8
0-0
6
CONTINUOUS
62
7
100
AcDbLine
10
2049.476958572614
20
1433.611018909779
30
0.0
11
2045.767958572615
21
1423.599018909779
31
0.0
0
LINE
5
4f4
100
AcDbEntity
8
0-0
6
CONTINUOUS
62
7
100
AcDbLine
10
2392.059958572614
20
1433.611018909779
30
0.0
11
2395.767958572615
21
1423.599018909779
31
0.0
0
ARC
5
4f5
100
AcDbEntity
8
0-0
6
CONTINUOUS
62
7
100
AcDbCircle
10
2052.591958572614
20
1432.194018909779
30
0.0
40
3.423000000000
100
AcDbArc
50
95.757000000000
51
155.546000000000
0
ARC
5
4f6
100
AcDbEntity
8
0-0
6
CONTINUOUS
62
7
100
AcDbCircle
10
2388.943958572614
20
1432.194018909779
30
0.0
40
3.423000000000
100
AcDbArc
50
24.454000000000
51
84.243000000000
0
ARC
5
4f7
100
AcDbEntity
8
0-0
6
CONTINUOUS
62
7
100
AcDbCircle
10
2062.601958572614
20
1527.314018909779
30
0.0
40
78.286000000000
100
AcDbArc
50
289.267358123213
51
307.970613696087
0
ARC
5
4f8
100
AcDbEntity
8
0-0
6
CONTINUOUS
62
7
100
AcDbCircle
10
2125.027958572614
20
1330.275018909779
30
0.0
40
128.460000000000
100
AcDbArc
50
106.550599373611
51
125.408882915435
0
ARC
5
4f9
100
AcDbEntity
8
0-0
6
CONTINUOUS
62
7
100
AcDbCircle
10
2378.933958572614
20
1527.314018909779
30
0.0
40
78.286000000000
100
AcDbArc
50
232.029387382592
51
250.732642955466
0
ARC
5
4fa
100
AcDbEntity
8
0-0
6
CONTINUOUS
62
7
100
AcDbCircle
10
2316.507958572614
20
1330.275018909779
30
0.0
40
128.460000000000
100
AcDbArc
50
54.591117084564
51
73.449400626389
0
CIRCLE
5
4fb
100
AcDbEntity
8
0-0
6
CONTINUOUS
62
7
100
AcDbCircle
10
2026.476757089929
20
1118.660734175625
30
0.0
40
5.560000000000
0
ELLIPSE
  5
4fc
100
AcDbEntity
8
0-0
6
CONTINUOUS
62
7
100
AcDbEllipse
10
2026.514487836472
20
1118.943992555223
30
0.0
11
24.534999686935
21
0.000000000000
31
0.0
210
0.0
220
0.0
230
1.0
40
0.500000000000
41
0.000000000000
42
6.283185307180
0
LINE
5
4fd
100
AcDbEntity
8
0-0
6
CONTINUOUS
62
7
100
AcDbLine
10
2049.443463894440
20
1128.753011663952
30
0.0
11
2049.443463894440
21
1123.423099491059
31
0.0
0
LINE
5
4fe
100
AcDbEntity
8
0-0
6
CONTINUOUS
62
7
100
AcDbLine
10
2049.443463894440
20
1114.539912536235
30
0.0
11
2049.443463894440
21
1108.765841015601
31
0.0
0
LINE
5
4ff
100
AcDbEntity
8
0-0
6
CONTINUOUS
62
7
100
AcDbLine
10
2049.392943399910
20
1128.403578243454
30
0.0
11
2042.418308460657
21
1128.403578243454
31
0.0
0
LINE
5
500
100
AcDbEntity
8
0-0
6
CONTINUOUS
62
7
100
AcDbLine
10
2049.392943399910
20
1108.854953554562
30
0.0
11
2040.453622562276
21
1108.854953554562
31
0.0
0
ARC
5
501
100
AcDbEntity
8
0-0
6
CONTINUOUS
62
7
100
AcDbCircle
10
2055.476757089929
20
1116.187919893081
30
0.0
40
9.625929816131
100
AcDbArc
50
231.441277284353
51
241.121884214192
0
ARC
5
502
100
AcDbEntity
8
0-0
6
CONTINUOUS
62
7
100
AcDbCircle
10
2055.476757089929
20
1101.133548458169
30
0.0
40
9.625929816131
100
AcDbArc
50
113.849562743866
51
128.558722715647
0
ARC
5
503
100
AcDbEntity
8
0-0
6
CONTINUOUS
62
7
100
AcDbCircle
10
2055.476757089929
20
1121.002951248873
30
0.0
40
6.440961171922
100
AcDbArc
50
232.174319547135
51
241.180877142909
0
ARC
5
504
100
AcDbEntity
8
0-0
6
CONTINUOUS
62
7
100
AcDbCircle
10
2055.476757089929
20
1116.318517102376
30
0.0
40
6.440961171922
100
AcDbArc
50
105.766046523214
51
127.825680452866
0
ARC
5
505
100
AcDbEntity
8
0-0
6
CONTINUOUS
62
7
100
AcDbCircle
10
2055.476757089929
20
1136.187919893081
30
0.0
40
9.625929816131
100
AcDbArc
50
231.441277284353
51
265.135583784844
0
ARC
5
506
100
AcDbEntity
8
0-0
6
CONTINUOUS
62
7
100
AcDbCircle
10
2055.476757089929
20
1121.133548458169
30
0.0
40
9.625929816131
100
AcDbArc
50
88.938338516908
51
128.558722715647
0
LINE
5
507
100
AcDbEntity
8
0-0
6
CONTINUOUS
62
7
100
AcDbLine
10
2061.437161053830
20
1128.678489791481
30
0.0
11
2061.437161053830
21
1108.678489791481
31
0.0
0
ARC
5
508
100
AcDbEntity
8
0-0
6
CONTINUOUS
62
7
100
AcDbCircle
10
2055.437161053830
20
1121.020706864730
30
0.0
40
6.440961171922
100
AcDbArc
50
247.853558161491
51
338.675842246797
0
ARC
5
509
100
AcDbEntity
8
0-0
6
CONTINUOUS
62
7
100
AcDbCircle
10
2055.437161053830
20
1116.336272718233
30
0.0
40
6.440961171922
100
AcDbArc
50
21.324157753203
51
99.256721771154
0
ARC
5
50a
100
AcDbEntity
8
0-0
6
CONTINUOUS
62
7
100
AcDbCircle
10
2055.437161053830
20
1136.205675508937
30
0.0
40
9.625929816131
100
AcDbArc
50
269.680673716750
51
308.558722715647
0
ARC
5
50b
100
AcDbEntity
8
0-0
6
CONTINUOUS
62
7
100
AcDbCircle
10
2055.437161053830
20
1121.151304074026
30
0.0
40
9.625929816131
100
AcDbArc
50
51.441277284353
51
83.776800519061
0
ARC
5
50c
100
AcDbEntity
8
0-0
6
CONTINUOUS
62
7
100
AcDbCircle
10
2055.437161053830
20
1101.151304074025
30
0.0
40
9.625929816131
100
AcDbArc
50
51.441277284353
51
111.758290770572
0
ARC
5
50d
100
AcDbEntity
8
0-0
6
CONTINUOUS
62
7
100
AcDbCircle
10
2055.437161053830
20
1116.205675508937
30
0.0
40
9.625929816131
100
AcDbArc
50
246.022874964782
51
308.558722715647
0
LINE
5
50e
100
AcDbEntity
8
0-0
6
CONTINUOUS
62
7
100
AcDbLine
10
2000.767958572615
20
1580.351603957224
30
0.0
11
2000.767958572615
21
1562.351603957223
31
0.0
0
LINE
5
50f
100
AcDbEntity
8
0-0
6
CONTINUOUS
62
7
100
AcDbLine
10
2006.767958572614
20
1583.351603957223
30
0.0
11
2006.767958572614
21
1559.351603957224
31
0.0
0
LINE
5
510
100
AcDbEntity
8
0-0
6
CONTINUOUS
62
7
100
AcDbLine
10
2029.493958572614
20
1586.351603957224
30
0.0
11
2009.767958572614
21
1586.351603957224
31
0.0
0
LINE
5
511
100
AcDbEntity
8
0-0
6
CONTINUOUS
62
7
100
AcDbLine
10
2028.904958572614
20
1556.351603957224
30
0.0
11
2009.767958572614
21
1556.351603957224
31
0.0
0
LINE
5
512
100
AcDbEntity
8
0-0
6
CONTINUOUS
62
7
100
AcDbLine
10
2006.767958572614
20
1559.351603957224
30
0.0
11
2003.767958572614
21
1559.351603957224
31
0.0
0
LINE
5
513
100
AcDbEntity
8
0-0
6
CONTINUOUS
62
7
100
AcDbLine
10
2006.767958572614
20
1583.351603957223
30
0.0
11
2003.767958572614
21
1583.351603957223
31
0.0
0
ARC
5
514
100
AcDbEntity
8
0-0
6
CONTINUOUS
62
7
100
AcDbCircle
10
2009.767958572614
20
1583.351603957223
30
0.0
40
3.000000000000
100
AcDbArc
50
90.000000000000
51
180.000000000000
0
ARC
5
515
100
AcDbEntity
8
0-0
6
CONTINUOUS
62
7
100
AcDbCircle
10
2009.767958572614
20
1559.351603957224
30
0.0
40
3.000000000000
100
AcDbArc
50
180.000000000000
51
270.000000000000
0
ARC
5
516
100
AcDbEntity
8
0-0
6
CONTINUOUS
62
7
100
AcDbCircle
10
2003.767958572614
20
1562.351603957223
30
0.0
40
3.000000000000
100
AcDbArc
50
180.000000000000
51
270.000000000000
0
ARC
5
517
100
AcDbEntity
8
0-0
6
CONTINUOUS
62
7
100
AcDbCircle
10
2003.767958572614
20
1580.351603957224
30
0.0
40
3.000000000000
100
AcDbArc
50
90.000000000000
51
180.000000000000
0
POLYLINE
5
518
100
AcDbEntity
8
0-0
6
CONTINUOUS
62
  7
100
AcDb2dPolyline
66
1
10
0.0
20
0.0
30
0.0
70
0
0
VERTEX
5
519
100
AcDbEntity
8
0-0
6
CONTINUOUS
62
  7
100
AcDbVertex
100
AcDb2dVertex
10
2061.040013637686
20
1126.733560868521
30
0.0
0
VERTEX
5
51a
100
AcDbEntity
8
0-0
6
CONTINUOUS
62
  7
100
AcDbVertex
100
AcDb2dVertex
10
2065.794776795797
20
1125.943760552851
30
0.0
0
VERTEX
5
51b
100
AcDbEntity
8
0-0
6
CONTINUOUS
62
  7
100
AcDbVertex
100
AcDb2dVertex
10
2073.982516888025
20
1124.685221162361
30
0.0
0
VERTEX
5
51c
100
AcDbEntity
8
0-0
6
CONTINUOUS
62
  7
100
AcDbVertex
100
AcDb2dVertex
10
2082.142125253157
20
1123.713307582146
30
0.0
0
VERTEX
5
51d
100
AcDbEntity
8
0-0
6
CONTINUOUS
62
  7
100
AcDbVertex
100
AcDb2dVertex
10
2090.255797000626
20
1123.209428552884
30
0.0
0
VERTEX
5
51e
100
AcDbEntity
8
0-0
6
CONTINUOUS
62
  7
100
AcDbVertex
100
AcDb2dVertex
10
2098.305727239863
20
1123.354992815256
30
0.0
0
VERTEX
5
51f
100
AcDbEntity
8
0-0
6
CONTINUOUS
62
  7
100
AcDbVertex
100
AcDb2dVertex
10
2106.274111080303
20
1124.331409109942
30
0.0
0
VERTEX
5
520
100
AcDbEntity
8
0-0
6
CONTINUOUS
62
  7
100
AcDbVertex
100
AcDb2dVertex
10
2110.851393095090
20
1125.349911439148
30
0.0
0
VERTEX
5
521
100
AcDbEntity
8
0-0
6
CONTINUOUS
62
  7
100
AcDbVertex
100
AcDb2dVertex
10
2114.140137347241
20
1126.316939991339
30
0.0
0
VERTEX
5
522
100
AcDbEntity
8
0-0
6
CONTINUOUS
62
  7
100
AcDbVertex
100
AcDb2dVertex
10
2119.713397267735
20
1128.432806840299
30
0.0
0
VERTEX
5
523
100
AcDbEntity
8
0-0
6
CONTINUOUS
62
  7
100
AcDbVertex
100
AcDb2dVertex
10
2125.085927776848
20
1131.094919008274
30
0.0
0
VERTEX
5
524
100
AcDbEntity
8
0-0
6
CONTINUOUS
62
  7
100
AcDbVertex
100
AcDb2dVertex
10
2125.273284512087
20
1131.212295481801
30
0.0
0
SEQEND
5
525
100
AcDbEntity
8
0-0
0
POLYLINE
5
526
100
AcDbEntity
8
0-0
6
CONTINUOUS
62
  7
100
AcDb2dPolyline
66
1
10
0.0
20
0.0
30
0.0
70
0
0
VERTEX
5
527
100
AcDbEntity
8
0-0
6
CONTINUOUS
62
  7
100
AcDbVertex
100
AcDb2dVertex
10
2061.686109815763
20
1110.843160819918
30
0.0
0
VERTEX
5
528
100
AcDbEntity
8
0-0
6
CONTINUOUS
62
  7
100
AcDbVertex
100
AcDb2dVertex
10
2066.440872973873
20
1110.053360504249
30
0.0
0
VERTEX
5
529
100
AcDbEntity
8
0-0
6
CONTINUOUS
62
  7
100
AcDbVertex
100
AcDb2dVertex
10
2074.628613066102
20
1108.794821113759
30
0.0
0
VERTEX
5
52a
100
AcDbEntity
8
0-0
6
CONTINUOUS
62
  7
100
AcDbVertex
100
AcDb2dVertex
10
2082.788221431234
20
1107.822907533543
30
0.0
0
VERTEX
5
52b
100
AcDbEntity
8
0-0
6
CONTINUOUS
62
  7
100
AcDbVertex
100
AcDb2dVertex
10
2090.901893178703
20
1107.319028504282
30
0.0
0
VERTEX
5
52c
100
AcDbEntity
8
0-0
6
CONTINUOUS
62
  7
100
AcDbVertex
100
AcDb2dVertex
10
2098.951823417940
20
1107.464592766654
30
0.0
0
VERTEX
5
52d
100
AcDbEntity
8
0-0
6
CONTINUOUS
62
  7
100
AcDbVertex
100
AcDb2dVertex
10
2106.920207258379
20
1108.441009061339
30
0.0
0
VERTEX
5
52e
100
AcDbEntity
8
0-0
6
CONTINUOUS
62
  7
100
AcDbVertex
100
AcDb2dVertex
10
2111.497489273167
20
1109.459511390546
30
0.0
0
VERTEX
5
52f
100
AcDbEntity
8
0-0
6
CONTINUOUS
62
  7
100
AcDbVertex
100
AcDb2dVertex
10
2114.786233525318
20
1110.426539942737
30
0.0
0
VERTEX
5
530
100
AcDbEntity
8
0-0
6
CONTINUOUS
62
  7
100
AcDbVertex
100
AcDb2dVertex
10
2120.359493445812
20
1112.542406791696
30
0.0
0
VERTEX
5
531
100
AcDbEntity
8
0-0
6
CONTINUOUS
62
  7
100
AcDbVertex
100
AcDb2dVertex
10
2122.101395416176
20
1113.405526772655
30
0.0
0
SEQEND
5
532
100
AcDbEntity
8
0-0
0
LINE
5
533
100
AcDbEntity
8
0-0
6
CONTINUOUS
62
7
100
AcDbLine
10
2033.415746022793
20
2615.469949484655
30
0.0
11
2033.415746022793
21
2625.270301113186
31
0.0
0
LINE
5
534
100
AcDbEntity
8
0-0
6
CONTINUOUS
62
7
100
AcDbLine
10
2058.465278188316
20
2526.953463588860
30
0.0
11
2002.859590203454
21
2526.953463588860
31
0.0
0
LINE
5
535
100
AcDbEntity
8
0-0
6
CONTINUOUS
62
7
100
AcDbLine
10
2041.955978007652
20
2602.553728875217
30
0.0
11
2016.955978007652
21
2602.553728875217
31
0.0
0
LINE
5
536
100
AcDbEntity
8
0-0
6
CONTINUOUS
62
7
100
AcDbLine
10
2045.415746022793
20
2538.745970673861
30
0.0
11
2013.415746022793
21
2538.745970673861
31
0.0
0
ARC
5
537
100
AcDbEntity
8
0-0
6
CONTINUOUS
62
7
100
AcDbCircle
10
2013.415746022793
20
2526.745970673861
30
0.0
40
12.000000000000
100
AcDbArc
50
90.000000000000
51
180.000000000000
0
ARC
5
538
100
AcDbEntity
8
0-0
6
CONTINUOUS
62
7
100
AcDbCircle
10
2045.415746022793
20
2526.745970673861
30
0.0
40
12.000000000000
100
AcDbArc
50
0.000000000000
51
90.000000000000
0
LINE
5
539
100
AcDbEntity
8
0-0
6
CONTINUOUS
62
7
100
AcDbLine
10
2057.167452225352
20
2527.028673843817
30
0.0
11
2001.561764240490
21
2527.028673843817
31
0.0
0
LINE
5
53a
100
AcDbEntity
8
0-0
6
CONTINUOUS
62
7
100
AcDbLine
10
2016.955978007652
20
2573.261263092087
30
0.0
11
2041.955978007652
21
2573.261263092087
31
0.0
0
LINE
5
53b
100
AcDbEntity
8
0-0
6
CONTINUOUS
62
7
100
AcDbLine
10
2041.955978007652
20
2565.261263092087
30
0.0
11
2016.955978007652
21
2565.261263092087
31
0.0
0
ARC
5
53c
100
AcDbEntity
8
0-0
6
CONTINUOUS
62
7
100
AcDbCircle
10
2029.406718260726
20
2569.300941019173
30
0.0
40
13.134414676531
100
AcDbArc
50
342.276763383114
51
377.297564485525
0
ARC
5
53d
100
AcDbEntity
8
0-0
6
CONTINUOUS
62
7
100
AcDbCircle
10
2029.406718260726
20
2569.300941019173
30
0.0
40
13.134414676531
100
AcDbArc
50
162.521885466274
51
198.017609214690
0
CIRCLE
5
53e
100
AcDbEntity
8
0-0
6
CONTINUOUS
62
7
100
AcDbCircle
10
2029.423176468019
20
2569.288223313537
30
0.0
40
3.389457447208
0
ARC
5
53f
100
AcDbEntity
8
0-0
6
CONTINUOUS
62
7
100
AcDbCircle
10
2016.754582580483
20
2569.284959772803
30
0.0
40
3.389457447208
100
AcDbArc
50
269.971509582607
51
449.978070214998
0
ARC
5
540
100
AcDbEntity
8
0-0
6
CONTINUOUS
62
7
100
AcDbCircle
10
2042.063943423261
20
2569.298724025457
30
0.0
40
3.389457447208
100
AcDbArc
50
90.339830380176
51
269.767752220994
0
LINE
5
541
100
AcDbEntity
8
0-0
6
CONTINUOUS
62
7
100
AcDbLine
10
2021.415746022793
20
2539.223264188877
30
0.0
11
2021.415746022793
21
2565.122841751695
31
0.0
0
LINE
5
542
100
AcDbEntity
8
0-0
6
CONTINUOUS
62
7
100
AcDbLine
10
2037.415746022793
20
2538.975034808221
30
0.0
11
2037.415746022793
21
2565.188721415847
31
0.0
0
ARC
5
543
100
AcDbEntity
8
0-0
6
CONTINUOUS
62
7
100
AcDbCircle
10
2033.735746022793
20
2634.227432574608
30
0.0
40
3.240000000000
100
AcDbArc
50
0.000000000000
51
90.000000000000
0
ARC
5
544
100
AcDbEntity
8
0-0
6
CONTINUOUS
62
7
100
AcDbCircle
10
2025.095746022794
20
2634.227432574608
30
0.0
40
3.240000000000
100
AcDbArc
50
90.000000000000
51
180.000000000000
0
LINE
5
545
100
AcDbEntity
8
0-0
6
CONTINUOUS
62
7
100
AcDbLine
10
2033.735746022793
20
2637.467432574610
30
0.0
11
2025.095746022794
21
2637.467432574610
31
0.0
0
ARC
5
546
100
AcDbEntity
8
0-0
6
CONTINUOUS
62
7
100
AcDbCircle
10
2007.524792936263
20
2628.198067375698
30
0.0
40
3.000000000000
100
AcDbArc
50
180.000000000000
51
270.000000000000
0
LINE
5
547
100
AcDbEntity
8
0-0
6
CONTINUOUS
62
7
100
AcDbLine
10
2004.524792936262
20
2631.198067375697
30
0.0
11
2004.524792936262
21
2628.198067375698
31
0.0
0
ARC
5
548
100
AcDbEntity
8
0-0
6
CONTINUOUS
62
7
100
AcDbCircle
10
2007.524792936263
20
2631.198067375697
30
0.0
40
3.000000000000
100
AcDbArc
50
90.000000000000
51
180.000000000000
0
LINE
5
549
100
AcDbEntity
8
0-0
6
CONTINUOUS
62
7
100
AcDbLine
10
2051.524792936262
20
2625.198067375697
30
0.0
11
2007.524792936263
21
2625.198067375697
31
0.0
0
ARC
5
54a
100
AcDbEntity
8
0-0
6
CONTINUOUS
62
7
100
AcDbCircle
10
2051.524792936262
20
2628.198067375698
30
0.0
40
3.000000000000
100
AcDbArc
50
270.000000000000
51
360.000000000000
0
LINE
5
54b
100
AcDbEntity
8
0-0
6
CONTINUOUS
62
7
100
AcDbLine
10
2054.524792936262
20
2631.198067375697
30
0.0
11
2054.524792936262
21
2628.198067375698
31
0.0
0
LINE
5
54c
100
AcDbEntity
8
0-0
6
CONTINUOUS
62
7
100
AcDbLine
10
2051.524792936262
20
2634.198067375698
30
0.0
11
2007.524792936263
21
2634.198067375698
31
0.0
0
ARC
5
54d
100
AcDbEntity
8
0-0
6
CONTINUOUS
62
7
100
AcDbCircle
10
2051.524792936262
20
2631.198067375697
30
0.0
40
3.000000000000
100
AcDbArc
50
0.000000000000
51
90.000000000000
0
LINE
5
54e
100
AcDbEntity
8
0-0
6
CONTINUOUS
62
7
100
AcDbLine
10
2064.422132975851
20
2577.617676753112
30
0.0
11
2064.422132975852
21
2597.617676753112
31
0.0
0
LINE
5
54f
100
AcDbEntity
8
0-0
6
CONTINUOUS
62
7
100
AcDbLine
10
2050.422132975852
20
2578.732606066371
30
0.0
11
2050.422132975852
21
2596.502747439850
31
0.0
0
LINE
5
550
100
AcDbEntity
8
0-0
6
CONTINUOUS
62
7
100
AcDbLine
10
2052.422132975852
20
2577.617676753112
30
0.0
11
2052.422132975852
21
2597.617676753112
31
0.0
0
ARC
5
551
100
AcDbEntity
8
0-0
6
CONTINUOUS
62
7
100
AcDbCircle
10
2058.422132975852
20
2570.090491035653
30
0.0
40
9.625929816131
100
AcDbArc
50
51.441277284353
51
128.558722715647
0
ARC
5
552
100
AcDbEntity
8
0-0
6
CONTINUOUS
62
7
100
AcDbCircle
10
2058.422132975852
20
2585.275459679864
30
0.0
40
6.440961171922
100
AcDbArc
50
21.324157753203
51
158.675842246797
0
ARC
5
553
100
AcDbEntity
8
0-0
6
CONTINUOUS
62
7
100
AcDbCircle
10
2058.422132975852
20
2589.959893826357
30
0.0
40
6.440961171922
100
AcDbArc
50
201.324157753203
51
338.675842246797
0
ARC
5
554
100
AcDbEntity
8
0-0
6
CONTINUOUS
62
7
100
AcDbCircle
10
2058.422132975852
20
2585.144862470568
30
0.0
40
9.625929816131
100
AcDbArc
50
231.441277284353
51
308.558722715647
0
ARC
5
555
100
AcDbEntity
8
0-0
6
CONTINUOUS
62
7
100
AcDbCircle
10
2058.422132975852
20
2605.144862470568
30
0.0
40
9.625929816131
100
AcDbArc
50
231.441277284353
51
308.558722715647
0
ARC
5
556
100
AcDbEntity
8
0-0
6
CONTINUOUS
62
7
100
AcDbCircle
10
2058.422132975852
20
2590.090491035653
30
0.0
40
9.625929816131
100
AcDbArc
50
51.441277284353
51
128.558722715647
0
POLYLINE
5
557
100
AcDbEntity
8
0-0
6
CONTINUOUS
62
  7
100
AcDb2dPolyline
66
1
10
0.0
20
0.0
30
0.0
70
0
0
VERTEX
5
558
100
AcDbEntity
8
0-0
6
CONTINUOUS
62
  7
100
AcDbVertex
100
AcDb2dVertex
10
2041.870308762054
20
2573.295805158685
30
0.0
0
VERTEX
5
559
100
AcDbEntity
8
0-0
6
CONTINUOUS
62
  7
100
AcDbVertex
100
AcDb2dVertex
10
2042.023084199859
20
2573.445147905899
30
0.0
0
VERTEX
5
55a
100
AcDbEntity
8
0-0
6
CONTINUOUS
62
  7
100
AcDbVertex
100
AcDb2dVertex
10
2042.286582298861
20
2573.702353328741
30
0.0
0
VERTEX
5
55b
100
AcDbEntity
8
0-0
6
CONTINUOUS
62
  7
100
AcDbVertex
100
AcDb2dVertex
10
2042.550336430506
20
2573.958775217266
30
0.0
0
VERTEX
5
55c
100
AcDbEntity
8
0-0
6
CONTINUOUS
62
  7
100
AcDbVertex
100
AcDb2dVertex
10
2042.814508640771
20
2574.213917663680
30
0.0
0
VERTEX
5
55d
100
AcDbEntity
8
0-0
6
CONTINUOUS
62
  7
100
AcDbVertex
100
AcDb2dVertex
10
2043.079260975632
20
2574.467284760186
30
0.0
0
VERTEX
5
55e
100
AcDbEntity
8
0-0
6
CONTINUOUS
62
  7
100
AcDbVertex
100
AcDb2dVertex
10
2043.344755481067
20
2574.718380598989
30
0.0
0
VERTEX
5
55f
100
AcDbEntity
8
0-0
6
CONTINUOUS
62
  7
100
AcDbVertex
100
AcDb2dVertex
10
2043.611154203053
20
2574.966709272294
30
0.0
0
VERTEX
5
560
100
AcDbEntity
8
0-0
6
CONTINUOUS
62
  7
100
AcDbVertex
100
AcDb2dVertex
10
2043.878619187565
20
2575.211774872305
30
0.0
0
VERTEX
5
561
100
AcDbEntity
8
0-0
6
CONTINUOUS
62
  7
100
AcDbVertex
100
AcDb2dVertex
10
2044.147312480581
20
2575.453081491229
30
0.0
0
VERTEX
5
562
100
AcDbEntity
8
0-0
6
CONTINUOUS
62
  7
100
AcDbVertex
100
AcDb2dVertex
10
2044.417396128078
20
2575.690133221267
30
0.0
0
VERTEX
5
563
100
AcDbEntity
8
0-0
6
CONTINUOUS
62
  7
100
AcDbVertex
100
AcDb2dVertex
10
2044.689032176032
20
2575.922434154627
30
0.0
0
VERTEX
5
564
100
AcDbEntity
8
0-0
6
CONTINUOUS
62
  7
100
AcDbVertex
100
AcDb2dVertex
10
2044.962382670420
20
2576.149488383512
30
0.0
0
VERTEX
5
565
100
AcDbEntity
8
0-0
6
CONTINUOUS
62
  7
100
AcDbVertex
100
AcDb2dVertex
10
2045.237609657219
20
2576.370800000127
30
0.0
0
VERTEX
5
566
100
AcDbEntity
8
0-0
6
CONTINUOUS
62
  7
100
AcDbVertex
100
AcDb2dVertex
10
2045.514875182405
20
2576.585873096675
30
0.0
0
VERTEX
5
567
100
AcDbEntity
8
0-0
6
CONTINUOUS
62
  7
100
AcDbVertex
100
AcDb2dVertex
10
2045.794341291956
20
2576.794211765363
30
0.0
0
VERTEX
5
568
100
AcDbEntity
8
0-0
6
CONTINUOUS
62
  7
100
AcDbVertex
100
AcDb2dVertex
10
2046.076170031847
20
2576.995320098395
30
0.0
0
VERTEX
5
569
100
AcDbEntity
8
0-0
6
CONTINUOUS
62
  7
100
AcDbVertex
100
AcDb2dVertex
10
2046.360523448057
20
2577.188702187976
30
0.0
0
VERTEX
5
56a
100
AcDbEntity
8
0-0
6
CONTINUOUS
62
  7
100
AcDbVertex
100
AcDb2dVertex
10
2046.647563586561
20
2577.373862126309
30
0.0
0
VERTEX
5
56b
100
AcDbEntity
8
0-0
6
CONTINUOUS
62
  7
100
AcDbVertex
100
AcDb2dVertex
10
2046.937452493337
20
2577.550304005601
30
0.0
0
VERTEX
5
56c
100
AcDbEntity
8
0-0
6
CONTINUOUS
62
  7
100
AcDbVertex
100
AcDb2dVertex
10
2047.230352214360
20
2577.717531918054
30
0.0
0
VERTEX
5
56d
100
AcDbEntity
8
0-0
6
CONTINUOUS
62
  7
100
AcDbVertex
100
AcDb2dVertex
10
2047.526424795608
20
2577.875049955874
30
0.0
0
VERTEX
5
56e
100
AcDbEntity
8
0-0
6
CONTINUOUS
62
  7
100
AcDbVertex
100
AcDb2dVertex
10
2047.825832283058
20
2578.022362211267
30
0.0
0
VERTEX
5
56f
100
AcDbEntity
8
0-0
6
CONTINUOUS
62
  7
100
AcDbVertex
100
AcDb2dVertex
10
2048.128736722686
20
2578.158972776435
30
0.0
0
VERTEX
5
570
100
AcDbEntity
8
0-0
6
CONTINUOUS
62
  7
100
AcDbVertex
100
AcDb2dVertex
10
2048.435300160469
20
2578.284385743585
30
0.0
0
VERTEX
5
571
100
AcDbEntity
8
0-0
6
CONTINUOUS
62
  7
100
AcDbVertex
100
AcDb2dVertex
10
2048.745684642384
20
2578.398105204920
30
0.0
0
VERTEX
5
572
100
AcDbEntity
8
0-0
6
CONTINUOUS
62
  7
100
AcDbVertex
100
AcDb2dVertex
10
2049.060052214407
20
2578.499635252646
30
0.0
0
VERTEX
5
573
100
AcDbEntity
8
0-0
6
CONTINUOUS
62
  7
100
AcDbVertex
100
AcDb2dVertex
10
2049.378564922516
20
2578.588479978967
30
0.0
0
VERTEX
5
574
100
AcDbEntity
8
0-0
6
CONTINUOUS
62
  7
100
AcDbVertex
100
AcDb2dVertex
10
2049.701384812687
20
2578.664143476086
30
0.0
0
VERTEX
5
575
100
AcDbEntity
8
0-0
6
CONTINUOUS
62
  7
100
AcDbVertex
100
AcDb2dVertex
10
2050.028673930897
20
2578.726129836211
30
0.0
0
VERTEX
5
576
100
AcDbEntity
8
0-0
6
CONTINUOUS
62
  7
100
AcDbVertex
100
AcDb2dVertex
10
2050.220613274287
20
2578.755619647453
30
0.0
0
VERTEX
5
577
100
AcDbEntity
8
0-0
6
CONTINUOUS
62
  7
100
AcDbVertex
100
AcDb2dVertex
10
2050.259993590645
20
2578.761046279982
30
0.0
0
VERTEX
5
578
100
AcDbEntity
8
0-0
6
CONTINUOUS
62
  7
100
AcDbVertex
100
AcDb2dVertex
10
2050.328042439556
20
2578.769938138520
30
0.0
0
VERTEX
5
579
100
AcDbEntity
8
0-0
6
CONTINUOUS
62
  7
100
AcDbVertex
100
AcDb2dVertex
10
2050.396277570627
20
2578.778259919499
30
0.0
0
VERTEX
5
57a
100
AcDbEntity
8
0-0
6
CONTINUOUS
62
  7
100
AcDbVertex
100
AcDb2dVertex
10
2050.464692229608
20
2578.786032292883
30
0.0
0
VERTEX
5
57b
100
AcDbEntity
8
0-0
6
CONTINUOUS
62
  7
100
AcDbVertex
100
AcDb2dVertex
10
2050.533279662252
20
2578.793275928633
30
0.0
0
VERTEX
5
57c
100
AcDbEntity
8
0-0
6
CONTINUOUS
62
  7
100
AcDbVertex
100
AcDb2dVertex
10
2050.602033114311
20
2578.800011496712
30
0.0
0
VERTEX
5
57d
100
AcDbEntity
8
0-0
6
CONTINUOUS
62
  7
100
AcDbVertex
100
AcDb2dVertex
10
2050.670945831537
20
2578.806259667081
30
0.0
0
VERTEX
5
57e
100
AcDbEntity
8
0-0
6
CONTINUOUS
62
  7
100
AcDbVertex
100
AcDb2dVertex
10
2050.740011059682
20
2578.812041109703
30
0.0
0
VERTEX
5
57f
100
AcDbEntity
8
0-0
6
CONTINUOUS
62
  7
100
AcDbVertex
100
AcDb2dVertex
10
2050.809222044498
20
2578.817376494541
30
0.0
0
VERTEX
5
580
100
AcDbEntity
8
0-0
6
CONTINUOUS
62
  7
100
AcDbVertex
100
AcDb2dVertex
10
2050.878572031738
20
2578.822286491556
30
0.0
0
VERTEX
5
581
100
AcDbEntity
8
0-0
6
CONTINUOUS
62
  7
100
AcDbVertex
100
AcDb2dVertex
10
2050.948054267152
20
2578.826791770710
30
0.0
0
VERTEX
5
582
100
AcDbEntity
8
0-0
6
CONTINUOUS
62
  7
100
AcDbVertex
100
AcDb2dVertex
10
2051.017661996494
20
2578.830913001967
30
0.0
0
VERTEX
5
583
100
AcDbEntity
8
0-0
6
CONTINUOUS
62
  7
100
AcDbVertex
100
AcDb2dVertex
10
2051.087388465515
20
2578.834670855287
30
0.0
0
VERTEX
5
584
100
AcDbEntity
8
0-0
6
CONTINUOUS
62
  7
100
AcDbVertex
100
AcDb2dVertex
10
2051.157226919968
20
2578.838086000634
30
0.0
0
VERTEX
5
585
100
AcDbEntity
8
0-0
6
CONTINUOUS
62
  7
100
AcDbVertex
100
AcDb2dVertex
10
2051.227170605603
20
2578.841179107970
30
0.0
0
VERTEX
5
586
100
AcDbEntity
8
0-0
6
CONTINUOUS
62
  7
100
AcDbVertex
100
AcDb2dVertex
10
2051.297212768174
20
2578.843970847256
30
0.0
0
VERTEX
5
587
100
AcDbEntity
8
0-0
6
CONTINUOUS
62
  7
100
AcDbVertex
100
AcDb2dVertex
10
2051.367346653433
20
2578.846481888455
30
0.0
0
VERTEX
5
588
100
AcDbEntity
8
0-0
6
CONTINUOUS
62
  7
100
AcDbVertex
100
AcDb2dVertex
10
2051.437565507130
20
2578.848732901530
30
0.0
0
VERTEX
5
589
100
AcDbEntity
8
0-0
6
CONTINUOUS
62
  7
100
AcDbVertex
100
AcDb2dVertex
10
2051.507862575019
20
2578.850744556442
30
0.0
0
VERTEX
5
58a
100
AcDbEntity
8
0-0
6
CONTINUOUS
62
  7
100
AcDbVertex
100
AcDb2dVertex
10
2051.578231102852
20
2578.852537523153
30
0.0
0
VERTEX
5
58b
100
AcDbEntity
8
0-0
6
CONTINUOUS
62
  7
100
AcDbVertex
100
AcDb2dVertex
10
2051.648664336381
20
2578.854132471626
30
0.0
0
VERTEX
5
58c
100
AcDbEntity
8
0-0
6
CONTINUOUS
62
  7
100
AcDbVertex
100
AcDb2dVertex
10
2051.719155521356
20
2578.855550071824
30
0.0
0
VERTEX
5
58d
100
AcDbEntity
8
0-0
6
CONTINUOUS
62
  7
100
AcDbVertex
100
AcDb2dVertex
10
2051.789697903531
20
2578.856810993708
30
0.0
0
VERTEX
5
58e
100
AcDbEntity
8
0-0
6
CONTINUOUS
62
  7
100
AcDbVertex
100
AcDb2dVertex
10
2051.860284728658
20
2578.857935907241
30
0.0
0
VERTEX
5
58f
100
AcDbEntity
8
0-0
6
CONTINUOUS
62
  7
100
AcDbVertex
100
AcDb2dVertex
10
2051.930909242489
20
2578.858945482384
30
0.0
0
VERTEX
5
590
100
AcDbEntity
8
0-0
6
CONTINUOUS
62
  7
100
AcDbVertex
100
AcDb2dVertex
10
2052.001564690776
20
2578.859860389100
30
0.0
0
VERTEX
5
591
100
AcDbEntity
8
0-0
6
CONTINUOUS
62
  7
100
AcDbVertex
100
AcDb2dVertex
10
2052.072244319269
20
2578.860701297352
30
0.0
0
VERTEX
5
592
100
AcDbEntity
8
0-0
6
CONTINUOUS
62
  7
100
AcDbVertex
100
AcDb2dVertex
10
2052.142941373722
20
2578.861488877101
30
0.0
0
VERTEX
5
593
100
AcDbEntity
8
0-0
6
CONTINUOUS
62
  7
100
AcDbVertex
100
AcDb2dVertex
10
2052.213649099889
20
2578.862243798309
30
0.0
0
VERTEX
5
594
100
AcDbEntity
8
0-0
6
CONTINUOUS
62
  7
100
AcDbVertex
100
AcDb2dVertex
10
2052.254661809317
20
2578.862674833507
30
0.0
0
SEQEND
5
595
100
AcDbEntity
8
0-0
0
ARC
5
596
100
AcDbEntity
8
0-0
6
CONTINUOUS
62
7
100
AcDbCircle
10
2029.406718260726
20
2606.593406802303
30
0.0
40
13.134414676531
100
AcDbArc
50
342.276763383114
51
377.297564485525
0
ARC
5
597
100
AcDbEntity
8
0-0
6
CONTINUOUS
62
7
100
AcDbCircle
10
2029.406718260726
20
2606.593406802303
30
0.0
40
13.134414676531
100
AcDbArc
50
162.521885466274
51
198.017609214690
0
CIRCLE
5
598
100
AcDbEntity
8
0-0
6
CONTINUOUS
62
7
100
AcDbCircle
10
2029.423176468019
20
2606.580689096667
30
0.0
40
3.389457447208
0
ARC
5
599
100
AcDbEntity
8
0-0
6
CONTINUOUS
62
7
100
AcDbCircle
10
2016.754582580484
20
2606.577425555933
30
0.0
40
3.389457447208
100
AcDbArc
50
269.971509582607
51
449.978070214998
0
ARC
5
59a
100
AcDbEntity
8
0-0
6
CONTINUOUS
62
7
100
AcDbCircle
10
2042.063943423261
20
2606.591189808587
30
0.0
40
3.389457447208
100
AcDbArc
50
90.339830380176
51
269.767752220994
0
LINE
5
59b
100
AcDbEntity
8
0-0
6
CONTINUOUS
62
7
100
AcDbLine
10
2017.058564457266
20
2610.280112667738
30
0.0
11
2041.926440055650
21
2610.280112667738
31
0.0
0
LINE
5
59c
100
AcDbEntity
8
0-0
6
CONTINUOUS
62
7
100
AcDbLine
10
2017.215720430411
20
2573.328049759837
30
0.0
11
2017.215720430411
21
2602.477126970319
31
0.0
0
POLYLINE
5
59d
100
AcDbEntity
8
0-0
6
CONTINUOUS
62
  7
100
AcDb2dPolyline
66
1
10
0.0
20
0.0
30
0.0
70
0
0
VERTEX
5
59e
100
AcDbEntity
8
0-0
6
CONTINUOUS
62
  7
100
AcDbVertex
100
AcDb2dVertex
10
2052.333526324861
20
2596.353477444946
30
0.0
0
VERTEX
5
59f
100
AcDbEntity
8
0-0
6
CONTINUOUS
62
  7
100
AcDbVertex
100
AcDb2dVertex
10
2051.648120848647
20
2596.575310706263
30
0.0
0
VERTEX
5
5a0
100
AcDbEntity
8
0-0
6
CONTINUOUS
62
  7
100
AcDbVertex
100
AcDb2dVertex
10
2050.472412931161
20
2596.967079013802
30
0.0
0
VERTEX
5
5a1
100
AcDbEntity
8
0-0
6
CONTINUOUS
62
  7
100
AcDbVertex
100
AcDb2dVertex
10
2049.313442964212
20
2597.384672786168
30
0.0
0
VERTEX
5
5a2
100
AcDbEntity
8
0-0
6
CONTINUOUS
62
  7
100
AcDbVertex
100
AcDb2dVertex
10
2048.181804587381
20
2597.844437254264
30
0.0
0
VERTEX
5
5a3
100
AcDbEntity
8
0-0
6
CONTINUOUS
62
  7
100
AcDbVertex
100
AcDb2dVertex
10
2047.088091440247
20
2598.362717648993
30
0.0
0
VERTEX
5
5a4
100
AcDbEntity
8
0-0
6
CONTINUOUS
62
  7
100
AcDbVertex
100
AcDb2dVertex
10
2046.042897162392
20
2598.955859201259
30
0.0
0
VERTEX
5
5a5
100
AcDbEntity
8
0-0
6
CONTINUOUS
62
  7
100
AcDbVertex
100
AcDb2dVertex
10
2045.463090272004
20
2599.340623554884
30
0.0
0
VERTEX
5
5a6
100
AcDbEntity
8
0-0
6
CONTINUOUS
62
  7
100
AcDbVertex
100
AcDb2dVertex
10
2045.113781035952
20
2599.596038325014
30
0.0
0
VERTEX
5
5a7
100
AcDbEntity
8
0-0
6
CONTINUOUS
62
  7
100
AcDbVertex
100
AcDb2dVertex
10
2044.529075961628
20
2600.063490457133
30
0.0
0
VERTEX
5
5a8
100
AcDbEntity
8
0-0
6
CONTINUOUS
62
  7
100
AcDbVertex
100
AcDb2dVertex
10
2043.963076492708
20
2600.559804005314
30
0.0
0
VERTEX
5
5a9
100
AcDbEntity
8
0-0
6
CONTINUOUS
62
  7
100
AcDbVertex
100
AcDb2dVertex
10
2043.411698435874
20
2601.078677350328
30
0.0
0
VERTEX
5
5aa
100
AcDbEntity
8
0-0
6
CONTINUOUS
62
  7
100
AcDbVertex
100
AcDb2dVertex
10
2042.870857597806
20
2601.613808872949
30
0.0
0
VERTEX
5
5ab
100
AcDbEntity
8
0-0
6
CONTINUOUS
62
  7
100
AcDbVertex
100
AcDb2dVertex
10
2042.336469785183
20
2602.158896953949
30
0.0
0
VERTEX
5
5ac
100
AcDbEntity
8
0-0
6
CONTINUOUS
62
  7
100
AcDbVertex
100
AcDb2dVertex
10
2042.027872245575
20
2602.477126970319
30
0.0
0
SEQEND
5
5ad
100
AcDbEntity
8
0-0
0
POLYLINE
5
5ae
100
AcDbEntity
8
0-0
6
CONTINUOUS
62
  7
100
AcDb2dPolyline
66
1
10
0.0
20
0.0
30
0.0
70
0
0
VERTEX
5
5af
100
AcDbEntity
8
0-0
6
CONTINUOUS
62
  7
100
AcDbVertex
100
AcDb2dVertex
10
2016.886931235301
20
2610.276359468894
30
0.0
0
VERTEX
5
5b0
100
AcDbEntity
8
0-0
6
CONTINUOUS
62
  7
100
AcDbVertex
100
AcDb2dVertex
10
2017.359000329400
20
2610.551507240698
30
0.0
0
VERTEX
5
5b1
100
AcDbEntity
8
0-0
6
CONTINUOUS
62
  7
100
AcDbVertex
100
AcDb2dVertex
10
2018.170905434578
20
2611.028646488143
30
0.0
0
VERTEX
5
5b2
100
AcDbEntity
8
0-0
6
CONTINUOUS
62
  7
100
AcDbVertex
100
AcDb2dVertex
10
2018.977235189688
20
2611.513415006242
30
0.0
0
VERTEX
5
5b3
100
AcDbEntity
8
0-0
6
CONTINUOUS
62
  7
100
AcDbVertex
100
AcDb2dVertex
10
2019.774460892154
20
2612.010641447309
30
0.0
0
VERTEX
5
5b4
100
AcDbEntity
8
0-0
6
CONTINUOUS
62
  7
100
AcDbVertex
100
AcDb2dVertex
10
2020.559053839399
20
2612.525154463657
30
0.0
0
VERTEX
5
5b5
100
AcDbEntity
8
0-0
6
CONTINUOUS
62
  7
100
AcDbVertex
100
AcDb2dVertex
10
2021.327485328850
20
2613.061782707599
30
0.0
0
VERTEX
5
5b6
100
AcDbEntity
8
0-0
6
CONTINUOUS
62
  7
100
AcDbVertex
100
AcDb2dVertex
10
2021.764379920463
20
2613.385063026470
30
0.0
0
VERTEX
5
5b7
100
AcDbEntity
8
0-0
6
CONTINUOUS
62
  7
100
AcDbVertex
100
AcDb2dVertex
10
2022.014107985858
20
2613.576675680068
30
0.0
0
VERTEX
5
5b8
100
AcDbEntity
8
0-0
6
CONTINUOUS
62
  7
100
AcDbVertex
100
AcDb2dVertex
10
2022.439589547721
20
2613.913999328029
30
0.0
0
VERTEX
5
5b9
100
AcDbEntity
8
0-0
6
CONTINUOUS
62
  7
100
AcDbVertex
100
AcDb2dVertex
10
2022.859652961777
20
2614.258737132154
30
0.0
0
VERTEX
5
5ba
100
AcDbEntity
8
0-0
6
CONTINUOUS
62
  7
100
AcDbVertex
100
AcDb2dVertex
10
2023.275481229728
20
2614.609270281054
30
0.0
0
VERTEX
5
5bb
100
AcDbEntity
8
0-0
6
CONTINUOUS
62
  7
100
AcDbVertex
100
AcDb2dVertex
10
2023.688257353281
20
2614.963979963338
30
0.0
0
VERTEX
5
5bc
100
AcDbEntity
8
0-0
6
CONTINUOUS
62
  7
100
AcDbVertex
100
AcDb2dVertex
10
2024.099164334139
20
2615.321247367618
30
0.0
0
VERTEX
5
5bd
100
AcDbEntity
8
0-0
6
CONTINUOUS
62
  7
100
AcDbVertex
100
AcDb2dVertex
10
2024.337100106043
20
2615.528996514453
30
0.0
0
SEQEND
5
5be
100
AcDbEntity
8
0-0
0
LINE
5
5bf
100
AcDbEntity
8
0-0
6
CONTINUOUS
62
7
100
AcDbLine
10
2034.415746022793
20
2615.559081390435
30
0.0
11
2024.415746022793
21
2615.559081390435
31
0.0
0
POLYLINE
5
5c0
100
AcDbEntity
8
0-0
6
CONTINUOUS
62
  7
100
AcDb2dPolyline
66
1
10
0.0
20
0.0
30
0.0
70
0
0
VERTEX
5
5c1
100
AcDbEntity
8
0-0
6
CONTINUOUS
62
  7
100
AcDbVertex
100
AcDb2dVertex
10
2042.024551381905
20
2610.329957806093
30
0.0
0
VERTEX
5
5c2
100
AcDbEntity
8
0-0
6
CONTINUOUS
62
  7
100
AcDbVertex
100
AcDb2dVertex
10
2041.532985839486
20
2610.588644717247
30
0.0
0
VERTEX
5
5c3
100
AcDbEntity
8
0-0
6
CONTINUOUS
62
  7
100
AcDbVertex
100
AcDb2dVertex
10
2040.688147788111
20
2611.038399422248
30
0.0
0
VERTEX
5
5c4
100
AcDbEntity
8
0-0
6
CONTINUOUS
62
  7
100
AcDbVertex
100
AcDb2dVertex
10
2039.850778475344
20
2611.498550763971
30
0.0
0
VERTEX
5
5c5
100
AcDbEntity
8
0-0
6
CONTINUOUS
62
  7
100
AcDbVertex
100
AcDb2dVertex
10
2039.025604950936
20
2611.975678892239
30
0.0
0
VERTEX
5
5c6
100
AcDbEntity
8
0-0
6
CONTINUOUS
62
  7
100
AcDbVertex
100
AcDb2dVertex
10
2038.217354264640
20
2612.476363956873
30
0.0
0
VERTEX
5
5c7
100
AcDbEntity
8
0-0
6
CONTINUOUS
62
  7
100
AcDbVertex
100
AcDb2dVertex
10
2037.430753466207
20
2613.007186107700
30
0.0
0
VERTEX
5
5c8
100
AcDbEntity
8
0-0
6
CONTINUOUS
62
  7
100
AcDbVertex
100
AcDb2dVertex
10
2036.986307685144
20
2613.331464689270
30
0.0
0
VERTEX
5
5c9
100
AcDbEntity
8
0-0
6
CONTINUOUS
62
  7
100
AcDbVertex
100
AcDb2dVertex
10
2036.728610449132
20
2613.528925251386
30
0.0
0
VERTEX
5
5ca
100
AcDbEntity
8
0-0
6
CONTINUOUS
62
  7
100
AcDbVertex
100
AcDb2dVertex
10
2036.291372347745
20
2613.879212570092
30
0.0
0
VERTEX
5
5cb
100
AcDbEntity
8
0-0
6
CONTINUOUS
62
  7
100
AcDbVertex
100
AcDb2dVertex
10
2035.861666136013
20
2614.239984433067
30
0.0
0
VERTEX
5
5cc
100
AcDbEntity
8
0-0
6
CONTINUOUS
62
  7
100
AcDbVertex
100
AcDb2dVertex
10
2035.437847296544
20
2614.608951638505
30
0.0
0
VERTEX
5
5cd
100
AcDbEntity
8
0-0
6
CONTINUOUS
62
  7
100
AcDbVertex
100
AcDb2dVertex
10
2035.018271311946
20
2614.983824984601
30
0.0
0
VERTEX
5
5ce
100
AcDbEntity
8
0-0
6
CONTINUOUS
62
  7
100
AcDbVertex
100
AcDb2dVertex
10
2034.601293664828
20
2615.362315269550
30
0.0
0
VERTEX
5
5cf
100
AcDbEntity
8
0-0
6
CONTINUOUS
62
  7
100
AcDbVertex
100
AcDb2dVertex
10
2034.359989162365
20
2615.582594851652
30
0.0
0
SEQEND
5
5d0
100
AcDbEntity
8
0-0
0
LINE
5
5d1
100
AcDbEntity
8
0-0
6
CONTINUOUS
62
7
100
AcDbLine
10
2025.415746022793
20
2615.537207637025
30
0.0
11
2025.415746022793
21
2625.270301113186
31
0.0
0
POLYLINE
5
5d2
100
AcDbEntity
8
0-0
6
CONTINUOUS
62
  7
100
AcDb2dPolyline
66
1
10
0.0
20
0.0
30
0.0
70
0
0
VERTEX
5
5d3
100
AcDbEntity
8
0-0
6
CONTINUOUS
62
  7
100
AcDbVertex
100
AcDb2dVertex
10
2064.427076115268
20
2595.471594054310
30
0.0
0
VERTEX
5
5d4
100
AcDbEntity
8
0-0
6
CONTINUOUS
62
  7
100
AcDbVertex
100
AcDb2dVertex
10
2066.905656331627
20
2595.221339300155
30
0.0
0
VERTEX
5
5d5
100
AcDbEntity
8
0-0
6
CONTINUOUS
62
  7
100
AcDbVertex
100
AcDb2dVertex
10
2071.177389063059
20
2594.820439037188
30
0.0
0
VERTEX
5
5d6
100
AcDbEntity
8
0-0
6
CONTINUOUS
62
  7
100
AcDbVertex
100
AcDb2dVertex
10
2075.444451142535
20
2594.504465027257
30
0.0
0
VERTEX
5
5d7
100
AcDbEntity
8
0-0
6
CONTINUOUS
62
  7
100
AcDbVertex
100
AcDb2dVertex
10
2079.703886461217
20
2594.327168063424
30
0.0
0
VERTEX
5
5d8
100
AcDbEntity
8
0-0
6
CONTINUOUS
62
  7
100
AcDbVertex
100
AcDb2dVertex
10
2083.952738910275
20
2594.342298938750
30
0.0
0
VERTEX
5
5d9
100
AcDbEntity
8
0-0
6
CONTINUOUS
62
  7
100
AcDbVertex
100
AcDb2dVertex
10
2088.188052380874
20
2594.603608446297
30
0.0
0
VERTEX
5
5da
100
AcDbEntity
8
0-0
6
CONTINUOUS
62
  7
100
AcDbVertex
100
AcDb2dVertex
10
2090.637165773293
20
2594.889147617465
30
0.0
0
VERTEX
5
5db
100
AcDbEntity
8
0-0
6
CONTINUOUS
62
  7
100
AcDbVertex
100
AcDb2dVertex
10
2092.860186279168
20
2595.243981438708
30
0.0
0
VERTEX
5
5dc
100
AcDbEntity
8
0-0
6
CONTINUOUS
62
  7
100
AcDbVertex
100
AcDb2dVertex
10
2096.667414241103
20
2596.067606259531
30
0.0
0
VERTEX
5
5dd
100
AcDbEntity
8
0-0
6
CONTINUOUS
62
  7
100
AcDbVertex
100
AcDb2dVertex
10
2100.421642573891
20
2597.152078439345
30
0.0
0
VERTEX
5
5de
100
AcDbEntity
8
0-0
6
CONTINUOUS
62
  7
100
AcDbVertex
100
AcDb2dVertex
10
2104.098874083960
20
2598.488900838320
30
0.0
0
VERTEX
5
5df
100
AcDbEntity
8
0-0
6
CONTINUOUS
62
  7
100
AcDbVertex
100
AcDb2dVertex
10
2107.675111577735
20
2600.069576316625
30
0.0
0
VERTEX
5
5e0
100
AcDbEntity
8
0-0
6
CONTINUOUS
62
  7
100
AcDbVertex
100
AcDb2dVertex
10
2111.126357861642
20
2601.885607734432
30
0.0
0
VERTEX
5
5e1
100
AcDbEntity
8
0-0
6
CONTINUOUS
62
  7
100
AcDbVertex
100
AcDb2dVertex
10
2113.061353591825
20
2603.043397733295
30
0.0
0
VERTEX
5
5e2
100
AcDbEntity
8
0-0
6
CONTINUOUS
62
  7
100
AcDbVertex
100
AcDb2dVertex
10
2114.376348367263
20
2603.892656484239
30
0.0
0
VERTEX
5
5e3
100
AcDbEntity
8
0-0
6
CONTINUOUS
62
  7
100
AcDbVertex
100
AcDb2dVertex
10
2116.588556867654
20
2605.431855593544
30
0.0
0
VERTEX
5
5e4
100
AcDbEntity
8
0-0
6
CONTINUOUS
62
  7
100
AcDbVertex
100
AcDb2dVertex
10
2118.742125818197
20
2607.050940282386
30
0.0
0
VERTEX
5
5e5
100
AcDbEntity
8
0-0
6
CONTINUOUS
62
  7
100
AcDbVertex
100
AcDb2dVertex
10
2120.849858614055
20
2608.732468284489
30
0.0
0
VERTEX
5
5e6
100
AcDbEntity
8
0-0
6
CONTINUOUS
62
  7
100
AcDbVertex
100
AcDb2dVertex
10
2122.924558650390
20
2610.458997333580
30
0.0
0
VERTEX
5
5e7
100
AcDbEntity
8
0-0
6
CONTINUOUS
62
  7
100
AcDbVertex
100
AcDb2dVertex
10
2124.979029322369
20
2612.213085163383
30
0.0
0
VERTEX
5
5e8
100
AcDbEntity
8
0-0
6
CONTINUOUS
62
  7
100
AcDbVertex
100
AcDb2dVertex
10
2126.166398420838
20
2613.236210378082
30
0.0
0
SEQEND
5
5e9
100
AcDbEntity
8
0-0
0
POLYLINE
5
5ea
100
AcDbEntity
8
0-0
6
CONTINUOUS
62
  7
100
AcDb2dPolyline
66
1
10
0.0
20
0.0
30
0.0
70
0
0
VERTEX
5
5eb
100
AcDbEntity
8
0-0
6
CONTINUOUS
62
  7
100
AcDbVertex
100
AcDb2dVertex
10
2064.589218440929
20
2578.388311956369
30
0.0
0
VERTEX
5
5ec
100
AcDbEntity
8
0-0
6
CONTINUOUS
62
  7
100
AcDbVertex
100
AcDb2dVertex
10
2067.067798657288
20
2578.138057202214
30
0.0
0
VERTEX
5
5ed
100
AcDbEntity
8
0-0
6
CONTINUOUS
62
  7
100
AcDbVertex
100
AcDb2dVertex
10
2071.339531388720
20
2577.737156939247
30
0.0
0
VERTEX
5
5ee
100
AcDbEntity
8
0-0
6
CONTINUOUS
62
  7
100
AcDbVertex
100
AcDb2dVertex
10
2075.606593468195
20
2577.421182929316
30
0.0
0
VERTEX
5
5ef
100
AcDbEntity
8
0-0
6
CONTINUOUS
62
  7
100
AcDbVertex
100
AcDb2dVertex
10
2079.866028786878
20
2577.243885965484
30
0.0
0
VERTEX
5
5f0
100
AcDbEntity
8
0-0
6
CONTINUOUS
62
  7
100
AcDbVertex
100
AcDb2dVertex
10
2084.114881235936
20
2577.259016840811
30
0.0
0
VERTEX
5
5f1
100
AcDbEntity
8
0-0
6
CONTINUOUS
62
  7
100
AcDbVertex
100
AcDb2dVertex
10
2088.350194706535
20
2577.520326348356
30
0.0
0
VERTEX
5
5f2
100
AcDbEntity
8
0-0
6
CONTINUOUS
62
  7
100
AcDbVertex
100
AcDb2dVertex
10
2090.799308098954
20
2577.805865519525
30
0.0
0
VERTEX
5
5f3
100
AcDbEntity
8
0-0
6
CONTINUOUS
62
  7
100
AcDbVertex
100
AcDb2dVertex
10
2093.022328604830
20
2578.160699340768
30
0.0
0
VERTEX
5
5f4
100
AcDbEntity
8
0-0
6
CONTINUOUS
62
  7
100
AcDbVertex
100
AcDb2dVertex
10
2096.829556566764
20
2578.984324161591
30
0.0
0
VERTEX
5
5f5
100
AcDbEntity
8
0-0
6
CONTINUOUS
62
  7
100
AcDbVertex
100
AcDb2dVertex
10
2100.583784899553
20
2580.068796341404
30
0.0
0
VERTEX
5
5f6
100
AcDbEntity
8
0-0
6
CONTINUOUS
62
  7
100
AcDbVertex
100
AcDb2dVertex
10
2104.261016409621
20
2581.405618740379
30
0.0
0
VERTEX
5
5f7
100
AcDbEntity
8
0-0
6
CONTINUOUS
62
  7
100
AcDbVertex
100
AcDb2dVertex
10
2107.837253903395
20
2582.986294218685
30
0.0
0
VERTEX
5
5f8
100
AcDbEntity
8
0-0
6
CONTINUOUS
62
  7
100
AcDbVertex
100
AcDb2dVertex
10
2111.288500187303
20
2584.802325636491
30
0.0
0
VERTEX
5
5f9
100
AcDbEntity
8
0-0
6
CONTINUOUS
62
  7
100
AcDbVertex
100
AcDb2dVertex
10
2113.223495917486
20
2585.960115635354
30
0.0
0
VERTEX
5
5fa
100
AcDbEntity
8
0-0
6
CONTINUOUS
62
  7
100
AcDbVertex
100
AcDb2dVertex
10
2114.538490692924
20
2586.809374386298
30
0.0
0
VERTEX
5
5fb
100
AcDbEntity
8
0-0
6
CONTINUOUS
62
  7
100
AcDbVertex
100
AcDb2dVertex
10
2116.750699193315
20
2588.348573495604
30
0.0
0
VERTEX
5
5fc
100
AcDbEntity
8
0-0
6
CONTINUOUS
62
  7
100
AcDbVertex
100
AcDb2dVertex
10
2118.904268143858
20
2589.967658184446
30
0.0
0
VERTEX
5
5fd
100
AcDbEntity
8
0-0
6
CONTINUOUS
62
  7
100
AcDbVertex
100
AcDb2dVertex
10
2121.012000939716
20
2591.649186186549
30
0.0
0
VERTEX
5
5fe
100
AcDbEntity
8
0-0
6
CONTINUOUS
62
  7
100
AcDbVertex
100
AcDb2dVertex
10
2122.067128330653
20
2592.527244729489
30
0.0
0
SEQEND
5
5ff
100
AcDbEntity
8
0-0
0
LINE
5
600
100
AcDbEntity
8
0-0
6
CONTINUOUS
62
7
100
AcDbLine
10
2411.793739426588
20
3157.276697590973
30
0.0
11
2041.793739426588
21
3157.276697590973
31
0.0
0
LINE
5
601
100
AcDbEntity
8
0-0
6
CONTINUOUS
62
7
100
AcDbLine
10
2151.273739426588
20
2737.276697590972
30
0.0
11
2109.293739426588
21
2527.276697590972
31
0.0
0
LINE
5
602
100
AcDbEntity
8
0-0
6
CONTINUOUS
62
7
100
AcDbLine
10
2301.793739426588
20
2737.276697590972
30
0.0
11
2344.293739426588
21
2527.276697590972
31
0.0
0
POLYLINE
5
603
100
AcDbEntity
8
0-0
6
CONTINUOUS
62
  7
100
AcDb2dPolyline
66
1
10
0.0
20
0.0
30
0.0
70
0
0
VERTEX
5
604
100
AcDbEntity
8
0-0
6
CONTINUOUS
62
  7
100
AcDbVertex
100
AcDb2dVertex
10
2201.793739426588
20
3157.276697590973
30
0.0
0
VERTEX
5
605
100
AcDbEntity
8
0-0
6
CONTINUOUS
62
  7
100
AcDbVertex
100
AcDb2dVertex
10
2251.793739426588
20
3157.276697590973
30
0.0
0
VERTEX
5
606
100
AcDbEntity
8
0-0
6
CONTINUOUS
62
  7
100
AcDbVertex
100
AcDb2dVertex
10
2251.793739426588
20
3160.276697590972
30
0.0
0
VERTEX
5
607
100
AcDbEntity
8
0-0
6
CONTINUOUS
62
  7
100
AcDbVertex
100
AcDb2dVertex
10
2201.793739426588
20
3160.276697590972
30
0.0
0
VERTEX
5
608
100
AcDbEntity
8
0-0
6
CONTINUOUS
62
  7
100
AcDbVertex
100
AcDb2dVertex
10
2201.793739426588
20
3157.276697590973
30
0.0
0
SEQEND
5
609
100
AcDbEntity
8
0-0
0
LINE
5
60a
100
AcDbEntity
8
0-0
6
CONTINUOUS
62
7
100
AcDbLine
10
2031.793739426588
20
2897.276697590972
30
0.0
11
2036.793739426588
21
3152.276697590973
31
0.0
0
LINE
5
60b
100
AcDbEntity
8
0-0
6
CONTINUOUS
62
7
100
AcDbLine
10
2421.793739426588
20
2897.276697590972
30
0.0
11
2416.793739426588
21
3152.276697590973
31
0.0
0
LINE
5
60c
100
AcDbEntity
8
0-0
6
CONTINUOUS
62
7
100
AcDbLine
10
2123.377739426587
20
3117.276697590973
30
0.0
11
2159.415739426588
21
3117.276697590973
31
0.0
0
POLYLINE
5
60d
100
AcDbEntity
8
0-0
6
CONTINUOUS
62
  7
100
AcDb2dPolyline
66
1
10
0.0
20
0.0
30
0.0
70
0
0
VERTEX
5
60e
100
AcDbEntity
8
0-0
6
CONTINUOUS
62
  7
100
AcDbVertex
100
AcDb2dVertex
10
2211.793739426588
20
3160.276697590972
30
0.0
0
VERTEX
5
60f
100
AcDbEntity
8
0-0
6
CONTINUOUS
62
  7
100
AcDbVertex
100
AcDb2dVertex
10
2241.793739426588
20
3160.276697590972
30
0.0
0
VERTEX
5
610
100
AcDbEntity
8
0-0
6
CONTINUOUS
62
  7
100
AcDbVertex
100
AcDb2dVertex
10
2241.793739426588
20
3162.276697590973
30
0.0
0
VERTEX
5
611
100
AcDbEntity
8
0-0
6
CONTINUOUS
62
  7
100
AcDbVertex
100
AcDb2dVertex
10
2211.793739426588
20
3162.276697590973
30
0.0
0
VERTEX
5
612
100
AcDbEntity
8
0-0
6
CONTINUOUS
62
  7
100
AcDbVertex
100
AcDb2dVertex
10
2211.793739426588
20
3160.276697590972
30
0.0
0
SEQEND
5
613
100
AcDbEntity
8
0-0
0
LINE
5
614
100
AcDbEntity
8
0-0
6
CONTINUOUS
62
7
100
AcDbLine
10
2417.479739426588
20
3117.276697590973
30
0.0
11
2036.107739426588
21
3117.276697590973
31
0.0
0
LINE
5
615
100
AcDbEntity
8
0-0
6
CONTINUOUS
62
7
100
AcDbLine
10
2109.293739426588
20
2527.276697590972
30
0.0
11
2344.293739426588
21
2527.276697590972
31
0.0
0
LINE
5
616
100
AcDbEntity
8
0-0
6
CONTINUOUS
62
7
100
AcDbLine
10
2006.793739426588
20
3081.276697590973
30
0.0
11
2006.793739426588
21
3063.276697590972
31
0.0
0
LINE
5
617
100
AcDbEntity
8
0-0
6
CONTINUOUS
62
7
100
AcDbLine
10
2012.793739426587
20
3084.276697590972
30
0.0
11
2012.793739426587
21
3060.276697590972
31
0.0
0
LINE
5
618
100
AcDbEntity
8
0-0
6
CONTINUOUS
62
7
100
AcDbLine
10
2035.519739426587
20
3087.276697590973
30
0.0
11
2015.793739426588
21
3087.276697590973
31
0.0
0
LINE
5
619
100
AcDbEntity
8
0-0
6
CONTINUOUS
62
7
100
AcDbLine
10
2034.930739426588
20
3057.276697590973
30
0.0
11
2015.793739426588
21
3057.276697590973
31
0.0
0
LINE
5
61a
100
AcDbEntity
8
0-0
6
CONTINUOUS
62
7
100
AcDbLine
10
2012.793739426587
20
3060.276697590972
30
0.0
11
2009.793739426587
21
3060.276697590972
31
0.0
0
LINE
5
61b
100
AcDbEntity
8
0-0
6
CONTINUOUS
62
7
100
AcDbLine
10
2012.793739426587
20
3084.276697590972
30
0.0
11
2009.793739426587
21
3084.276697590972
31
0.0
0
ARC
5
61c
100
AcDbEntity
8
0-0
6
CONTINUOUS
62
7
100
AcDbCircle
10
2041.793739426588
20
3152.276697590973
30
0.0
40
5.000000000000
100
AcDbArc
50
90.000000000000
51
180.000000000000
0
ARC
5
61d
100
AcDbEntity
8
0-0
6
CONTINUOUS
62
7
100
AcDbCircle
10
2411.793739426588
20
3152.276697590973
30
0.0
40
5.000000000000
100
AcDbArc
50
0.000000000000
51
90.000000000000
0
ARC
5
61e
100
AcDbEntity
8
0-0
6
CONTINUOUS
62
7
100
AcDbCircle
10
2204.963739426587
20
2901.980697590972
30
0.0
40
173.234000000000
100
AcDbArc
50
181.555874457218
51
251.944903598851
0
ARC
5
61f
100
AcDbEntity
8
0-0
6
CONTINUOUS
62
7
100
AcDbCircle
10
2249.099739426588
20
2901.796697590972
30
0.0
40
172.753000000000
100
AcDbArc
50
287.759610315905
51
358.500594392062
0
ARC
5
620
100
AcDbEntity
8
0-0
6
CONTINUOUS
62
7
100
AcDbCircle
10
2226.533739426588
20
2555.972697590972
30
0.0
40
196.304000000000
100
AcDbArc
50
67.456000000000
51
112.544000000000
0
ARC
5
621
100
AcDbEntity
8
0-0
6
CONTINUOUS
62
7
100
AcDbCircle
10
2015.793739426588
20
3084.276697590972
30
0.0
40
3.000000000000
100
AcDbArc
50
90.000000000000
51
180.000000000000
0
ARC
5
622
100
AcDbEntity
8
0-0
6
CONTINUOUS
62
7
100
AcDbCircle
10
2015.793739426588
20
3060.276697590972
30
0.0
40
3.000000000000
100
AcDbArc
50
180.000000000000
51
270.000000000000
0
ARC
5
623
100
AcDbEntity
8
0-0
6
CONTINUOUS
62
7
100
AcDbCircle
10
2009.793739426587
20
3063.276697590972
30
0.0
40
3.000000000000
100
AcDbArc
50
180.000000000000
51
270.000000000000
0
ARC
5
624
100
AcDbEntity
8
0-0
6
CONTINUOUS
62
7
100
AcDbCircle
10
2009.793739426587
20
3081.276697590973
30
0.0
40
3.000000000000
100
AcDbArc
50
90.000000000000
51
180.000000000000
0
LINE
5
625
100
AcDbEntity
8
0-0
6
CONTINUOUS
62
7
100
AcDbLine
10
2061.793739426588
20
2914.368310223531
30
0.0
11
2391.793739426588
21
2914.368310223531
31
0.0
0
LINE
5
626
100
AcDbEntity
8
0-0
6
CONTINUOUS
62
7
100
AcDbLine
10
2051.793739426588
20
2914.368310223531
30
0.0
11
2401.793739426588
21
2914.368310223531
31
0.0
0
LINE
5
627
100
AcDbEntity
8
0-0
6
CONTINUOUS
62
7
100
AcDbLine
10
2058.274739426588
20
2926.368310223531
30
0.0
11
2395.312739426588
21
2926.368310223531
31
0.0
0
LINE
5
628
100
AcDbEntity
8
0-0
6
CONTINUOUS
62
7
100
AcDbLine
10
2055.502739426587
20
2924.380310223532
30
0.0
11
2051.793739426588
21
2914.368310223531
31
0.0
0
LINE
5
629
100
AcDbEntity
8
0-0
6
CONTINUOUS
62
7
100
AcDbLine
10
2398.085739426588
20
2924.380310223532
30
0.0
11
2401.793739426588
21
2914.368310223531
31
0.0
0
LINE
5
62a
100
AcDbEntity
8
0-0
6
CONTINUOUS
62
7
100
AcDbLine
10
2416.793739426588
20
2911.368310223531
30
0.0
11
2036.793739426588
21
2911.368310223531
31
0.0
0
ARC
5
62b
100
AcDbEntity
8
0-0
6
CONTINUOUS
62
7
100
AcDbCircle
10
2036.793739426588
20
2906.368310223531
30
0.0
40
5.000000000000
100
AcDbArc
50
90.000000000000
51
180.000000000000
0
ARC
5
62c
100
AcDbEntity
8
0-0
6
CONTINUOUS
62
7
100
AcDbCircle
10
2416.793739426588
20
2906.368310223531
30
0.0
40
5.000000000000
100
AcDbArc
50
0.000000000000
51
90.000000000000
0
ARC
5
62d
100
AcDbEntity
8
0-0
6
CONTINUOUS
62
7
100
AcDbCircle
10
4799.075739426588
20
2811.655310223531
30
0.0
40
2739.097000000000
100
AcDbArc
50
177.850978826010
51
177.913774998784
0
ARC
5
62e
100
AcDbEntity
8
0-0
6
CONTINUOUS
62
7
100
AcDbCircle
10
-346.381260573413
20
2811.655310223531
30
0.0
40
2739.097000000000
100
AcDbArc
50
2.086225001215
51
2.149021173990
0
ARC
5
62f
100
AcDbEntity
8
0-0
6
CONTINUOUS
62
7
100
AcDbCircle
10
2058.617739426587
20
2922.963310223531
30
0.0
40
3.423000000000
100
AcDbArc
50
95.757000000000
51
155.546000000000
0
ARC
5
630
100
AcDbEntity
8
0-0
6
CONTINUOUS
62
7
100
AcDbCircle
10
2394.969739426588
20
2922.963310223531
30
0.0
40
3.423000000000
100
AcDbArc
50
24.454000000000
51
84.243000000000
0
LINE
5
631
100
AcDbEntity
8
0-0
6
CONTINUOUS
62
7
100
AcDbLine
10
2051.793739426588
20
2931.349774464378
30
0.0
11
2401.793739426588
21
2931.349774464378
31
0.0
0
LINE
5
632
100
AcDbEntity
8
0-0
6
CONTINUOUS
62
7
100
AcDbLine
10
2116.793739426588
20
2973.349774464378
30
0.0
11
2336.793739426588
21
2973.349774464378
31
0.0
0
LINE
5
633
100
AcDbEntity
8
0-0
6
CONTINUOUS
62
7
100
AcDbLine
10
2058.274739426588
20
2943.349774464378
30
0.0
11
2395.312739426588
21
2943.349774464378
31
0.0
0
LINE
5
634
100
AcDbEntity
8
0-0
6
CONTINUOUS
62
7
100
AcDbLine
10
2055.502739426587
20
2941.361774464378
30
0.0
11
2051.793739426588
21
2931.349774464378
31
0.0
0
LINE
5
635
100
AcDbEntity
8
0-0
6
CONTINUOUS
62
7
100
AcDbLine
10
2398.085739426588
20
2941.361774464378
30
0.0
11
2401.793739426588
21
2931.349774464378
31
0.0
0
ARC
5
636
100
AcDbEntity
8
0-0
6
CONTINUOUS
62
7
100
AcDbCircle
10
2058.617739426587
20
2939.944774464379
30
0.0
40
3.423000000000
100
AcDbArc
50
95.757000000000
51
155.546000000000
0
ARC
5
637
100
AcDbEntity
8
0-0
6
CONTINUOUS
62
7
100
AcDbCircle
10
2394.969739426588
20
2939.944774464379
30
0.0
40
3.423000000000
100
AcDbArc
50
24.454000000000
51
84.243000000000
0
ARC
5
638
100
AcDbEntity
8
0-0
6
CONTINUOUS
62
7
100
AcDbCircle
10
2068.627739426587
20
3035.064774464378
30
0.0
40
78.286000000000
100
AcDbArc
50
289.267358123213
51
307.970613696087
0
ARC
5
639
100
AcDbEntity
8
0-0
6
CONTINUOUS
62
7
100
AcDbCircle
10
2131.053739426588
20
2838.025774464378
30
0.0
40
128.460000000000
100
AcDbArc
50
106.550599373611
51
125.408882915435
0
ARC
5
63a
100
AcDbEntity
8
0-0
6
CONTINUOUS
62
7
100
AcDbCircle
10
2384.959739426588
20
3035.064774464378
30
0.0
40
78.286000000000
100
AcDbArc
50
232.029387382592
51
250.732642955466
0
ARC
5
63b
100
AcDbEntity
8
0-0
6
CONTINUOUS
62
7
100
AcDbCircle
10
2322.533739426588
20
2838.025774464378
30
0.0
40
128.460000000000
100
AcDbArc
50
54.591117084564
51
73.449400626389
0
LINE
5
63c
100
AcDbEntity
8
0-0
6
CONTINUOUS
62
7
100
AcDbLine
10
3295.456850707124
20
1124.595102009584
30
0.0
11
3305.257202335654
21
1124.595102009584
31
0.0
0
LINE
5
63d
100
AcDbEntity
8
0-0
6
CONTINUOUS
62
7
100
AcDbLine
10
3282.540630097685
20
1133.135333994443
30
0.0
11
3282.540630097685
21
1108.135333994443
31
0.0
0
LINE
5
63e
100
AcDbEntity
8
0-0
6
CONTINUOUS
62
7
100
AcDbLine
10
3218.732871896329
20
1136.595102009584
30
0.0
11
3218.732871896329
21
1104.595102009583
31
0.0
0
ARC
5
63f
100
AcDbEntity
8
0-0
6
CONTINUOUS
62
7
100
AcDbCircle
10
3206.732871896329
20
1104.595102009583
30
0.0
40
12.000000000000
100
AcDbArc
50
270.000000000000
51
360.000000000000
0
ARC
5
640
100
AcDbEntity
8
0-0
6
CONTINUOUS
62
7
100
AcDbCircle
10
3206.732871896329
20
1136.595102009584
30
0.0
40
12.000000000000
100
AcDbArc
50
0.000000000000
51
90.000000000000
0
LINE
5
641
100
AcDbEntity
8
0-0
6
CONTINUOUS
62
7
100
AcDbLine
10
3207.015575066285
20
1148.346808212142
30
0.0
11
3207.015575066285
21
1092.741120227280
31
0.0
0
LINE
5
642
100
AcDbEntity
8
0-0
6
CONTINUOUS
62
7
100
AcDbLine
10
3253.248164314555
20
1108.135333994443
30
0.0
11
3253.248164314555
21
1133.135333994443
31
0.0
0
LINE
5
643
100
AcDbEntity
8
0-0
6
CONTINUOUS
62
7
100
AcDbLine
10
3245.248164314555
20
1133.135333994443
30
0.0
11
3245.248164314555
21
1108.135333994443
31
0.0
0
ARC
5
644
100
AcDbEntity
8
0-0
6
CONTINUOUS
62
7
100
AcDbCircle
10
3249.287842241641
20
1120.586074247517
30
0.0
40
13.134414676531
100
AcDbArc
50
72.702435514475
51
107.723236616886
0
ARC
5
645
100
AcDbEntity
8
0-0
6
CONTINUOUS
62
7
100
AcDbCircle
10
3249.287842241641
20
1120.586074247517
30
0.0
40
13.134414676531
100
AcDbArc
50
251.982390785310
51
287.478114533726
0
CIRCLE
5
646
100
AcDbEntity
8
0-0
6
CONTINUOUS
62
7
100
AcDbCircle
10
3249.275124536005
20
1120.602532454810
30
0.0
40
3.389457447208
0
ARC
5
647
100
AcDbEntity
8
0-0
6
CONTINUOUS
62
7
100
AcDbCircle
10
3249.271860995271
20
1107.933938567274
30
0.0
40
3.389457447208
100
AcDbArc
50
0.021929785002
51
180.028490417393
0
ARC
5
648
100
AcDbEntity
8
0-0
6
CONTINUOUS
62
7
100
AcDbCircle
10
3249.285625247926
20
1133.243299410052
30
0.0
40
3.389457447208
100
AcDbArc
50
180.232247779006
51
359.660169619824
0
LINE
5
649
100
AcDbEntity
8
0-0
6
CONTINUOUS
62
7
100
AcDbLine
10
3219.210165411345
20
1112.595102009583
30
0.0
11
3245.109742974164
21
1112.595102009583
31
0.0
0
LINE
5
64a
100
AcDbEntity
8
0-0
6
CONTINUOUS
62
7
100
AcDbLine
10
3218.961936030689
20
1128.595102009583
30
0.0
11
3245.175622638315
21
1128.595102009583
31
0.0
0
ARC
5
64b
100
AcDbEntity
8
0-0
6
CONTINUOUS
62
7
100
AcDbCircle
10
3314.214333797077
20
1124.915102009584
30
0.0
40
3.240000000000
100
AcDbArc
50
0.000000000000
51
90.000000000000
0
ARC
5
64c
100
AcDbEntity
8
0-0
6
CONTINUOUS
62
7
100
AcDbCircle
10
3314.214333797077
20
1116.275102009584
30
0.0
40
3.240000000000
100
AcDbArc
50
270.000000000000
51
360.000000000000
0
LINE
5
64d
100
AcDbEntity
8
0-0
6
CONTINUOUS
62
7
100
AcDbLine
10
3317.454333797078
20
1124.915102009584
30
0.0
11
3317.454333797078
21
1116.275102009584
31
0.0
0
ARC
5
64e
100
AcDbEntity
8
0-0
6
CONTINUOUS
62
7
100
AcDbCircle
10
3308.184968598165
20
1098.704148923053
30
0.0
40
3.000000000000
100
AcDbArc
50
180.000000000000
51
270.000000000000
0
LINE
5
64f
100
AcDbEntity
8
0-0
6
CONTINUOUS
62
7
100
AcDbLine
10
3311.184968598165
20
1095.704148923053
30
0.0
11
3308.184968598165
21
1095.704148923053
31
0.0
0
ARC
5
650
100
AcDbEntity
8
0-0
6
CONTINUOUS
62
7
100
AcDbCircle
10
3311.184968598165
20
1098.704148923053
30
0.0
40
3.000000000000
100
AcDbArc
50
270.000000000000
51
360.000000000000
0
LINE
5
651
100
AcDbEntity
8
0-0
6
CONTINUOUS
62
7
100
AcDbLine
10
3305.184968598165
20
1142.704148923053
30
0.0
11
3305.184968598165
21
1098.704148923053
31
0.0
0
ARC
5
652
100
AcDbEntity
8
0-0
6
CONTINUOUS
62
7
100
AcDbCircle
10
3308.184968598165
20
1142.704148923053
30
0.0
40
3.000000000000
100
AcDbArc
50
90.000000000000
51
180.000000000000
0
LINE
5
653
100
AcDbEntity
8
0-0
6
CONTINUOUS
62
7
100
AcDbLine
10
3311.184968598165
20
1145.704148923053
30
0.0
11
3308.184968598165
21
1145.704148923053
31
0.0
0
LINE
5
654
100
AcDbEntity
8
0-0
6
CONTINUOUS
62
7
100
AcDbLine
10
3314.184968598165
20
1142.704148923053
30
0.0
11
3314.184968598165
21
1098.704148923053
31
0.0
0
ARC
5
655
100
AcDbEntity
8
0-0
6
CONTINUOUS
62
7
100
AcDbCircle
10
3311.184968598165
20
1142.704148923053
30
0.0
40
3.000000000000
100
AcDbArc
50
0.000000000000
51
90.000000000000
0
ARC
5
656
100
AcDbEntity
8
0-0
6
CONTINUOUS
62
7
100
AcDbCircle
10
3286.580308024771
20
1120.586074247517
30
0.0
40
13.134414676531
100
AcDbArc
50
72.702435514475
51
107.723236616886
0
ARC
5
657
100
AcDbEntity
8
0-0
6
CONTINUOUS
62
7
100
AcDbCircle
10
3286.580308024771
20
1120.586074247517
30
0.0
40
13.134414676531
100
AcDbArc
50
251.982390785310
51
287.478114533726
0
CIRCLE
5
658
100
AcDbEntity
8
0-0
6
CONTINUOUS
62
7
100
AcDbCircle
10
3286.567590319135
20
1120.602532454810
30
0.0
40
3.389457447208
0
ARC
5
659
100
AcDbEntity
8
0-0
6
CONTINUOUS
62
7
100
AcDbCircle
10
3286.564326778401
20
1107.933938567274
30
0.0
40
3.389457447208
100
AcDbArc
50
0.021929785002
51
180.028490417393
0
ARC
5
65a
100
AcDbEntity
8
0-0
6
CONTINUOUS
62
7
100
AcDbCircle
10
3286.578091031056
20
1133.243299410052
30
0.0
40
3.389457447208
100
AcDbArc
50
180.232247779006
51
359.660169619824
0
LINE
5
65b
100
AcDbEntity
8
0-0
6
CONTINUOUS
62
7
100
AcDbLine
10
3290.267013890205
20
1108.237920444056
30
0.0
11
3290.267013890205
21
1133.105796042440
31
0.0
0
LINE
5
65c
100
AcDbEntity
8
0-0
6
CONTINUOUS
62
7
100
AcDbLine
10
3253.314950982305
20
1108.395076417201
30
0.0
11
3282.464028192787
21
1108.395076417201
31
0.0
0
POLYLINE
5
65d
100
AcDbEntity
8
0-0
6
CONTINUOUS
62
  7
100
AcDb2dPolyline
66
1
10
0.0
20
0.0
30
0.0
70
0
0
VERTEX
5
65e
100
AcDbEntity
8
0-0
6
CONTINUOUS
62
  7
100
AcDbVertex
100
AcDb2dVertex
10
3290.263260691362
20
1108.066287222092
30
0.0
0
VERTEX
5
65f
100
AcDbEntity
8
0-0
6
CONTINUOUS
62
  7
100
AcDbVertex
100
AcDb2dVertex
10
3290.538408463167
20
1108.538356316190
30
0.0
0
VERTEX
5
660
100
AcDbEntity
8
0-0
6
CONTINUOUS
62
  7
100
AcDbVertex
100
AcDb2dVertex
10
3291.015547710611
20
1109.350261421369
30
0.0
0
VERTEX
5
661
100
AcDbEntity
8
0-0
6
CONTINUOUS
62
  7
100
AcDbVertex
100
AcDb2dVertex
10
3291.500316228710
20
1110.156591176479
30
0.0
0
VERTEX
5
662
100
AcDbEntity
8
0-0
6
CONTINUOUS
62
  7
100
AcDbVertex
100
AcDb2dVertex
10
3291.997542669777
20
1110.953816878945
30
0.0
0
VERTEX
5
663
100
AcDbEntity
8
0-0
6
CONTINUOUS
62
  7
100
AcDbVertex
100
AcDb2dVertex
10
3292.512055686125
20
1111.738409826190
30
0.0
0
VERTEX
5
664
100
AcDbEntity
8
0-0
6
CONTINUOUS
62
  7
100
AcDbVertex
100
AcDb2dVertex
10
3293.048683930067
20
1112.506841315641
30
0.0
0
VERTEX
5
665
100
AcDbEntity
8
0-0
6
CONTINUOUS
62
  7
100
AcDbVertex
100
AcDb2dVertex
10
3293.371964248938
20
1112.943735907254
30
0.0
0
VERTEX
5
666
100
AcDbEntity
8
0-0
6
CONTINUOUS
62
  7
100
AcDbVertex
100
AcDb2dVertex
10
3293.563576902535
20
1113.193463972648
30
0.0
0
VERTEX
5
667
100
AcDbEntity
8
0-0
6
CONTINUOUS
62
  7
100
AcDbVertex
100
AcDb2dVertex
10
3293.900900550497
20
1113.618945534512
30
0.0
0
VERTEX
5
668
100
AcDbEntity
8
0-0
6
CONTINUOUS
62
  7
100
AcDbVertex
100
AcDb2dVertex
10
3294.245638354622
20
1114.039008948567
30
0.0
0
VERTEX
5
669
100
AcDbEntity
8
0-0
6
CONTINUOUS
62
  7
100
AcDbVertex
100
AcDb2dVertex
10
3294.596171503522
20
1114.454837216518
30
0.0
0
VERTEX
5
66a
100
AcDbEntity
8
0-0
6
CONTINUOUS
62
  7
100
AcDbVertex
100
AcDb2dVertex
10
3294.950881185806
20
1114.867613340071
30
0.0
0
VERTEX
5
66b
100
AcDbEntity
8
0-0
6
CONTINUOUS
62
  7
100
AcDbVertex
100
AcDb2dVertex
10
3295.308148590086
20
1115.278520320930
30
0.0
0
VERTEX
5
66c
100
AcDbEntity
8
0-0
6
CONTINUOUS
62
  7
100
AcDbVertex
100
AcDb2dVertex
10
3295.515897736921
20
1115.516456092833
30
0.0
0
SEQEND
5
66d
100
AcDbEntity
8
0-0
0
LINE
5
66e
100
AcDbEntity
8
0-0
6
CONTINUOUS
62
7
100
AcDbLine
10
3295.545982612902
20
1125.595102009584
30
0.0
11
3295.545982612902
21
1115.595102009583
31
0.0
0
POLYLINE
5
66f
100
AcDbEntity
8
0-0
6
CONTINUOUS
62
  7
100
AcDb2dPolyline
66
1
10
0.0
20
0.0
30
0.0
70
0
0
VERTEX
5
670
100
AcDbEntity
8
0-0
6
CONTINUOUS
62
  7
100
AcDbVertex
100
AcDb2dVertex
10
3290.316859028561
20
1133.203907368695
30
0.0
0
VERTEX
5
671
100
AcDbEntity
8
0-0
6
CONTINUOUS
62
  7
100
AcDbVertex
100
AcDb2dVertex
10
3290.575545939715
20
1132.712341826276
30
0.0
0
VERTEX
5
672
100
AcDbEntity
8
0-0
6
CONTINUOUS
62
  7
100
AcDbVertex
100
AcDb2dVertex
10
3291.025300644717
20
1131.867503774902
30
0.0
0
VERTEX
5
673
100
AcDbEntity
8
0-0
6
CONTINUOUS
62
  7
100
AcDbVertex
100
AcDb2dVertex
10
3291.485451986439
20
1131.030134462134
30
0.0
0
VERTEX
5
674
100
AcDbEntity
8
0-0
6
CONTINUOUS
62
  7
100
AcDbVertex
100
AcDb2dVertex
10
3291.962580114706
20
1130.204960937727
30
0.0
0
VERTEX
5
675
100
AcDbEntity
8
0-0
6
CONTINUOUS
62
  7
100
AcDbVertex
100
AcDb2dVertex
10
3292.463265179341
20
1129.396710251431
30
0.0
0
VERTEX
5
676
100
AcDbEntity
8
0-0
6
CONTINUOUS
62
  7
100
AcDbVertex
100
AcDb2dVertex
10
3292.994087330168
20
1128.610109452998
30
0.0
0
VERTEX
5
677
100
AcDbEntity
8
0-0
6
CONTINUOUS
62
  7
100
AcDbVertex
100
AcDb2dVertex
10
3293.318365911738
20
1128.165663671935
30
0.0
0
VERTEX
5
678
100
AcDbEntity
8
0-0
6
CONTINUOUS
62
  7
100
AcDbVertex
100
AcDb2dVertex
10
3293.515826473853
20
1127.907966435923
30
0.0
0
VERTEX
5
679
100
AcDbEntity
8
0-0
6
CONTINUOUS
62
  7
100
AcDbVertex
100
AcDb2dVertex
10
3293.866113792559
20
1127.470728334536
30
0.0
0
VERTEX
5
67a
100
AcDbEntity
8
0-0
6
CONTINUOUS
62
  7
100
AcDbVertex
100
AcDb2dVertex
10
3294.226885655534
20
1127.041022122804
30
0.0
0
VERTEX
5
67b
100
AcDbEntity
8
0-0
6
CONTINUOUS
62
  7
100
AcDbVertex
100
AcDb2dVertex
10
3294.595852860973
20
1126.617203283334
30
0.0
0
VERTEX
5
67c
100
AcDbEntity
8
0-0
6
CONTINUOUS
62
  7
100
AcDbVertex
100
AcDb2dVertex
10
3294.970726207069
20
1126.197627298737
30
0.0
0
VERTEX
5
67d
100
AcDbEntity
8
0-0
6
CONTINUOUS
62
  7
100
AcDbVertex
100
AcDb2dVertex
10
3295.349216492018
20
1125.780649651618
30
0.0
0
VERTEX
5
67e
100
AcDbEntity
8
0-0
6
CONTINUOUS
62
  7
100
AcDbVertex
100
AcDb2dVertex
10
3295.569496074120
20
1125.539345149155
30
0.0
0
SEQEND
5
67f
100
AcDbEntity
8
0-0
0
LINE
5
680
100
AcDbEntity
8
0-0
6
CONTINUOUS
62
7
100
AcDbLine
10
3295.524108859493
20
1116.595102009584
30
0.0
11
3305.257202335654
21
1116.595102009584
31
0.0
0
LINE
5
681
100
AcDbEntity
8
0-0
6
CONTINUOUS
62
7
100
AcDbLine
10
3253.325239426517
20
1133.030170231202
30
0.0
11
3282.552746169421
21
1133.030170231202
31
0.0
0
LINE
5
682
100
AcDbEntity
8
0-0
6
CONTINUOUS
62
7
100
AcDbLine
10
3831.669594094806
20
1018.830819835924
30
0.0
11
3306.669594094805
21
1018.830819835924
31
0.0
0
LINE
5
683
100
AcDbEntity
8
0-0
6
CONTINUOUS
62
7
100
AcDbLine
10
3901.669594094806
20
1393.830819835924
30
0.0
11
3391.593594094805
21
1393.830819835924
31
0.0
0
LINE
5
684
100
AcDbEntity
8
0-0
6
CONTINUOUS
62
7
100
AcDbLine
10
3381.669594094805
20
1643.830819835924
30
0.0
11
3386.669594094805
21
1398.753819835924
31
0.0
0
LINE
5
685
100
AcDbEntity
8
0-0
6
CONTINUOUS
62
7
100
AcDbLine
10
3898.058594094805
20
1406.842819835924
30
0.0
11
3901.766594094805
21
1396.830819835924
31
0.0
0
LINE
5
686
100
AcDbEntity
8
0-0
6
CONTINUOUS
62
7
100
AcDbLine
10
3898.058594094805
20
1421.842819835924
30
0.0
11
3901.766594094805
21
1411.830819835924
31
0.0
0
LINE
5
687
100
AcDbEntity
8
0-0
6
CONTINUOUS
62
7
100
AcDbLine
10
3895.285594094805
20
1408.830819835924
30
0.0
11
3477.690594094805
21
1408.830819835924
31
0.0
0
LINE
5
688
100
AcDbEntity
8
0-0
6
CONTINUOUS
62
7
100
AcDbLine
10
3901.766594094805
20
1396.830819835924
30
0.0
11
3466.669594094805
21
1396.830819835924
31
0.0
0
LINE
5
689
100
AcDbEntity
8
0-0
6
CONTINUOUS
62
7
100
AcDbLine
10
3416.669594094805
20
1403.830819835924
30
0.0
11
3416.669594094805
21
1393.830819835924
31
0.0
0
LINE
5
68a
100
AcDbEntity
8
0-0
6
CONTINUOUS
62
7
100
AcDbLine
10
3466.669594094805
20
1399.188819835924
30
0.0
11
3466.669594094805
21
1393.830819835924
31
0.0
0
LINE
5
68b
100
AcDbEntity
8
0-0
6
CONTINUOUS
62
7
100
AcDbLine
10
3441.669594094805
20
1403.830819835924
30
0.0
11
3416.669594094805
21
1403.830819835924
31
0.0
0
LINE
5
68c
100
AcDbEntity
8
0-0
6
CONTINUOUS
62
7
100
AcDbLine
10
3466.669594094805
20
1393.830819835924
30
0.0
11
3416.669594094805
21
1393.830819835924
31
0.0
0
LINE
5
68d
100
AcDbEntity
8
0-0
6
CONTINUOUS
62
7
100
AcDbLine
10
3376.669594094805
20
1648.830819835924
30
0.0
11
3211.669594094805
21
1648.830819835924
31
0.0
0
POLYLINE
5
68e
100
AcDbEntity
8
0-0
6
CONTINUOUS
62
  7
100
AcDb2dPolyline
66
1
10
0.0
20
0.0
30
0.0
70
0
0
VERTEX
5
68f
100
AcDbEntity
8
0-0
6
CONTINUOUS
62
  7
100
AcDbVertex
100
AcDb2dVertex
10
3271.669594094805
20
1648.830819835924
30
0.0
0
VERTEX
5
690
100
AcDbEntity
8
0-0
6
CONTINUOUS
62
  7
100
AcDbVertex
100
AcDb2dVertex
10
3321.669594094805
20
1648.830819835924
30
0.0
0
VERTEX
5
691
100
AcDbEntity
8
0-0
6
CONTINUOUS
62
  7
100
AcDbVertex
100
AcDb2dVertex
10
3321.669594094805
20
1651.830819835924
30
0.0
0
VERTEX
5
692
100
AcDbEntity
8
0-0
6
CONTINUOUS
62
  7
100
AcDbVertex
100
AcDb2dVertex
10
3271.669594094805
20
1651.830819835924
30
0.0
0
VERTEX
5
693
100
AcDbEntity
8
0-0
6
CONTINUOUS
62
  7
100
AcDbVertex
100
AcDb2dVertex
10
3271.669594094805
20
1648.830819835924
30
0.0
0
SEQEND
5
694
100
AcDbEntity
8
0-0
0
POLYLINE
5
695
100
AcDbEntity
8
0-0
6
CONTINUOUS
62
  7
100
AcDb2dPolyline
66
1
10
0.0
20
0.0
30
0.0
70
0
0
VERTEX
5
696
100
AcDbEntity
8
0-0
6
CONTINUOUS
62
  7
100
AcDbVertex
100
AcDb2dVertex
10
3281.669594094805
20
1651.830819835924
30
0.0
0
VERTEX
5
697
100
AcDbEntity
8
0-0
6
CONTINUOUS
62
  7
100
AcDbVertex
100
AcDb2dVertex
10
3311.669594094805
20
1651.830819835924
30
0.0
0
VERTEX
5
698
100
AcDbEntity
8
0-0
6
CONTINUOUS
62
  7
100
AcDbVertex
100
AcDb2dVertex
10
3311.669594094805
20
1653.830819835924
30
0.0
0
VERTEX
5
699
100
AcDbEntity
8
0-0
6
CONTINUOUS
62
  7
100
AcDbVertex
100
AcDb2dVertex
10
3281.669594094805
20
1653.830819835924
30
0.0
0
VERTEX
5
69a
100
AcDbEntity
8
0-0
6
CONTINUOUS
62
  7
100
AcDbVertex
100
AcDb2dVertex
10
3281.669594094805
20
1651.830819835924
30
0.0
0
SEQEND
5
69b
100
AcDbEntity
8
0-0
0
LINE
5
69c
100
AcDbEntity
8
0-0
6
CONTINUOUS
62
7
100
AcDbLine
10
3206.669594094805
20
1333.830819835924
30
0.0
11
3206.669594094805
21
1393.830819835924
31
0.0
0
LINE
5
69d
100
AcDbEntity
8
0-0
6
CONTINUOUS
62
7
100
AcDbLine
10
3764.614594094805
20
1243.830819835924
30
0.0
11
3831.669594094806
21
1018.830819835924
31
0.0
0
LINE
5
69e
100
AcDbEntity
8
0-0
6
CONTINUOUS
62
7
100
AcDbLine
10
3210.969594094805
20
1608.830819835924
30
0.0
11
3382.384594094805
21
1608.830819835924
31
0.0
0
LINE
5
69f
100
AcDbEntity
8
0-0
6
CONTINUOUS
62
7
100
AcDbLine
10
3206.669594094805
20
1393.830819835924
30
0.0
11
3211.669594094805
21
1643.830819835924
31
0.0
0
LINE
5
6a0
100
AcDbEntity
8
0-0
6
CONTINUOUS
62
7
100
AcDbLine
10
3626.669594094806
20
1053.830819835924
30
0.0
11
3626.669594094806
21
1163.830819835924
31
0.0
0
LINE
5
6a1
100
AcDbEntity
8
0-0
6
CONTINUOUS
62
7
100
AcDbLine
10
3440.651594094805
20
1318.830819835924
30
0.0
11
3279.948594094805
21
1318.830819835924
31
0.0
0
LINE
5
6a2
100
AcDbEntity
8
0-0
6
CONTINUOUS
62
7
100
AcDbLine
10
3436.669594094805
20
1048.830819835924
30
0.0
11
3621.669594094806
21
1048.830819835924
31
0.0
0
LINE
5
6a3
100
AcDbEntity
8
0-0
6
CONTINUOUS
62
7
100
AcDbLine
10
3563.934594094805
20
1093.811819835924
30
0.0
11
3565.309594094805
21
1074.563819835924
31
0.0
0
LINE
5
6a4
100
AcDbEntity
8
0-0
6
CONTINUOUS
62
7
100
AcDbLine
10
3555.183594094805
20
1094.147819835924
30
0.0
11
3553.513594094805
21
1074.666819835924
31
0.0
0
ARC
5
6a5
100
AcDbEntity
8
0-0
6
CONTINUOUS
62
7
100
AcDbCircle
10
3901.669594094806
20
1388.830819835924
30
0.0
40
5.000000000000
100
AcDbArc
50
0.000000000000
51
90.000000000000
0
ARC
5
6a6
100
AcDbEntity
8
0-0
6
CONTINUOUS
62
7
100
AcDbCircle
10
3901.669594094806
20
1388.830819835924
30
0.0
40
5.000000000000
100
AcDbArc
50
0.000000000000
51
90.000000000000
0
ARC
5
6a7
100
AcDbEntity
8
0-0
6
CONTINUOUS
62
7
100
AcDbCircle
10
3376.669594094805
20
1643.830819835924
30
0.0
40
5.000000000000
100
AcDbArc
50
0.000000000000
51
90.000000000000
0
ARC
5
6a8
100
AcDbEntity
8
0-0
6
CONTINUOUS
62
7
100
AcDbCircle
10
3216.669594094805
20
1643.830819835924
30
0.0
40
5.000000000000
100
AcDbArc
50
90.000000000000
51
180.000000000000
0
ARC
5
6a9
100
AcDbEntity
8
0-0
6
CONTINUOUS
62
7
100
AcDbCircle
10
3339.917594094805
20
1182.732819835924
30
0.0
40
112.739000000000
100
AcDbArc
50
70.884000626493
51
115.371342619488
0
ARC
5
6aa
100
AcDbEntity
8
0-0
6
CONTINUOUS
62
7
100
AcDbCircle
10
3272.134594094805
20
1022.806819835924
30
0.0
40
286.282000000000
100
AcDbArc
50
36.221870215892
51
68.547271565011
0
ARC
5
6ab
100
AcDbEntity
8
0-0
6
CONTINUOUS
62
7
100
AcDbCircle
10
3557.300594094805
20
1245.879819835924
30
0.0
40
76.451000000000
100
AcDbArc
50
224.837348609983
51
298.024668011403
0
ARC
5
6ac
100
AcDbEntity
8
0-0
6
CONTINUOUS
62
7
100
AcDbCircle
10
3579.535594094805
20
1194.452819835924
30
0.0
40
99.779000000000
100
AcDbArc
50
276.742180126824
51
298.189561815330
0
ARC
5
6ad
100
AcDbEntity
8
0-0
6
CONTINUOUS
62
7
100
AcDbCircle
10
3566.852594094805
20
1283.664819835924
30
0.0
40
189.875000000000
100
AcDbArc
50
221.381973318502
51
277.382404244446
0
ARC
5
6ae
100
AcDbEntity
8
0-0
6
CONTINUOUS
62
7
100
AcDbCircle
10
3307.688594094805
20
1066.207819835924
30
0.0
40
148.560000000000
100
AcDbArc
50
38.231509198350
51
78.830260295550
0
ARC
5
6af
100
AcDbEntity
8
0-0
6
CONTINUOUS
62
7
100
AcDbCircle
10
3333.588594094805
20
1207.581819835924
30
0.0
40
5.234000000000
100
AcDbArc
50
56.638057379689
51
241.419132049268
0
ARC
5
6b0
100
AcDbEntity
8
0-0
6
CONTINUOUS
62
7
100
AcDbCircle
10
3278.123594094805
20
1106.052819835924
30
0.0
40
110.456000000000
100
AcDbArc
50
24.503270156765
51
61.348903281371
0
ARC
5
6b1
100
AcDbEntity
8
0-0
6
CONTINUOUS
62
7
100
AcDbCircle
10
3250.403594094805
20
1105.627819835924
30
0.0
40
136.310000000000
100
AcDbArc
50
0.585872459266
51
19.828122603048
0
ARC
5
6b2
100
AcDbEntity
8
0-0
6
CONTINUOUS
62
7
100
AcDbCircle
10
3424.343594094805
20
1122.449819835924
30
0.0
40
40.677000000000
100
AcDbArc
50
202.289133067663
51
245.290475342039
0
ARC
5
6b3
100
AcDbEntity
8
0-0
6
CONTINUOUS
62
7
100
AcDbCircle
10
3484.534594094805
20
1442.936819835924
30
0.0
40
365.679000000000
100
AcDbArc
50
257.813248575977
51
268.876255043221
0
ARC
5
6b4
100
AcDbEntity
8
0-0
6
CONTINUOUS
62
7
100
AcDbCircle
10
3573.987594094805
20
2751.621819835924
30
0.0
40
1677.081000000001
100
AcDbArc
50
266.697060199141
51
271.800124723144
0
ARC
5
6b5
100
AcDbEntity
8
0-0
6
CONTINUOUS
62
7
100
AcDbCircle
10
3894.942594094805
20
1420.425819835924
30
0.0
40
3.423000000000
100
AcDbArc
50
24.454000000000
51
84.243000000000
0
ARC
5
6b6
100
AcDbEntity
8
0-0
6
CONTINUOUS
62
7
100
AcDbCircle
10
3894.942594094805
20
1405.425819835924
30
0.0
40
3.423000000000
100
AcDbArc
50
24.454000000000
51
84.243000000000
0
ARC
5
6b7
100
AcDbEntity
8
0-0
6
CONTINUOUS
62
7
100
AcDbCircle
10
3341.360594094805
20
1461.173819835924
30
0.0
40
115.543000000000
100
AcDbArc
50
330.245171103881
51
356.356340427656
0
ARC
5
6b8
100
AcDbEntity
8
0-0
6
CONTINUOUS
62
7
100
AcDbCircle
10
3558.951594094805
20
1713.115819835924
30
0.0
40
278.730000000000
100
AcDbArc
50
248.471921693843
51
274.821047237777
0
ARC
5
6b9
100
AcDbEntity
8
0-0
6
CONTINUOUS
62
7
100
AcDbCircle
10
3695.554594094805
20
256.266819835923
30
0.0
40
1184.525000000000
100
AcDbArc
50
80.292549826286
51
95.482754931166
0
ARC
5
6ba
100
AcDbEntity
8
0-0
6
CONTINUOUS
62
7
100
AcDbCircle
10
3466.920594094805
20
1470.177819835924
30
0.0
40
70.989000000000
100
AcDbArc
50
249.163705804059
51
269.797508783493
0
ARC
5
6bb
100
AcDbEntity
8
0-0
6
CONTINUOUS
62
7
100
AcDbCircle
10
3481.960594094805
20
1392.830819835924
30
0.0
40
16.560000000000
100
AcDbArc
50
80.157398692587
51
157.423123494443
0
ARC
5
6bc
100
AcDbEntity
8
0-0
6
CONTINUOUS
62
7
100
AcDbCircle
10
3764.753594094806
20
-9694.825180164076
30
0.0
40
11107.501000000000
100
AcDbArc
50
89.293230716542
51
91.444280297056
0
ARC
5
6bd
100
AcDbEntity
8
0-0
6
CONTINUOUS
62
7
100
AcDbCircle
10
3391.540594094805
20
1398.701819835924
30
0.0
40
4.871000000000
100
AcDbArc
50
179.384000000000
51
270.623000000000
0
ARC
5
6be
100
AcDbEntity
8
0-0
6
CONTINUOUS
62
7
100
AcDbCircle
10
3681.287594094805
20
1467.550819835924
30
0.0
40
238.734000000000
100
AcDbArc
50
215.525000000000
51
340.747000000000
0
ARC
5
6bf
100
AcDbEntity
8
0-0
6
CONTINUOUS
62
7
100
AcDbCircle
10
3211.669594094805
20
1333.830819835924
30
0.0
40
5.000000000000
100
AcDbArc
50
180.000000000000
51
270.000000000000
0
ARC
5
6c0
100
AcDbEntity
8
0-0
6
CONTINUOUS
62
7
100
AcDbCircle
10
3621.669594094806
20
1163.830819835924
30
0.0
40
5.000000000000
100
AcDbArc
50
0.000000000000
51
90.000000000000
0
ARC
5
6c1
100
AcDbEntity
8
0-0
6
CONTINUOUS
62
7
100
AcDbCircle
10
3699.217594094805
20
1446.640819835924
30
0.0
40
288.430000000000
100
AcDbArc
50
206.303000000000
51
254.403000000000
0
ARC
5
6c2
100
AcDbEntity
8
0-0
6
CONTINUOUS
62
7
100
AcDbCircle
10
3621.669594094806
20
1053.830819835924
30
0.0
40
5.000000000000
100
AcDbArc
50
270.000000000000
51
360.000000000000
0
ARC
5
6c3
100
AcDbEntity
8
0-0
6
CONTINUOUS
62
7
100
AcDbCircle
10
3238.279594094805
20
1290.110819835924
30
0.0
40
53.616000000000
100
AcDbArc
50
286.974055081098
51
354.098476060540
0
ARC
5
6c4
100
AcDbEntity
8
0-0
6
CONTINUOUS
62
7
100
AcDbCircle
10
3354.150594094805
20
1306.736819835924
30
0.0
40
66.342000000000
100
AcDbArc
50
169.496645349485
51
199.494055186230
0
ARC
5
6c5
100
AcDbEntity
8
0-0
6
CONTINUOUS
62
7
100
AcDbCircle
10
3458.292594094805
20
1117.941819835924
30
0.0
40
72.414000000000
100
AcDbArc
50
188.673021279277
51
252.626982690909
0
LINE
5
6c6
100
AcDbEntity
8
0-0
6
CONTINUOUS
62
7
100
AcDbLine
10
3313.669594094805
20
1575.771180800561
30
0.0
11
3313.669594094805
21
1565.771180800561
31
0.0
0
LINE
5
6c7
100
AcDbEntity
8
0-0
6
CONTINUOUS
62
7
100
AcDbLine
10
3368.669594094805
20
1575.771180800561
30
0.0
11
3368.669594094805
21
1565.771180800561
31
0.0
0
LINE
5
6c8
100
AcDbEntity
8
0-0
6
CONTINUOUS
62
7
100
AcDbLine
10
3365.669594094805
20
1572.771180800560
30
0.0
11
3365.669594094805
21
1568.771180800560
31
0.0
0
LINE
5
6c9
100
AcDbEntity
8
0-0
6
CONTINUOUS
62
7
100
AcDbLine
10
3316.669594094805
20
1572.771180800560
30
0.0
11
3316.669594094805
21
1568.771180800560
31
0.0
0
LINE
5
6ca
100
AcDbEntity
8
0-0
6
CONTINUOUS
62
7
100
AcDbLine
10
3323.669594094805
20
1585.771180800561
30
0.0
11
3358.669594094805
21
1585.771180800561
31
0.0
0
LINE
5
6cb
100
AcDbEntity
8
0-0
6
CONTINUOUS
62
7
100
AcDbLine
10
3323.669594094805
20
1555.771180800561
30
0.0
11
3358.669594094805
21
1555.771180800561
31
0.0
0
LINE
5
6cc
100
AcDbEntity
8
0-0
6
CONTINUOUS
62
7
100
AcDbLine
10
3326.669594094805
20
1582.771180800560
30
0.0
11
3355.669594094805
21
1582.771180800560
31
0.0
0
LINE
5
6cd
100
AcDbEntity
8
0-0
6
CONTINUOUS
62
7
100
AcDbLine
10
3326.669594094805
20
1558.771180800560
30
0.0
11
3355.669594094805
21
1558.771180800560
31
0.0
0
ARC
5
6ce
100
AcDbEntity
8
0-0
6
CONTINUOUS
62
7
100
AcDbCircle
10
3355.669594094805
20
1568.771180800560
30
0.0
40
10.000000000000
100
AcDbArc
50
270.000000000000
51
360.000000000000
0
ARC
5
6cf
100
AcDbEntity
8
0-0
6
CONTINUOUS
62
7
100
AcDbCircle
10
3355.669594094805
20
1572.771180800560
30
0.0
40
10.000000000000
100
AcDbArc
50
0.000000000000
51
90.000000000000
0
ARC
5
6d0
100
AcDbEntity
8
0-0
6
CONTINUOUS
62
7
100
AcDbCircle
10
3326.669594094805
20
1572.771180800560
30
0.0
40
10.000000000000
100
AcDbArc
50
90.000000000000
51
180.000000000000
0
ARC
5
6d1
100
AcDbEntity
8
0-0
6
CONTINUOUS
62
7
100
AcDbCircle
10
3326.669594094805
20
1568.771180800560
30
0.0
40
10.000000000000
100
AcDbArc
50
180.000000000000
51
270.000000000000
0
ARC
5
6d2
100
AcDbEntity
8
0-0
6
CONTINUOUS
62
7
100
AcDbCircle
10
3358.669594094805
20
1565.771180800561
30
0.0
40
10.000000000000
100
AcDbArc
50
270.000000000000
51
360.000000000000
0
ARC
5
6d3
100
AcDbEntity
8
0-0
6
CONTINUOUS
62
7
100
AcDbCircle
10
3358.669594094805
20
1575.771180800561
30
0.0
40
10.000000000000
100
AcDbArc
50
0.000000000000
51
90.000000000000
0
ARC
5
6d4
100
AcDbEntity
8
0-0
6
CONTINUOUS
62
7
100
AcDbCircle
10
3323.669594094805
20
1575.771180800561
30
0.0
40
10.000000000000
100
AcDbArc
50
90.000000000000
51
180.000000000000
0
ARC
5
6d5
100
AcDbEntity
8
0-0
6
CONTINUOUS
62
7
100
AcDbCircle
10
3323.669594094805
20
1565.771180800561
30
0.0
40
10.000000000000
100
AcDbArc
50
180.000000000000
51
270.000000000000
0
LINE
5
6d6
100
AcDbEntity
8
0-0
6
CONTINUOUS
62
7
100
AcDbLine
10
3207.821685604107
20
1331.465459879139
30
0.0
11
3517.821685604107
21
1331.465459879139
31
0.0
0
LINE
5
6d7
100
AcDbEntity
8
0-0
6
CONTINUOUS
62
7
100
AcDbLine
10
3306.130444054333
20
1045.223545065051
30
0.0
11
3306.199562221359
21
1045.052010634876
31
0.0
0
LINE
5
6d8
100
AcDbEntity
8
0-0
6
CONTINUOUS
62
7
100
AcDbLine
10
3306.011343411907
20
1045.519319842396
30
0.0
11
3306.130444054333
21
1045.223545065051
31
0.0
0
LINE
5
6d9
100
AcDbEntity
8
0-0
6
CONTINUOUS
62
7
100
AcDbLine
10
3305.892433355772
20
1045.815166174748
30
0.0
11
3306.011343411907
21
1045.519319842396
31
0.0
0
LINE
5
6da
100
AcDbEntity
8
0-0
6
CONTINUOUS
62
7
100
AcDbLine
10
3305.773834510164
20
1046.111129350083
30
0.0
11
3305.892433355772
21
1045.815166174748
31
0.0
0
LINE
5
6db
100
AcDbEntity
8
0-0
6
CONTINUOUS
62
7
100
AcDbLine
10
3305.655667499319
20
1046.407254656382
30
0.0
11
3305.773834510164
21
1046.111129350083
31
0.0
0
LINE
5
6dc
100
AcDbEntity
8
0-0
6
CONTINUOUS
62
7
100
AcDbLine
10
3305.538052947471
20
1046.703587381622
30
0.0
11
3305.655667499319
21
1046.407254656382
31
0.0
0
LINE
5
6dd
100
AcDbEntity
8
0-0
6
CONTINUOUS
62
7
100
AcDbLine
10
3305.470137176333
20
1046.875573247438
30
0.0
11
3305.538052947471
21
1046.703587381622
31
0.0
0
LINE
5
6de
100
AcDbEntity
8
0-0
6
CONTINUOUS
62
7
100
AcDbLine
10
3304.924751202969
20
1048.282916955513
30
0.0
11
3305.470137176333
21
1046.875573247438
31
0.0
0
LINE
5
6df
100
AcDbEntity
8
0-0
6
CONTINUOUS
62
7
100
AcDbLine
10
3304.018436576942
20
1050.722129754745
30
0.0
11
3304.924751202969
21
1048.282916955513
31
0.0
0
LINE
5
6e0
100
AcDbEntity
8
0-0
6
CONTINUOUS
62
7
100
AcDbLine
10
3303.147440193629
20
1053.174576787524
30
0.0
11
3304.018436576942
21
1050.722129754745
31
0.0
0
LINE
5
6e1
100
AcDbEntity
8
0-0
6
CONTINUOUS
62
7
100
AcDbLine
10
3302.302776763124
20
1055.636868172132
30
0.0
11
3303.147440193629
21
1053.174576787524
31
0.0
0
LINE
5
6e2
100
AcDbEntity
8
0-0
6
CONTINUOUS
62
7
100
AcDbLine
10
3301.475460995523
20
1058.105614026853
30
0.0
11
3302.302776763124
21
1055.636868172132
31
0.0
0
LINE
5
6e3
100
AcDbEntity
8
0-0
6
CONTINUOUS
62
7
100
AcDbLine
10
3300.656507600920
20
1060.577424469970
30
0.0
11
3301.475460995523
21
1058.105614026853
31
0.0
0
LINE
5
6e4
100
AcDbEntity
8
0-0
6
CONTINUOUS
62
7
100
AcDbLine
10
3300.181805599901
20
1062.011142931711
30
0.0
11
3300.656507600920
21
1060.577424469970
31
0.0
0
LINE
5
6e5
100
AcDbEntity
8
0-0
6
CONTINUOUS
62
7
100
AcDbLine
10
3299.607752296070
20
1063.737789323727
30
0.0
11
3300.181805599901
21
1062.011142931711
31
0.0
0
LINE
5
6e6
100
AcDbEntity
8
0-0
6
CONTINUOUS
62
7
100
AcDbLine
10
3298.614252086290
20
1066.713130649962
30
0.0
11
3299.607752296070
21
1063.737789323727
31
0.0
0
LINE
5
6e7
100
AcDbEntity
8
0-0
6
CONTINUOUS
62
7
100
AcDbLine
10
3297.620443689233
20
1069.687903193976
30
0.0
11
3298.614252086290
21
1066.713130649962
31
0.0
0
LINE
5
6e8
100
AcDbEntity
8
0-0
6
CONTINUOUS
62
7
100
AcDbLine
10
3296.631492936899
20
1072.663852427909
30
0.0
11
3297.620443689233
21
1069.687903193976
31
0.0
0
LINE
5
6e9
100
AcDbEntity
8
0-0
6
CONTINUOUS
62
7
100
AcDbLine
10
3295.652565661288
20
1075.642723823902
30
0.0
11
3296.631492936899
21
1072.663852427909
31
0.0
0
LINE
5
6ea
100
AcDbEntity
8
0-0
6
CONTINUOUS
62
7
100
AcDbLine
10
3294.688827694401
20
1078.626262854093
30
0.0
11
3295.652565661288
21
1075.642723823902
31
0.0
0
LINE
5
6eb
100
AcDbEntity
8
0-0
6
CONTINUOUS
62
7
100
AcDbLine
10
3294.138855021296
20
1080.359542008381
30
0.0
11
3294.688827694401
21
1078.626262854093
31
0.0
0
LINE
5
6ec
100
AcDbEntity
8
0-0
6
CONTINUOUS
62
7
100
AcDbLine
10
3293.538832913650
20
1082.281125598644
30
0.0
11
3294.138855021296
21
1080.359542008381
31
0.0
0
LINE
5
6ed
100
AcDbEntity
8
0-0
6
CONTINUOUS
62
7
100
AcDbLine
10
3292.524054101163
20
1085.600496187170
30
0.0
11
3293.538832913650
21
1082.281125598644
31
0.0
0
LINE
5
6ee
100
AcDbEntity
8
0-0
6
CONTINUOUS
62
7
100
AcDbLine
10
3291.529932725977
20
1088.926484684487
30
0.0
11
3292.524054101163
21
1085.600496187170
31
0.0
0
LINE
5
6ef
100
AcDbEntity
8
0-0
6
CONTINUOUS
62
7
100
AcDbLine
10
3290.551430979293
20
1092.257520167785
30
0.0
11
3291.529932725977
21
1088.926484684487
31
0.0
0
LINE
5
6f0
100
AcDbEntity
8
0-0
6
CONTINUOUS
62
7
100
AcDbLine
10
3289.583511052312
20
1095.592031714259
30
0.0
11
3290.551430979293
21
1092.257520167785
31
0.0
0
LINE
5
6f1
100
AcDbEntity
8
0-0
6
CONTINUOUS
62
7
100
AcDbLine
10
3288.621135136234
20
1098.928448401099
30
0.0
11
3289.583511052312
21
1095.592031714259
31
0.0
0
LINE
5
6f2
100
AcDbEntity
8
0-0
6
CONTINUOUS
62
7
100
AcDbLine
10
3288.063512212073
20
1100.863823989508
30
0.0
11
3288.621135136234
21
1098.928448401099
31
0.0
0
LINE
5
6f3
100
AcDbEntity
8
0-0
6
CONTINUOUS
62
7
100
AcDbLine
10
3287.268434937330
20
1103.620366394239
30
0.0
11
3288.063512212073
21
1100.863823989508
31
0.0
0
LINE
5
6f4
100
AcDbEntity
8
0-0
6
CONTINUOUS
62
7
100
AcDbLine
10
3286.250997116914
20
1107.154603234755
30
0.0
11
3287.268434937330
21
1103.620366394239
31
0.0
0
POLYLINE
5
6f5
100
AcDbEntity
8
0-0
6
CONTINUOUS
62
  7
100
AcDb2dPolyline
66
1
10
0.0
20
0.0
30
0.0
70
0
0
VERTEX
5
6f6
100
AcDbEntity
8
0-0
6
CONTINUOUS
62
  7
100
AcDbVertex
100
AcDb2dVertex
10
3267.306090947228
20
1186.171762602346
30
0.0
0
VERTEX
5
6f7
100
AcDbEntity
8
0-0
6
CONTINUOUS
62
  7
100
AcDbVertex
100
AcDb2dVertex
10
3267.645835659154
20
1184.404035357424
30
0.0
0
VERTEX
5
6f8
100
AcDbEntity
8
0-0
6
CONTINUOUS
62
  7
100
AcDbVertex
100
AcDb2dVertex
10
3268.234383141735
20
1181.356851054989
30
0.0
0
VERTEX
5
6f9
100
AcDbEntity
8
0-0
6
CONTINUOUS
62
  7
100
AcDbVertex
100
AcDb2dVertex
10
3268.830654896204
20
1178.311392564388
30
0.0
0
VERTEX
5
6fa
100
AcDbEntity
8
0-0
6
CONTINUOUS
62
  7
100
AcDbVertex
100
AcDb2dVertex
10
3269.439539702238
20
1175.268752171588
30
0.0
0
VERTEX
5
6fb
100
AcDbEntity
8
0-0
6
CONTINUOUS
62
  7
100
AcDbVertex
100
AcDb2dVertex
10
3270.065926339514
20
1172.230022162562
30
0.0
0
VERTEX
5
6fc
100
AcDbEntity
8
0-0
6
CONTINUOUS
62
  7
100
AcDbVertex
100
AcDb2dVertex
10
3270.714703587708
20
1169.196294823280
30
0.0
0
VERTEX
5
6fd
100
AcDbEntity
8
0-0
6
CONTINUOUS
62
  7
100
AcDbVertex
100
AcDb2dVertex
10
3271.103180202992
20
1167.439455607242
30
0.0
0
VERTEX
5
6fe
100
AcDbEntity
8
0-0
6
CONTINUOUS
62
  7
100
AcDbVertex
100
AcDb2dVertex
10
3271.510057283433
20
1165.647053081950
30
0.0
0
VERTEX
5
6ff
100
AcDbEntity
8
0-0
6
CONTINUOUS
62
  7
100
AcDbVertex
100
AcDb2dVertex
10
3272.231903810824
20
1162.561225873496
30
0.0
0
VERTEX
5
700
100
AcDbEntity
8
0-0
6
CONTINUOUS
62
  7
100
AcDbVertex
100
AcDb2dVertex
10
3272.972699245105
20
1159.479573294103
30
0.0
0
VERTEX
5
701
100
AcDbEntity
8
0-0
6
CONTINUOUS
62
  7
100
AcDbVertex
100
AcDb2dVertex
10
3273.724547378902
20
1156.400293730394
30
0.0
0
VERTEX
5
702
100
AcDbEntity
8
0-0
6
CONTINUOUS
62
  7
100
AcDbVertex
100
AcDb2dVertex
10
3274.479552004837
20
1153.321585568992
30
0.0
0
VERTEX
5
703
100
AcDbEntity
8
0-0
6
CONTINUOUS
62
  7
100
AcDbVertex
100
AcDb2dVertex
10
3275.229816915535
20
1150.241647196521
30
0.0
0
VERTEX
5
704
100
AcDbEntity
8
0-0
6
CONTINUOUS
62
  7
100
AcDbVertex
100
AcDb2dVertex
10
3275.659687309909
20
1148.454009328421
30
0.0
0
VERTEX
5
705
100
AcDbEntity
8
0-0
6
CONTINUOUS
62
  7
100
AcDbVertex
100
AcDb2dVertex
10
3276.067016454656
20
1146.738199302283
30
0.0
0
VERTEX
5
706
100
AcDbEntity
8
0-0
6
CONTINUOUS
62
  7
100
AcDbVertex
100
AcDb2dVertex
10
3276.760470612262
20
1143.777849408920
30
0.0
0
VERTEX
5
707
100
AcDbEntity
8
0-0
6
CONTINUOUS
62
  7
100
AcDbVertex
100
AcDb2dVertex
10
3277.448294128645
20
1140.816266176433
30
0.0
0
VERTEX
5
708
100
AcDbEntity
8
0-0
6
CONTINUOUS
62
  7
100
AcDbVertex
100
AcDb2dVertex
10
3278.136947505277
20
1137.855042785480
30
0.0
0
VERTEX
5
709
100
AcDbEntity
8
0-0
6
CONTINUOUS
62
  7
100
AcDbVertex
100
AcDb2dVertex
10
3278.832891243629
20
1134.895772416719
30
0.0
0
VERTEX
5
70a
100
AcDbEntity
8
0-0
6
CONTINUOUS
62
  7
100
AcDbVertex
100
AcDb2dVertex
10
3279.283946740854
20
1133.017224051809
30
0.0
0
SEQEND
5
70b
100
AcDbEntity
8
0-0
0
LINE
5
70c
100
AcDbEntity
8
0-0
6
CONTINUOUS
62
7
100
AcDbLine
10
3306.633922566968
20
1019.573634131773
30
0.0
11
3306.653241288392
21
1019.535878151914
31
0.0
0
LINE
5
70d
100
AcDbEntity
8
0-0
6
CONTINUOUS
62
7
100
AcDbLine
10
3306.600674841995
20
1019.638747727017
30
0.0
11
3306.633922566968
21
1019.573634131773
31
0.0
0
LINE
5
70e
100
AcDbEntity
8
0-0
6
CONTINUOUS
62
7
100
AcDbLine
10
3306.567594937610
20
1019.703908761835
30
0.0
11
3306.600674841995
21
1019.638747727017
31
0.0
0
LINE
5
70f
100
AcDbEntity
8
0-0
6
CONTINUOUS
62
7
100
AcDbLine
10
3306.534789069375
20
1019.769147261274
30
0.0
11
3306.567594937610
21
1019.703908761835
31
0.0
0
LINE
5
710
100
AcDbEntity
8
0-0
6
CONTINUOUS
62
7
100
AcDbLine
10
3306.502363452853
20
1019.834493250381
30
0.0
11
3306.534789069375
21
1019.769147261274
31
0.0
0
LINE
5
711
100
AcDbEntity
8
0-0
6
CONTINUOUS
62
7
100
AcDbLine
10
3306.470424303607
20
1019.899976754201
30
0.0
11
3306.502363452853
21
1019.834493250381
31
0.0
0
LINE
5
712
100
AcDbEntity
8
0-0
6
CONTINUOUS
62
7
100
AcDbLine
10
3306.452164350804
20
1019.938032027089
30
0.0
11
3306.470424303607
21
1019.899976754201
31
0.0
0
LINE
5
713
100
AcDbEntity
8
0-0
6
CONTINUOUS
62
7
100
AcDbLine
10
3306.116929969439
20
1020.753457822051
30
0.0
11
3306.452164350804
21
1019.938032027089
31
0.0
0
LINE
5
714
100
AcDbEntity
8
0-0
6
CONTINUOUS
62
7
100
AcDbLine
10
3305.738311588489
20
1022.215049559757
30
0.0
11
3306.116929969439
21
1020.753457822051
31
0.0
0
LINE
5
715
100
AcDbEntity
8
0-0
6
CONTINUOUS
62
7
100
AcDbLine
10
3305.566826069703
20
1023.733323336748
30
0.0
11
3305.738311588489
21
1022.215049559757
31
0.0
0
LINE
5
716
100
AcDbEntity
8
0-0
6
CONTINUOUS
62
7
100
AcDbLine
10
3305.549872632042
20
1025.292226189187
30
0.0
11
3305.566826069703
21
1023.733323336748
31
0.0
0
LINE
5
717
100
AcDbEntity
8
0-0
6
CONTINUOUS
62
7
100
AcDbLine
10
3305.634850494465
20
1026.875705153233
30
0.0
11
3305.549872632042
21
1025.292226189187
31
0.0
0
LINE
5
718
100
AcDbEntity
8
0-0
6
CONTINUOUS
62
7
100
AcDbLine
10
3305.769158875934
20
1028.467707265049
30
0.0
11
3305.634850494465
21
1026.875705153233
31
0.0
0
LINE
5
719
100
AcDbEntity
8
0-0
6
CONTINUOUS
62
7
100
AcDbLine
10
3305.848933538041
20
1029.388648093704
30
0.0
11
3305.769158875934
21
1028.467707265049
31
0.0
0
LINE
5
71a
100
AcDbEntity
8
0-0
6
CONTINUOUS
62
7
100
AcDbLine
10
3305.955897589704
20
1030.845192902199
30
0.0
11
3305.848933538041
21
1029.388648093704
31
0.0
0
LINE
5
71b
100
AcDbEntity
8
0-0
6
CONTINUOUS
62
7
100
AcDbLine
10
3306.083487632878
20
1033.327807048956
30
0.0
11
3305.955897589704
21
1030.845192902199
31
0.0
0
LINE
5
71c
100
AcDbEntity
8
0-0
6
CONTINUOUS
62
7
100
AcDbLine
10
3306.155609530116
20
1035.781831797198
30
0.0
11
3306.083487632878
21
1033.327807048956
31
0.0
0
LINE
5
71d
100
AcDbEntity
8
0-0
6
CONTINUOUS
62
7
100
AcDbLine
10
3306.191413855843
20
1038.216222667961
30
0.0
11
3306.155609530116
21
1035.781831797198
31
0.0
0
LINE
5
71e
100
AcDbEntity
8
0-0
6
CONTINUOUS
62
7
100
AcDbLine
10
3306.210051184483
20
1040.639935182284
30
0.0
11
3306.191413855843
21
1038.216222667961
31
0.0
0
LINE
5
71f
100
AcDbEntity
8
0-0
6
CONTINUOUS
62
7
100
AcDbLine
10
3306.230672090460
20
1043.061924861204
30
0.0
11
3306.210051184483
21
1040.639935182284
31
0.0
0
LINE
5
720
100
AcDbEntity
8
0-0
6
CONTINUOUS
62
7
100
AcDbLine
10
3306.251087413217
20
1044.469418412771
30
0.0
11
3306.230672090460
21
1043.061924861204
31
0.0
0
LINE
5
721
100
AcDbEntity
8
0-0
6
CONTINUOUS
62
7
100
AcDbLine
10
3306.278498655811
20
1045.750561653283
30
0.0
11
3306.251087413217
21
1044.469418412771
31
0.0
0
LINE
5
722
100
AcDbEntity
8
0-0
6
CONTINUOUS
62
7
100
AcDbLine
10
3306.347586219446
20
1047.965909481042
30
0.0
11
3306.278498655811
21
1045.750561653283
31
0.0
0
LINE
5
723
100
AcDbEntity
8
0-0
6
CONTINUOUS
62
7
100
AcDbLine
10
3306.445559340771
20
1050.187022473286
30
0.0
11
3306.347586219446
21
1047.965909481042
31
0.0
0
LINE
5
724
100
AcDbEntity
8
0-0
6
CONTINUOUS
62
7
100
AcDbLine
10
3306.573879294488
20
1052.411066229421
30
0.0
11
3306.445559340771
21
1050.187022473286
31
0.0
0
LINE
5
725
100
AcDbEntity
8
0-0
6
CONTINUOUS
62
7
100
AcDbLine
10
3306.734007355297
20
1054.635206348854
30
0.0
11
3306.573879294488
21
1052.411066229421
31
0.0
0
LINE
5
726
100
AcDbEntity
8
0-0
6
CONTINUOUS
62
7
100
AcDbLine
10
3306.927404797900
20
1056.856608430994
30
0.0
11
3306.734007355297
21
1054.635206348854
31
0.0
0
LINE
5
727
100
AcDbEntity
8
0-0
6
CONTINUOUS
62
7
100
AcDbLine
10
3307.055395163567
20
1058.142650168726
30
0.0
11
3306.927404797900
21
1056.856608430994
31
0.0
0
LINE
5
728
100
AcDbEntity
8
0-0
6
CONTINUOUS
62
7
100
AcDbLine
10
3307.196068801411
20
1059.435366650816
30
0.0
11
3307.055395163567
21
1058.142650168726
31
0.0
0
LINE
5
729
100
AcDbEntity
8
0-0
6
CONTINUOUS
62
7
100
AcDbLine
10
3307.462626126950
20
1061.659430472606
30
0.0
11
3307.196068801411
21
1059.435366650816
31
0.0
0
LINE
5
72a
100
AcDbEntity
8
0-0
6
CONTINUOUS
62
7
100
AcDbLine
10
3307.752804657517
20
1063.879018789291
30
0.0
11
3307.462626126950
21
1061.659430472606
31
0.0
0
LINE
5
72b
100
AcDbEntity
8
0-0
6
CONTINUOUS
62
7
100
AcDbLine
10
3308.058721233463
20
1066.095930320366
30
0.0
11
3307.752804657517
21
1063.879018789291
31
0.0
0
LINE
5
72c
100
AcDbEntity
8
0-0
6
CONTINUOUS
62
7
100
AcDbLine
10
3308.372492695138
20
1068.311963785324
30
0.0
11
3308.058721233463
21
1066.095930320366
31
0.0
0
LINE
5
72d
100
AcDbEntity
8
0-0
6
CONTINUOUS
62
7
100
AcDbLine
10
3308.686235882893
20
1070.528917903656
30
0.0
11
3308.372492695138
21
1068.311963785324
31
0.0
0
LINE
5
72e
100
AcDbEntity
8
0-0
6
CONTINUOUS
62
7
100
AcDbLine
10
3308.865087601855
20
1071.815881924680
30
0.0
11
3308.686235882893
21
1070.528917903656
31
0.0
0
LINE
5
72f
100
AcDbEntity
8
0-0
6
CONTINUOUS
62
7
100
AcDbLine
10
3309.041198917308
20
1073.109410454052
30
0.0
11
3308.865087601855
21
1071.815881924680
31
0.0
0
LINE
5
730
100
AcDbEntity
8
0-0
6
CONTINUOUS
62
7
100
AcDbLine
10
3309.343110141028
20
1075.340712561200
30
0.0
11
3309.041198917308
21
1073.109410454052
31
0.0
0
LINE
5
731
100
AcDbEntity
8
0-0
6
CONTINUOUS
62
7
100
AcDbLine
10
3309.655256468830
20
1077.570483609496
30
0.0
11
3309.343110141028
21
1075.340712561200
31
0.0
0
LINE
5
732
100
AcDbEntity
8
0-0
6
CONTINUOUS
62
7
100
AcDbLine
10
3309.992084040785
20
1079.795352917054
30
0.0
11
3309.655256468830
21
1077.570483609496
31
0.0
0
LINE
5
733
100
AcDbEntity
8
0-0
6
CONTINUOUS
62
7
100
AcDbLine
10
3310.368038996962
20
1082.011949801989
30
0.0
11
3309.992084040785
21
1079.795352917054
31
0.0
0
LINE
5
734
100
AcDbEntity
8
0-0
6
CONTINUOUS
62
7
100
AcDbLine
10
3310.797567477430
20
1084.216903582413
30
0.0
11
3310.368038996962
21
1082.011949801989
31
0.0
0
LINE
5
735
100
AcDbEntity
8
0-0
6
CONTINUOUS
62
7
100
AcDbLine
10
3311.076933915318
20
1085.489113680634
30
0.0
11
3310.797567477430
21
1084.216903582413
31
0.0
0
LINE
5
736
100
AcDbEntity
8
0-0
6
CONTINUOUS
62
7
100
AcDbLine
10
3311.279770673398
20
1086.346162923114
30
0.0
11
3311.076933915318
21
1085.489113680634
31
0.0
0
LINE
5
737
100
AcDbEntity
8
0-0
6
CONTINUOUS
62
7
100
AcDbLine
10
3311.652046904173
20
1087.818874708984
30
0.0
11
3311.279770673398
21
1086.346162923114
31
0.0
0
LINE
5
738
100
AcDbEntity
8
0-0
6
CONTINUOUS
62
7
100
AcDbLine
10
3312.045270145371
20
1089.287075484206
30
0.0
11
3311.652046904173
21
1087.818874708984
31
0.0
0
LINE
5
739
100
AcDbEntity
8
0-0
6
CONTINUOUS
62
7
100
AcDbLine
10
3312.450595027360
20
1090.752819448722
30
0.0
11
3312.045270145371
21
1089.287075484206
31
0.0
0
LINE
5
73a
100
AcDbEntity
8
0-0
6
CONTINUOUS
62
7
100
AcDbLine
10
3312.859176180506
20
1092.218160802477
30
0.0
11
3312.450595027360
21
1090.752819448722
31
0.0
0
LINE
5
73b
100
AcDbEntity
8
0-0
6
CONTINUOUS
62
7
100
AcDbLine
10
3313.262168235176
20
1093.685153745413
30
0.0
11
3312.859176180506
21
1092.218160802477
31
0.0
0
LINE
5
73c
100
AcDbEntity
8
0-0
6
CONTINUOUS
62
7
100
AcDbLine
10
3313.489857166369
20
1094.537575872074
30
0.0
11
3313.262168235176
21
1093.685153745413
31
0.0
0
LINE
5
73d
100
AcDbEntity
8
0-0
6
CONTINUOUS
62
7
100
AcDbLine
10
3313.803322184369
20
1095.752167920415
30
0.0
11
3313.489857166369
21
1094.537575872074
31
0.0
0
LINE
5
73e
100
AcDbEntity
8
0-0
6
CONTINUOUS
62
7
100
AcDbLine
10
3314.323858244265
20
1097.851152098481
30
0.0
11
3313.803322184369
21
1095.752167920415
31
0.0
0
LINE
5
73f
100
AcDbEntity
8
0-0
6
CONTINUOUS
62
7
100
AcDbLine
10
3314.836303035289
20
1099.951810478053
30
0.0
11
3314.323858244265
21
1097.851152098481
31
0.0
0
LINE
5
740
100
AcDbEntity
8
0-0
6
CONTINUOUS
62
7
100
AcDbLine
10
3315.360569370630
20
1102.048936498053
30
0.0
11
3314.836303035289
21
1099.951810478053
31
0.0
0
LINE
5
741
100
AcDbEntity
8
0-0
6
CONTINUOUS
62
7
100
AcDbLine
10
3315.916570063479
20
1104.137323597397
30
0.0
11
3315.360569370630
21
1102.048936498053
31
0.0
0
LINE
5
742
100
AcDbEntity
8
0-0
6
CONTINUOUS
62
7
100
AcDbLine
10
3316.524217927025
20
1106.211765215005
30
0.0
11
3315.916570063479
21
1104.137323597397
31
0.0
0
LINE
5
743
100
AcDbEntity
8
0-0
6
CONTINUOUS
62
7
100
AcDbLine
10
3316.908165105358
20
1107.406499877678
30
0.0
11
3316.524217927025
21
1106.211765215005
31
0.0
0
LINE
5
744
100
AcDbEntity
8
0-0
6
CONTINUOUS
62
7
100
AcDbLine
10
3317.241488893892
20
1108.376859095630
30
0.0
11
3316.908165105358
21
1107.406499877678
31
0.0
0
LINE
5
745
100
AcDbEntity
8
0-0
6
CONTINUOUS
62
7
100
AcDbLine
10
3317.852256169652
20
1110.039272117490
30
0.0
11
3317.241488893892
21
1108.376859095630
31
0.0
0
LINE
5
746
100
AcDbEntity
8
0-0
6
CONTINUOUS
62
7
100
AcDbLine
10
3318.497014561857
20
1111.689847292288
30
0.0
11
3317.852256169652
21
1110.039272117490
31
0.0
0
LINE
5
747
100
AcDbEntity
8
0-0
6
CONTINUOUS
62
7
100
AcDbLine
10
3319.162196059556
20
1113.330451286734
30
0.0
11
3318.497014561857
21
1111.689847292288
31
0.0
0
LINE
5
748
100
AcDbEntity
8
0-0
6
CONTINUOUS
62
7
100
AcDbLine
10
3319.834232651797
20
1114.962950767538
30
0.0
11
3319.162196059556
21
1113.330451286734
31
0.0
0
LINE
5
749
100
AcDbEntity
8
0-0
6
CONTINUOUS
62
7
100
AcDbLine
10
3320.499556327629
20
1116.589212401408
30
0.0
11
3319.834232651797
21
1114.962950767538
31
0.0
0
LINE
5
74a
100
AcDbEntity
8
0-0
6
CONTINUOUS
62
7
100
AcDbLine
10
3320.877021699461
20
1117.530321531337
30
0.0
11
3320.499556327629
21
1116.589212401408
31
0.0
0
LINE
5
74b
100
AcDbEntity
8
0-0
6
CONTINUOUS
62
7
100
AcDbLine
10
3321.266746763085
20
1118.525728816876
30
0.0
11
3320.877021699461
21
1117.530321531337
31
0.0
0
LINE
5
74c
100
AcDbEntity
8
0-0
6
CONTINUOUS
62
7
100
AcDbLine
10
3321.913275747399
20
1120.245483831617
30
0.0
11
3321.266746763085
21
1118.525728816876
31
0.0
0
LINE
5
74d
100
AcDbEntity
8
0-0
6
CONTINUOUS
62
7
100
AcDbLine
10
3322.526903297402
20
1121.979462072948
30
0.0
11
3321.913275747399
21
1120.245483831617
31
0.0
0
LINE
5
74e
100
AcDbEntity
8
0-0
6
CONTINUOUS
62
7
100
AcDbLine
10
3323.106773727860
20
1123.738998236330
30
0.0
11
3322.526903297402
21
1121.979462072948
31
0.0
0
LINE
5
74f
100
AcDbEntity
8
0-0
6
CONTINUOUS
62
7
100
AcDbLine
10
3323.652031353533
20
1125.535427017220
30
0.0
11
3323.106773727860
21
1123.738998236330
31
0.0
0
LINE
5
750
100
AcDbEntity
8
0-0
6
CONTINUOUS
62
7
100
AcDbLine
10
3324.161820489188
20
1127.380083111076
30
0.0
11
3323.652031353533
21
1125.535427017220
31
0.0
0
LINE
5
751
100
AcDbEntity
8
0-0
6
CONTINUOUS
62
7
100
AcDbLine
10
3324.440909341263
20
1128.476547859729
30
0.0
11
3324.161820489188
21
1127.380083111076
31
0.0
0
LINE
5
752
100
AcDbEntity
8
0-0
6
CONTINUOUS
62
7
100
AcDbLine
10
3324.506857529183
20
1128.747526610878
30
0.0
11
3324.440909341263
21
1128.476547859729
31
0.0
0
LINE
5
753
100
AcDbEntity
8
0-0
6
CONTINUOUS
62
7
100
AcDbLine
10
3324.612814197675
20
1129.215703569901
30
0.0
11
3324.506857529183
21
1128.747526610878
31
0.0
0
LINE
5
754
100
AcDbEntity
8
0-0
6
CONTINUOUS
62
7
100
AcDbLine
10
3324.699874879691
20
1129.681868412051
30
0.0
11
3324.612814197675
21
1129.215703569901
31
0.0
0
LINE
5
755
100
AcDbEntity
8
0-0
6
CONTINUOUS
62
7
100
AcDbLine
10
3324.757470358967
20
1130.142250474988
30
0.0
11
3324.699874879691
21
1129.681868412051
31
0.0
0
LINE
5
756
100
AcDbEntity
8
0-0
6
CONTINUOUS
62
7
100
AcDbLine
10
3324.775031419237
20
1130.593079096373
30
0.0
11
3324.757470358967
21
1130.142250474988
31
0.0
0
LINE
5
757
100
AcDbEntity
8
0-0
6
CONTINUOUS
62
7
100
AcDbLine
10
3324.741988844237
20
1131.030583613866
30
0.0
11
3324.775031419237
21
1130.593079096373
31
0.0
0
LINE
5
758
100
AcDbEntity
8
0-0
6
CONTINUOUS
62
7
100
AcDbLine
10
3324.695472744249
20
1131.276745292573
30
0.0
11
3324.741988844237
21
1131.030583613866
31
0.0
0
LINE
5
759
100
AcDbEntity
8
0-0
6
CONTINUOUS
62
7
100
AcDbLine
10
3324.606091865237
20
1131.577625658604
30
0.0
11
3324.695472744249
21
1131.276745292573
31
0.0
0
LINE
5
75a
100
AcDbEntity
8
0-0
6
CONTINUOUS
62
7
100
AcDbLine
10
3324.382564561309
20
1132.077936001324
30
0.0
11
3324.606091865237
21
1131.577625658604
31
0.0
0
LINE
5
75b
100
AcDbEntity
8
0-0
6
CONTINUOUS
62
7
100
AcDbLine
10
3324.093371278880
20
1132.563433629101
30
0.0
11
3324.382564561309
21
1132.077936001324
31
0.0
0
LINE
5
75c
100
AcDbEntity
8
0-0
6
CONTINUOUS
62
7
100
AcDbLine
10
3323.764338066083
20
1133.044049163442
30
0.0
11
3324.093371278880
21
1132.563433629101
31
0.0
0
LINE
5
75d
100
AcDbEntity
8
0-0
6
CONTINUOUS
62
7
100
AcDbLine
10
3323.421290971050
20
1133.529713225855
30
0.0
11
3323.764338066083
21
1133.044049163442
31
0.0
0
LINE
5
75e
100
AcDbEntity
8
0-0
6
CONTINUOUS
62
7
100
AcDbLine
10
3323.090056041914
20
1134.030356437846
30
0.0
11
3323.421290971050
21
1133.529713225855
31
0.0
0
LINE
5
75f
100
AcDbEntity
8
0-0
6
CONTINUOUS
62
7
100
AcDbLine
10
3322.913528923348
20
1134.331506128403
30
0.0
11
3323.090056041914
21
1134.030356437846
31
0.0
0
LINE
5
760
100
AcDbEntity
8
0-0
6
CONTINUOUS
62
7
100
AcDbLine
10
3322.793089713207
20
1134.560739097254
30
0.0
11
3322.913528923348
21
1134.331506128403
31
0.0
0
LINE
5
761
100
AcDbEntity
8
0-0
6
CONTINUOUS
62
7
100
AcDbLine
10
3322.601042663814
20
1134.962896321131
30
0.0
11
3322.793089713207
21
1134.560739097254
31
0.0
0
LINE
5
762
100
AcDbEntity
8
0-0
6
CONTINUOUS
62
7
100
AcDbLine
10
3322.417829917477
20
1135.364178191360
30
0.0
11
3322.601042663814
21
1134.962896321131
31
0.0
0
LINE
5
763
100
AcDbEntity
8
0-0
6
CONTINUOUS
62
7
100
AcDbLine
10
3322.230752531333
20
1135.753369670229
30
0.0
11
3322.417829917477
21
1135.364178191360
31
0.0
0
LINE
5
764
100
AcDbEntity
8
0-0
6
CONTINUOUS
62
7
100
AcDbLine
10
3322.027111562518
20
1136.119255720028
30
0.0
11
3322.230752531333
21
1135.753369670229
31
0.0
0
LINE
5
765
100
AcDbEntity
8
0-0
6
CONTINUOUS
62
7
100
AcDbLine
10
3321.794208068171
20
1136.450621303045
30
0.0
11
3322.027111562518
21
1136.119255720028
31
0.0
0
LINE
5
766
100
AcDbEntity
8
0-0
6
CONTINUOUS
62
7
100
AcDbLine
10
3321.640711908418
20
1136.622576755276
30
0.0
11
3321.794208068171
21
1136.450621303045
31
0.0
0
LINE
5
767
100
AcDbEntity
8
0-0
6
CONTINUOUS
62
7
100
AcDbLine
10
3321.424216194343
20
1136.815607416105
30
0.0
11
3321.640711908418
21
1136.622576755276
31
0.0
0
LINE
5
768
100
AcDbEntity
8
0-0
6
CONTINUOUS
62
7
100
AcDbLine
10
3320.997601498088
20
1137.092256938106
30
0.0
11
3321.424216194343
21
1136.815607416105
31
0.0
0
LINE
5
769
100
AcDbEntity
8
0-0
6
CONTINUOUS
62
7
100
AcDbLine
10
3320.516738449055
20
1137.312384690137
30
0.0
11
3320.997601498088
21
1137.092256938106
31
0.0
0
LINE
5
76a
100
AcDbEntity
8
0-0
6
CONTINUOUS
62
7
100
AcDbLine
10
3319.997067178269
20
1137.492931743604
30
0.0
11
3320.516738449055
21
1137.312384690137
31
0.0
0
LINE
5
76b
100
AcDbEntity
8
0-0
6
CONTINUOUS
62
7
100
AcDbLine
10
3319.454027816751
20
1137.650839169911
30
0.0
11
3319.997067178269
21
1137.492931743604
31
0.0
0
LINE
5
76c
100
AcDbEntity
8
0-0
6
CONTINUOUS
62
7
100
AcDbLine
10
3318.903060495527
20
1137.803048040463
30
0.0
11
3319.454027816751
21
1137.650839169911
31
0.0
0
LINE
5
76d
100
AcDbEntity
8
0-0
6
CONTINUOUS
62
7
100
AcDbLine
10
3318.585951072588
20
1137.895393770205
30
0.0
11
3318.903060495527
21
1137.803048040463
31
0.0
0
LINE
5
76e
100
AcDbEntity
8
0-0
6
CONTINUOUS
62
7
100
AcDbLine
10
3317.884546081506
20
1138.129574274960
30
0.0
11
3318.585951072588
21
1137.895393770205
31
0.0
0
LINE
5
76f
100
AcDbEntity
8
0-0
6
CONTINUOUS
62
7
100
AcDbLine
10
3316.733078119216
20
1138.607552169089
30
0.0
11
3317.884546081506
21
1138.129574274960
31
0.0
0
LINE
5
770
100
AcDbEntity
8
0-0
6
CONTINUOUS
62
7
100
AcDbLine
10
3315.640817633980
20
1139.161847066352
30
0.0
11
3316.733078119216
21
1138.607552169089
31
0.0
0
LINE
5
771
100
AcDbEntity
8
0-0
6
CONTINUOUS
62
7
100
AcDbLine
10
3314.591460414759
20
1139.771958568310
30
0.0
11
3315.640817633980
21
1139.161847066352
31
0.0
0
POLYLINE
5
772
100
AcDbEntity
8
0-0
6
CONTINUOUS
62
  7
100
AcDb2dPolyline
66
1
10
0.0
20
0.0
30
0.0
70
0
0
VERTEX
5
773
100
AcDbEntity
8
0-0
6
CONTINUOUS
62
  7
100
AcDbVertex
100
AcDb2dVertex
10
3212.209619653438
20
1328.412722633414
30
0.0
0
VERTEX
5
774
100
AcDbEntity
8
0-0
6
CONTINUOUS
62
  7
100
AcDbVertex
100
AcDb2dVertex
10
3212.437093630532
20
1326.646437574423
30
0.0
0
VERTEX
5
775
100
AcDbEntity
8
0-0
6
CONTINUOUS
62
  7
100
AcDbVertex
100
AcDb2dVertex
10
3212.838107721334
20
1323.602946424062
30
0.0
0
VERTEX
5
776
100
AcDbEntity
8
0-0
6
CONTINUOUS
62
  7
100
AcDbVertex
100
AcDb2dVertex
10
3213.263615085944
20
1320.564532820549
30
0.0
0
VERTEX
5
777
100
AcDbEntity
8
0-0
6
CONTINUOUS
62
  7
100
AcDbVertex
100
AcDb2dVertex
10
3213.729117796389
20
1317.534410401130
30
0.0
0
VERTEX
5
778
100
AcDbEntity
8
0-0
6
CONTINUOUS
62
  7
100
AcDbVertex
100
AcDb2dVertex
10
3214.250117924700
20
1314.515792803049
30
0.0
0
VERTEX
5
779
100
AcDbEntity
8
0-0
6
CONTINUOUS
62
  7
100
AcDbVertex
100
AcDb2dVertex
10
3214.842117542907
20
1311.511893663552
30
0.0
0
VERTEX
5
77a
100
AcDbEntity
8
0-0
6
CONTINUOUS
62
  7
100
AcDbVertex
100
AcDb2dVertex
10
3215.224117910225
20
1309.777642500552
30
0.0
0
VERTEX
5
77b
100
AcDbEntity
8
0-0
6
CONTINUOUS
62
  7
100
AcDbVertex
100
AcDb2dVertex
10
3215.553863286390
20
1308.388564987695
30
0.0
0
VERTEX
5
77c
100
AcDbEntity
8
0-0
6
CONTINUOUS
62
  7
100
AcDbVertex
100
AcDb2dVertex
10
3216.168504426220
20
1306.003835142812
30
0.0
0
VERTEX
5
77d
100
AcDbEntity
8
0-0
6
CONTINUOUS
62
  7
100
AcDbVertex
100
AcDb2dVertex
10
3216.837564971057
20
1303.632252337252
30
0.0
0
VERTEX
5
77e
100
AcDbEntity
8
0-0
6
CONTINUOUS
62
  7
100
AcDbVertex
100
AcDb2dVertex
10
3217.556447777472
20
1301.274044385096
30
0.0
0
VERTEX
5
77f
100
AcDbEntity
8
0-0
6
CONTINUOUS
62
  7
100
AcDbVertex
100
AcDb2dVertex
10
3218.320555702037
20
1298.929439100424
30
0.0
0
VERTEX
5
780
100
AcDbEntity
8
0-0
6
CONTINUOUS
62
  7
100
AcDbVertex
100
AcDb2dVertex
10
3219.125291601325
20
1296.598664297317
30
0.0
0
VERTEX
5
781
100
AcDbEntity
8
0-0
6
CONTINUOUS
62
  7
100
AcDbVertex
100
AcDb2dVertex
10
3219.608842647369
20
1295.253241808762
30
0.0
0
VERTEX
5
782
100
AcDbEntity
8
0-0
6
CONTINUOUS
62
  7
100
AcDbVertex
100
AcDb2dVertex
10
3220.468031023476
20
1292.947358375221
30
0.0
0
VERTEX
5
783
100
AcDbEntity
8
0-0
6
CONTINUOUS
62
  7
100
AcDbVertex
100
AcDb2dVertex
10
3222.025528138008
20
1289.003837350872
30
0.0
0
VERTEX
5
784
100
AcDbEntity
8
0-0
6
CONTINUOUS
62
  7
100
AcDbVertex
100
AcDb2dVertex
10
3223.676328425853
20
1285.099325917893
30
0.0
0
VERTEX
5
785
100
AcDbEntity
8
0-0
6
CONTINUOUS
62
  7
100
AcDbVertex
100
AcDb2dVertex
10
3225.416857647292
20
1281.231877519352
30
0.0
0
VERTEX
5
786
100
AcDbEntity
8
0-0
6
CONTINUOUS
62
  7
100
AcDbVertex
100
AcDb2dVertex
10
3227.243541562607
20
1277.399545598317
30
0.0
0
VERTEX
5
787
100
AcDbEntity
8
0-0
6
CONTINUOUS
62
  7
100
AcDbVertex
100
AcDb2dVertex
10
3229.152805932079
20
1273.600383597855
30
0.0
0
VERTEX
5
788
100
AcDbEntity
8
0-0
6
CONTINUOUS
62
  7
100
AcDbVertex
100
AcDb2dVertex
10
3230.296609194158
20
1271.411301050541
30
0.0
0
VERTEX
5
789
100
AcDbEntity
8
0-0
6
CONTINUOUS
62
  7
100
AcDbVertex
100
AcDb2dVertex
10
3231.131817898574
20
1269.850540599561
30
0.0
0
VERTEX
5
78a
100
AcDbEntity
8
0-0
6
CONTINUOUS
62
  7
100
AcDbVertex
100
AcDb2dVertex
10
3232.607664725842
20
1267.177898974376
30
0.0
0
VERTEX
5
78b
100
AcDbEntity
8
0-0
6
CONTINUOUS
62
  7
100
AcDbVertex
100
AcDb2dVertex
10
3234.135935640588
20
1264.537731425383
30
0.0
0
VERTEX
5
78c
100
AcDbEntity
8
0-0
6
CONTINUOUS
62
  7
100
AcDbVertex
100
AcDb2dVertex
10
3235.724848495996
20
1261.940826664068
30
0.0
0
VERTEX
5
78d
100
AcDbEntity
8
0-0
6
CONTINUOUS
62
  7
100
AcDbVertex
100
AcDb2dVertex
10
3237.382621145250
20
1259.397973401915
30
0.0
0
VERTEX
5
78e
100
AcDbEntity
8
0-0
6
CONTINUOUS
62
  7
100
AcDbVertex
100
AcDb2dVertex
10
3239.117471441535
20
1256.919960350410
30
0.0
0
VERTEX
5
78f
100
AcDbEntity
8
0-0
6
CONTINUOUS
62
  7
100
AcDbVertex
100
AcDb2dVertex
10
3240.162239852732
20
1255.516673878394
30
0.0
0
VERTEX
5
790
100
AcDbEntity
8
0-0
6
CONTINUOUS
62
  7
100
AcDbVertex
100
AcDb2dVertex
10
3241.008176128856
20
1254.427248452515
30
0.0
0
VERTEX
5
791
100
AcDbEntity
8
0-0
6
CONTINUOUS
62
  7
100
AcDbVertex
100
AcDb2dVertex
10
3242.505780800919
20
1252.581270512447
30
0.0
0
VERTEX
5
792
100
AcDbEntity
8
0-0
6
CONTINUOUS
62
  7
100
AcDbVertex
100
AcDb2dVertex
10
3244.044895876863
20
1250.764136768902
30
0.0
0
VERTEX
5
793
100
AcDbEntity
8
0-0
6
CONTINUOUS
62
  7
100
AcDbVertex
100
AcDb2dVertex
10
3245.616247538477
20
1248.961783570910
30
0.0
0
VERTEX
5
794
100
AcDbEntity
8
0-0
6
CONTINUOUS
62
  7
100
AcDbVertex
100
AcDb2dVertex
10
3247.210561967551
20
1247.160147267503
30
0.0
0
VERTEX
5
795
100
AcDbEntity
8
0-0
6
CONTINUOUS
62
  7
100
AcDbVertex
100
AcDb2dVertex
10
3248.818565345875
20
1245.345164207709
30
0.0
0
VERTEX
5
796
100
AcDbEntity
8
0-0
6
CONTINUOUS
62
  7
100
AcDbVertex
100
AcDb2dVertex
10
3249.753825215234
20
1244.280816739462
30
0.0
0
VERTEX
5
797
100
AcDbEntity
8
0-0
6
CONTINUOUS
62
  7
100
AcDbVertex
100
AcDb2dVertex
10
3250.201055281764
20
1243.767133100616
30
0.0
0
VERTEX
5
798
100
AcDbEntity
8
0-0
6
CONTINUOUS
62
  7
100
AcDbVertex
100
AcDb2dVertex
10
3250.962606722507
20
1242.872687119871
30
0.0
0
VERTEX
5
799
100
AcDbEntity
8
0-0
6
CONTINUOUS
62
  7
100
AcDbVertex
100
AcDb2dVertex
10
3251.697936185645
20
1241.963575995521
30
0.0
0
VERTEX
5
79a
100
AcDbEntity
8
0-0
6
CONTINUOUS
62
  7
100
AcDbVertex
100
AcDb2dVertex
10
3252.390587266338
20
1241.035677076721
30
0.0
0
VERTEX
5
79b
100
AcDbEntity
8
0-0
6
CONTINUOUS
62
  7
100
AcDbVertex
100
AcDb2dVertex
10
3253.024103559747
20
1240.084867712620
30
0.0
0
VERTEX
5
79c
100
AcDbEntity
8
0-0
6
CONTINUOUS
62
  7
100
AcDbVertex
100
AcDb2dVertex
10
3253.582028661032
20
1239.107025252372
30
0.0
0
VERTEX
5
79d
100
AcDbEntity
8
0-0
6
CONTINUOUS
62
  7
100
AcDbVertex
100
AcDb2dVertex
10
3253.864504656307
20
1238.525865521960
30
0.0
0
VERTEX
5
79e
100
AcDbEntity
8
0-0
6
CONTINUOUS
62
  7
100
AcDbVertex
100
AcDb2dVertex
10
3254.386602524040
20
1237.157804917161
30
0.0
0
VERTEX
5
79f
100
AcDbEntity
8
0-0
6
CONTINUOUS
62
  7
100
AcDbVertex
100
AcDb2dVertex
10
3254.936554772267
20
1234.681792413512
30
0.0
0
VERTEX
5
7a0
100
AcDbEntity
8
0-0
6
CONTINUOUS
62
  7
100
AcDbVertex
100
AcDb2dVertex
10
3255.146589878758
20
1232.088974369276
30
0.0
0
VERTEX
5
7a1
100
AcDbEntity
8
0-0
6
CONTINUOUS
62
  7
100
AcDbVertex
100
AcDb2dVertex
10
3255.136934436493
20
1229.416164069550
30
0.0
0
VERTEX
5
7a2
100
AcDbEntity
8
0-0
6
CONTINUOUS
62
  7
100
AcDbVertex
100
AcDb2dVertex
10
3255.027815038454
20
1226.700174799434
30
0.0
0
VERTEX
5
7a3
100
AcDbEntity
8
0-0
6
CONTINUOUS
62
  7
100
AcDbVertex
100
AcDb2dVertex
10
3254.939458277621
20
1223.977819844027
30
0.0
0
VERTEX
5
7a4
100
AcDbEntity
8
0-0
6
CONTINUOUS
62
  7
100
AcDbVertex
100
AcDb2dVertex
10
3254.945100326125
20
1222.410443561509
30
0.0
0
VERTEX
5
7a5
100
AcDbEntity
8
0-0
6
CONTINUOUS
62
  7
100
AcDbVertex
100
AcDb2dVertex
10
3255.025755056393
20
1220.732458133656
30
0.0
0
VERTEX
5
7a6
100
AcDbEntity
8
0-0
6
CONTINUOUS
62
  7
100
AcDbVertex
100
AcDb2dVertex
10
3255.340907707420
20
1217.883219830379
30
0.0
0
VERTEX
5
7a7
100
AcDbEntity
8
0-0
6
CONTINUOUS
62
  7
100
AcDbVertex
100
AcDb2dVertex
10
3255.850477908281
20
1215.083309134634
30
0.0
0
VERTEX
5
7a8
100
AcDbEntity
8
0-0
6
CONTINUOUS
62
  7
100
AcDbVertex
100
AcDb2dVertex
10
3256.521343923790
20
1212.325556174982
30
0.0
0
VERTEX
5
7a9
100
AcDbEntity
8
0-0
6
CONTINUOUS
62
  7
100
AcDbVertex
100
AcDb2dVertex
10
3257.320384018758
20
1209.602791079980
30
0.0
0
VERTEX
5
7aa
100
AcDbEntity
8
0-0
6
CONTINUOUS
62
  7
100
AcDbVertex
100
AcDb2dVertex
10
3258.214476458000
20
1206.907843978188
30
0.0
0
VERTEX
5
7ab
100
AcDbEntity
8
0-0
6
CONTINUOUS
62
  7
100
AcDbVertex
100
AcDb2dVertex
10
3258.763551370912
20
1205.354695561457
30
0.0
0
VERTEX
5
7ac
100
AcDbEntity
8
0-0
6
CONTINUOUS
62
  7
100
AcDbVertex
100
AcDb2dVertex
10
3259.297658598615
20
1203.889668104973
30
0.0
0
VERTEX
5
7ad
100
AcDbEntity
8
0-0
6
CONTINUOUS
62
  7
100
AcDbVertex
100
AcDb2dVertex
10
3260.249273898550
20
1201.375902595205
30
0.0
0
VERTEX
5
7ae
100
AcDbEntity
8
0-0
6
CONTINUOUS
62
  7
100
AcDbVertex
100
AcDb2dVertex
10
3261.240546732865
20
1198.878217355109
30
0.0
0
VERTEX
5
7af
100
AcDbEntity
8
0-0
6
CONTINUOUS
62
  7
100
AcDbVertex
100
AcDb2dVertex
10
3262.272343576018
20
1196.397435927642
30
0.0
0
VERTEX
5
7b0
100
AcDbEntity
8
0-0
6
CONTINUOUS
62
  7
100
AcDbVertex
100
AcDb2dVertex
10
3263.345530902470
20
1193.934381855754
30
0.0
0
VERTEX
5
7b1
100
AcDbEntity
8
0-0
6
CONTINUOUS
62
  7
100
AcDbVertex
100
AcDb2dVertex
10
3264.460975186679
20
1191.489878682397
30
0.0
0
VERTEX
5
7b2
100
AcDbEntity
8
0-0
6
CONTINUOUS
62
  7
100
AcDbVertex
100
AcDb2dVertex
10
3265.127636445559
20
1190.080891382305
30
0.0
0
VERTEX
5
7b3
100
AcDbEntity
8
0-0
6
CONTINUOUS
62
  7
100
AcDbVertex
100
AcDb2dVertex
10
3265.651763030495
20
1188.999068741064
30
0.0
0
VERTEX
5
7b4
100
AcDbEntity
8
0-0
6
CONTINUOUS
62
  7
100
AcDbVertex
100
AcDb2dVertex
10
3266.577351834199
20
1187.144449547522
30
0.0
0
VERTEX
5
7b5
100
AcDbEntity
8
0-0
6
CONTINUOUS
62
  7
100
AcDbVertex
100
AcDb2dVertex
10
3267.532854232768
20
1185.305155038300
30
0.0
0
VERTEX
5
7b6
100
AcDbEntity
8
0-0
6
CONTINUOUS
62
  7
100
AcDbVertex
100
AcDb2dVertex
10
3268.520786361014
20
1183.483414009009
30
0.0
0
VERTEX
5
7b7
100
AcDbEntity
8
0-0
6
CONTINUOUS
62
  7
100
AcDbVertex
100
AcDb2dVertex
10
3269.543664353753
20
1181.681455255259
30
0.0
0
VERTEX
5
7b8
100
AcDbEntity
8
0-0
6
CONTINUOUS
62
  7
100
AcDbVertex
100
AcDb2dVertex
10
3270.604004345797
20
1179.901507572663
30
0.0
0
VERTEX
5
7b9
100
AcDbEntity
8
0-0
6
CONTINUOUS
62
  7
100
AcDbVertex
100
AcDb2dVertex
10
3271.237158117219
20
1178.880101650928
30
0.0
0
VERTEX
5
7ba
100
AcDbEntity
8
0-0
6
CONTINUOUS
62
  7
100
AcDbVertex
100
AcDb2dVertex
10
3272.013276456018
20
1177.668571018475
30
0.0
0
VERTEX
5
7bb
100
AcDbEntity
8
0-0
6
CONTINUOUS
62
  7
100
AcDbVertex
100
AcDb2dVertex
10
3273.396863667128
20
1175.608917618659
30
0.0
0
VERTEX
5
7bc
100
AcDbEntity
8
0-0
6
CONTINUOUS
62
  7
100
AcDbVertex
100
AcDb2dVertex
10
3274.835774821285
20
1173.586648319748
30
0.0
0
VERTEX
5
7bd
100
AcDbEntity
8
0-0
6
CONTINUOUS
62
  7
100
AcDbVertex
100
AcDb2dVertex
10
3276.327439666485
20
1171.602264919667
30
0.0
0
VERTEX
5
7be
100
AcDbEntity
8
0-0
6
CONTINUOUS
62
  7
100
AcDbVertex
100
AcDb2dVertex
10
3277.869287950726
20
1169.656269216339
30
0.0
0
VERTEX
5
7bf
100
AcDbEntity
8
0-0
6
CONTINUOUS
62
  7
100
AcDbVertex
100
AcDb2dVertex
10
3279.458749422007
20
1167.749163007688
30
0.0
0
VERTEX
5
7c0
100
AcDbEntity
8
0-0
6
CONTINUOUS
62
  7
100
AcDbVertex
100
AcDb2dVertex
10
3280.401440624710
20
1166.661058307607
30
0.0
0
VERTEX
5
7c1
100
AcDbEntity
8
0-0
6
CONTINUOUS
62
  7
100
AcDbVertex
100
AcDb2dVertex
10
3281.020445128983
20
1165.962775899803
30
0.0
0
VERTEX
5
7c2
100
AcDbEntity
8
0-0
6
CONTINUOUS
62
  7
100
AcDbVertex
100
AcDb2dVertex
10
3282.101924303189
20
1164.772043089226
30
0.0
0
VERTEX
5
7c3
100
AcDbEntity
8
0-0
6
CONTINUOUS
62
  7
100
AcDbVertex
100
AcDb2dVertex
10
3283.201068203868
20
1163.598063072215
30
0.0
0
VERTEX
5
7c4
100
AcDbEntity
8
0-0
6
CONTINUOUS
62
  7
100
AcDbVertex
100
AcDb2dVertex
10
3284.317472216661
20
1162.440883437271
30
0.0
0
VERTEX
5
7c5
100
AcDbEntity
8
0-0
6
CONTINUOUS
62
  7
100
AcDbVertex
100
AcDb2dVertex
10
3285.450731727212
20
1161.300551772891
30
0.0
0
VERTEX
5
7c6
100
AcDbEntity
8
0-0
6
CONTINUOUS
62
  7
100
AcDbVertex
100
AcDb2dVertex
10
3286.600442121161
20
1160.177115667578
30
0.0
0
VERTEX
5
7c7
100
AcDbEntity
8
0-0
6
CONTINUOUS
62
  7
100
AcDbVertex
100
AcDb2dVertex
10
3287.274652505328
20
1159.533283024003
30
0.0
0
VERTEX
5
7c8
100
AcDbEntity
8
0-0
6
CONTINUOUS
62
  7
100
AcDbVertex
100
AcDb2dVertex
10
3287.880811238868
20
1158.963496939952
30
0.0
0
VERTEX
5
7c9
100
AcDbEntity
8
0-0
6
CONTINUOUS
62
  7
100
AcDbVertex
100
AcDb2dVertex
10
3288.935336406582
20
1157.991258474741
30
0.0
0
VERTEX
5
7ca
100
AcDbEntity
8
0-0
6
CONTINUOUS
62
  7
100
AcDbVertex
100
AcDb2dVertex
10
3290.000997633013
20
1157.031074015790
30
0.0
0
VERTEX
5
7cb
100
AcDbEntity
8
0-0
6
CONTINUOUS
62
  7
100
AcDbVertex
100
AcDb2dVertex
10
3291.076872903725
20
1156.082018232025
30
0.0
0
VERTEX
5
7cc
100
AcDbEntity
8
0-0
6
CONTINUOUS
62
  7
100
AcDbVertex
100
AcDb2dVertex
10
3292.162040204285
20
1155.143165792371
30
0.0
0
VERTEX
5
7cd
100
AcDbEntity
8
0-0
6
CONTINUOUS
62
  7
100
AcDbVertex
100
AcDb2dVertex
10
3293.255577520262
20
1154.213591365753
30
0.0
0
VERTEX
5
7ce
100
AcDbEntity
8
0-0
6
CONTINUOUS
62
  7
100
AcDbVertex
100
AcDb2dVertex
10
3293.893300982960
20
1153.678324755328
30
0.0
0
VERTEX
5
7cf
100
AcDbEntity
8
0-0
6
CONTINUOUS
62
  7
100
AcDbVertex
100
AcDb2dVertex
10
3294.657057492213
20
1153.043571408372
30
0.0
0
VERTEX
5
7d0
100
AcDbEntity
8
0-0
6
CONTINUOUS
62
  7
100
AcDbVertex
100
AcDb2dVertex
10
3295.983414764689
20
1151.960697263310
30
0.0
0
VERTEX
5
7d1
100
AcDbEntity
8
0-0
6
CONTINUOUS
62
  7
100
AcDbVertex
100
AcDb2dVertex
10
3297.324514622653
20
1150.896566577711
30
0.0
0
VERTEX
5
7d2
100
AcDbEntity
8
0-0
6
CONTINUOUS
62
  7
100
AcDbVertex
100
AcDb2dVertex
10
3298.683464127829
20
1149.856005898081
30
0.0
0
VERTEX
5
7d3
100
AcDbEntity
8
0-0
6
CONTINUOUS
62
  7
100
AcDbVertex
100
AcDb2dVertex
10
3300.063370341943
20
1148.843841770929
30
0.0
0
VERTEX
5
7d4
100
AcDbEntity
8
0-0
6
CONTINUOUS
62
  7
100
AcDbVertex
100
AcDb2dVertex
10
3301.467340326719
20
1147.864900742760
30
0.0
0
VERTEX
5
7d5
100
AcDbEntity
8
0-0
6
CONTINUOUS
62
  7
100
AcDbVertex
100
AcDb2dVertex
10
3302.293893281493
20
1147.314239680682
30
0.0
0
VERTEX
5
7d6
100
AcDbEntity
8
0-0
6
CONTINUOUS
62
  7
100
AcDbVertex
100
AcDb2dVertex
10
3303.191068613585
20
1146.738091116114
30
0.0
0
VERTEX
5
7d7
100
AcDbEntity
8
0-0
6
CONTINUOUS
62
  7
100
AcDbVertex
100
AcDb2dVertex
10
3304.757959172899
20
1145.773864966015
30
0.0
0
VERTEX
5
7d8
100
AcDbEntity
8
0-0
6
CONTINUOUS
62
  7
100
AcDbVertex
100
AcDb2dVertex
10
3306.015031650587
20
1145.027692930099
30
0.0
0
SEQEND
5
7d9
100
AcDbEntity
8
0-0
0
POLYLINE
5
7da
100
AcDbEntity
8
0-0
6
CONTINUOUS
62
  7
100
AcDb2dPolyline
66
1
10
0.0
20
0.0
30
0.0
70
0
0
VERTEX
5
7db
100
AcDbEntity
8
0-0
6
CONTINUOUS
62
  7
100
AcDbVertex
100
AcDb2dVertex
10
3259.600336173092
20
1134.109600164060
30
0.0
0
VERTEX
5
7dc
100
AcDbEntity
8
0-0
6
CONTINUOUS
62
  7
100
AcDbVertex
100
AcDb2dVertex
10
3259.313478248637
20
1136.567702412839
30
0.0
0
VERTEX
5
7dd
100
AcDbEntity
8
0-0
6
CONTINUOUS
62
  7
100
AcDbVertex
100
AcDb2dVertex
10
3258.856460380057
20
1140.801635251437
30
0.0
0
VERTEX
5
7de
100
AcDbEntity
8
0-0
6
CONTINUOUS
62
  7
100
AcDbVertex
100
AcDb2dVertex
10
3258.503789066454
20
1145.023972293139
30
0.0
0
VERTEX
5
7df
100
AcDbEntity
8
0-0
6
CONTINUOUS
62
  7
100
AcDbVertex
100
AcDb2dVertex
10
3258.321506431228
20
1149.227374425984
30
0.0
0
VERTEX
5
7e0
100
AcDbEntity
8
0-0
6
CONTINUOUS
62
  7
100
AcDbVertex
100
AcDb2dVertex
10
3258.375654597784
20
1153.404502538013
30
0.0
0
VERTEX
5
7e1
100
AcDbEntity
8
0-0
6
CONTINUOUS
62
  7
100
AcDbVertex
100
AcDb2dVertex
10
3258.732275689523
20
1157.548017517266
30
0.0
0
VERTEX
5
7e2
100
AcDbEntity
8
0-0
6
CONTINUOUS
62
  7
100
AcDbVertex
100
AcDb2dVertex
10
3259.103733047862
20
1159.932962676048
30
0.0
0
VERTEX
5
7e3
100
AcDbEntity
8
0-0
6
CONTINUOUS
62
  7
100
AcDbVertex
100
AcDb2dVertex
10
3259.335834966067
20
1161.106532414481
30
0.0
0
VERTEX
5
7e4
100
AcDbEntity
8
0-0
6
CONTINUOUS
62
  7
100
AcDbVertex
100
AcDb2dVertex
10
3259.796956873383
20
1163.123275576448
30
0.0
0
VERTEX
5
7e5
100
AcDbEntity
8
0-0
6
CONTINUOUS
62
  7
100
AcDbVertex
100
AcDb2dVertex
10
3260.308632419043
20
1165.134733807925
30
0.0
0
VERTEX
5
7e6
100
AcDbEntity
8
0-0
6
CONTINUOUS
62
  7
100
AcDbVertex
100
AcDb2dVertex
10
3260.839939006666
20
1167.144554214724
30
0.0
0
VERTEX
5
7e7
100
AcDbEntity
8
0-0
6
CONTINUOUS
62
  7
100
AcDbVertex
100
AcDb2dVertex
10
3261.359954039874
20
1169.156383902658
30
0.0
0
VERTEX
5
7e8
100
AcDbEntity
8
0-0
6
CONTINUOUS
62
  7
100
AcDbVertex
100
AcDb2dVertex
10
3261.837754922288
20
1171.173869977540
30
0.0
0
VERTEX
5
7e9
100
AcDbEntity
8
0-0
6
CONTINUOUS
62
  7
100
AcDbVertex
100
AcDb2dVertex
10
3262.083351799245
20
1172.348040806812
30
0.0
0
VERTEX
5
7ea
100
AcDbEntity
8
0-0
6
CONTINUOUS
62
  7
100
AcDbVertex
100
AcDb2dVertex
10
3262.470325344947
20
1174.596529988135
30
0.0
0
VERTEX
5
7eb
100
AcDbEntity
8
0-0
6
CONTINUOUS
62
  7
100
AcDbVertex
100
AcDb2dVertex
10
3262.906633307968
20
1178.502184757141
30
0.0
0
VERTEX
5
7ec
100
AcDbEntity
8
0-0
6
CONTINUOUS
62
  7
100
AcDbVertex
100
AcDb2dVertex
10
3263.096881575141
20
1182.438691099248
30
0.0
0
VERTEX
5
7ed
100
AcDbEntity
8
0-0
6
CONTINUOUS
62
  7
100
AcDbVertex
100
AcDb2dVertex
10
3263.094794970887
20
1186.399312863125
30
0.0
0
VERTEX
5
7ee
100
AcDbEntity
8
0-0
6
CONTINUOUS
62
  7
100
AcDbVertex
100
AcDb2dVertex
10
3262.954098319627
20
1190.377313897438
30
0.0
0
VERTEX
5
7ef
100
AcDbEntity
8
0-0
6
CONTINUOUS
62
  7
100
AcDbVertex
100
AcDb2dVertex
10
3262.728516445782
20
1194.365958050857
30
0.0
0
VERTEX
5
7f0
100
AcDbEntity
8
0-0
6
CONTINUOUS
62
  7
100
AcDbVertex
100
AcDb2dVertex
10
3262.579954924475
20
1196.681593943108
30
0.0
0
SEQEND
5
7f1
100
AcDbEntity
8
0-0
0
POLYLINE
5
7f2
100
AcDbEntity
8
0-0
6
CONTINUOUS
62
  7
100
AcDb2dPolyline
66
1
10
0.0
20
0.0
30
0.0
70
0
0
VERTEX
5
7f3
100
AcDbEntity
8
0-0
6
CONTINUOUS
62
  7
100
AcDbVertex
100
AcDb2dVertex
10
3275.988239305700
20
1134.109600164060
30
0.0
0
VERTEX
5
7f4
100
AcDbEntity
8
0-0
6
CONTINUOUS
62
  7
100
AcDbVertex
100
AcDb2dVertex
10
3276.050455280150
20
1134.857246959343
30
0.0
0
VERTEX
5
7f5
100
AcDbEntity
8
0-0
6
CONTINUOUS
62
  7
100
AcDbVertex
100
AcDb2dVertex
10
3276.155305741638
20
1136.146368661319
30
0.0
0
VERTEX
5
7f6
100
AcDbEntity
8
0-0
6
CONTINUOUS
62
  7
100
AcDbVertex
100
AcDb2dVertex
10
3276.253438258741
20
1137.435700094442
30
0.0
0
VERTEX
5
7f7
100
AcDbEntity
8
0-0
6
CONTINUOUS
62
  7
100
AcDbVertex
100
AcDb2dVertex
10
3276.340600967926
20
1138.725373999941
30
0.0
0
VERTEX
5
7f8
100
AcDbEntity
8
0-0
6
CONTINUOUS
62
  7
100
AcDbVertex
100
AcDb2dVertex
10
3276.412542005657
20
1140.015523119051
30
0.0
0
VERTEX
5
7f9
100
AcDbEntity
8
0-0
6
CONTINUOUS
62
  7
100
AcDbVertex
100
AcDb2dVertex
10
3276.465009508400
20
1141.306280193002
30
0.0
0
VERTEX
5
7fa
100
AcDbEntity
8
0-0
6
CONTINUOUS
62
  7
100
AcDbVertex
100
AcDb2dVertex
10
3276.484842430930
20
1142.055250167749
30
0.0
0
VERTEX
5
7fb
100
AcDbEntity
8
0-0
6
CONTINUOUS
62
  7
100
AcDbVertex
100
AcDb2dVertex
10
3276.491547530121
20
1142.429105529356
30
0.0
0
VERTEX
5
7fc
100
AcDbEntity
8
0-0
6
CONTINUOUS
62
  7
100
AcDbVertex
100
AcDb2dVertex
10
3276.498557618891
20
1143.073825801272
30
0.0
0
VERTEX
5
7fd
100
AcDbEntity
8
0-0
6
CONTINUOUS
62
  7
100
AcDbVertex
100
AcDb2dVertex
10
3276.500718267041
20
1143.718697470503
30
0.0
0
VERTEX
5
7fe
100
AcDbEntity
8
0-0
6
CONTINUOUS
62
  7
100
AcDbVertex
100
AcDb2dVertex
10
3276.499088304401
20
1144.363687480866
30
0.0
0
VERTEX
5
7ff
100
AcDbEntity
8
0-0
6
CONTINUOUS
62
  7
100
AcDbVertex
100
AcDb2dVertex
10
3276.494726560801
20
1145.008762776179
30
0.0
0
VERTEX
5
800
100
AcDbEntity
8
0-0
6
CONTINUOUS
62
  7
100
AcDbVertex
100
AcDb2dVertex
10
3276.488691866070
20
1145.653890300260
30
0.0
0
VERTEX
5
801
100
AcDbEntity
8
0-0
6
CONTINUOUS
62
  7
100
AcDbVertex
100
AcDb2dVertex
10
3276.484842430930
20
1146.028075169593
30
0.0
0
SEQEND
5
802
100
AcDbEntity
8
0-0
0
ARC
5
803
100
AcDbEntity
8
0-0
6
CONTINUOUS
62
7
100
AcDbCircle
10
3577.983175788172
20
2701.172727075135
30
0.0
40
99.779000000000
100
AcDbArc
50
276.742180126824
51
298.189561815330
0
ARC
5
804
100
AcDbEntity
8
0-0
6
CONTINUOUS
62
7
100
AcDbCircle
10
3565.300175788172
20
2790.384727075135
30
0.0
40
189.875000000000
100
AcDbArc
50
221.381973318502
51
277.382404244446
0
ARC
5
805
100
AcDbEntity
8
0-0
6
CONTINUOUS
62
7
100
AcDbCircle
10
3306.136175788171
20
2572.927727075135
30
0.0
40
148.560000000000
100
AcDbArc
50
38.231509198350
51
78.830260295550
0
ARC
5
806
100
AcDbEntity
8
0-0
6
CONTINUOUS
62
7
100
AcDbCircle
10
3332.036175788172
20
2714.301727075135
30
0.0
40
5.234000000000
100
AcDbArc
50
56.638057379689
51
241.419132049268
0
ARC
5
807
100
AcDbEntity
8
0-0
6
CONTINUOUS
62
7
100
AcDbCircle
10
3276.571175788172
20
2612.772727075135
30
0.0
40
110.456000000000
100
AcDbArc
50
24.503270156765
51
61.348903281371
0
ARC
5
808
100
AcDbEntity
8
0-0
6
CONTINUOUS
62
7
100
AcDbCircle
10
3248.851175788172
20
2612.347727075135
30
0.0
40
136.310000000000
100
AcDbArc
50
0.585872459266
51
19.828122603048
0
ARC
5
809
100
AcDbEntity
8
0-0
6
CONTINUOUS
62
7
100
AcDbCircle
10
3422.791175788172
20
2629.169727075135
30
0.0
40
40.677000000000
100
AcDbArc
50
202.289133067663
51
245.290475342039
0
ARC
5
80a
100
AcDbEntity
8
0-0
6
CONTINUOUS
62
7
100
AcDbCircle
10
3482.982175788172
20
2949.656727075135
30
0.0
40
365.679000000000
100
AcDbArc
50
257.813248575977
51
268.876255043221
0
ARC
5
80b
100
AcDbEntity
8
0-0
6
CONTINUOUS
62
7
100
AcDbCircle
10
3572.435175788172
20
4258.341727075136
30
0.0
40
1677.081000000001
100
AcDbArc
50
266.697060199141
51
271.800124723144
0
LINE
5
80c
100
AcDbEntity
8
0-0
6
CONTINUOUS
62
7
100
AcDbLine
10
3281.054137875050
20
2537.871424226121
30
0.0
11
3249.054137875050
21
2537.871424226121
31
0.0
0
ARC
5
80d
100
AcDbEntity
8
0-0
6
CONTINUOUS
62
7
100
AcDbCircle
10
3249.054137875050
20
2525.871424226121
30
0.0
40
12.000000000000
100
AcDbArc
50
90.000000000000
51
180.000000000000
0
ARC
5
80e
100
AcDbEntity
8
0-0
6
CONTINUOUS
62
7
100
AcDbCircle
10
3281.054137875050
20
2525.871424226121
30
0.0
40
12.000000000000
100
AcDbArc
50
0.000000000000
51
90.000000000000
0
LINE
5
80f
100
AcDbEntity
8
0-0
6
CONTINUOUS
62
7
100
AcDbLine
10
3292.805844077609
20
2526.154127396078
30
0.0
11
3237.200156092747
21
2526.154127396078
31
0.0
0
LINE
5
810
100
AcDbEntity
8
0-0
6
CONTINUOUS
62
7
100
AcDbLine
10
3277.594369859909
20
2599.891170323154
30
0.0
11
3252.594369859909
21
2599.891170323154
31
0.0
0
LINE
5
811
100
AcDbEntity
8
0-0
6
CONTINUOUS
62
7
100
AcDbLine
10
3252.594369859909
20
2570.598704540024
30
0.0
11
3277.594369859909
21
2570.598704540024
31
0.0
0
LINE
5
812
100
AcDbEntity
8
0-0
6
CONTINUOUS
62
7
100
AcDbLine
10
3277.594369859909
20
2562.598704540024
30
0.0
11
3252.594369859909
21
2562.598704540024
31
0.0
0
ARC
5
813
100
AcDbEntity
8
0-0
6
CONTINUOUS
62
7
100
AcDbCircle
10
3265.045110112983
20
2566.638382467110
30
0.0
40
13.134414676531
100
AcDbArc
50
342.276763383114
51
377.297564485525
0
ARC
5
814
100
AcDbEntity
8
0-0
6
CONTINUOUS
62
7
100
AcDbCircle
10
3265.045110112983
20
2566.638382467110
30
0.0
40
13.134414676531
100
AcDbArc
50
162.521885466274
51
198.017609214690
0
CIRCLE
5
815
100
AcDbEntity
8
0-0
6
CONTINUOUS
62
7
100
AcDbCircle
10
3265.061568320276
20
2566.625664761475
30
0.0
40
3.389457447208
0
ARC
5
816
100
AcDbEntity
8
0-0
6
CONTINUOUS
62
7
100
AcDbCircle
10
3252.392974432740
20
2566.622401220740
30
0.0
40
3.389457447208
100
AcDbArc
50
269.971509582607
51
449.978070214998
0
ARC
5
817
100
AcDbEntity
8
0-0
6
CONTINUOUS
62
7
100
AcDbCircle
10
3277.702335275518
20
2566.636165473395
30
0.0
40
3.389457447208
100
AcDbArc
50
90.339830380176
51
269.767752220994
0
ARC
5
818
100
AcDbEntity
8
0-0
6
CONTINUOUS
62
7
100
AcDbCircle
10
3269.374137875050
20
2631.564874022546
30
0.0
40
3.240000000000
100
AcDbArc
50
0.000000000000
51
90.000000000000
0
ARC
5
819
100
AcDbEntity
8
0-0
6
CONTINUOUS
62
7
100
AcDbCircle
10
3260.734137875050
20
2631.564874022546
30
0.0
40
3.240000000000
100
AcDbArc
50
90.000000000000
51
180.000000000000
0
LINE
5
81a
100
AcDbEntity
8
0-0
6
CONTINUOUS
62
7
100
AcDbLine
10
3269.374137875050
20
2634.804874022548
30
0.0
11
3260.734137875050
21
2634.804874022548
31
0.0
0
ARC
5
81b
100
AcDbEntity
8
0-0
6
CONTINUOUS
62
7
100
AcDbCircle
10
3243.163184788519
20
2625.535508823635
30
0.0
40
3.000000000000
100
AcDbArc
50
180.000000000000
51
270.000000000000
0
LINE
5
81c
100
AcDbEntity
8
0-0
6
CONTINUOUS
62
7
100
AcDbLine
10
3240.163184788519
20
2628.535508823635
30
0.0
11
3240.163184788519
21
2625.535508823635
31
0.0
0
ARC
5
81d
100
AcDbEntity
8
0-0
6
CONTINUOUS
62
7
100
AcDbCircle
10
3243.163184788519
20
2628.535508823635
30
0.0
40
3.000000000000
100
AcDbArc
50
90.000000000000
51
180.000000000000
0
LINE
5
81e
100
AcDbEntity
8
0-0
6
CONTINUOUS
62
7
100
AcDbLine
10
3287.163184788520
20
2622.535508823635
30
0.0
11
3243.163184788519
21
2622.535508823635
31
0.0
0
ARC
5
81f
100
AcDbEntity
8
0-0
6
CONTINUOUS
62
7
100
AcDbCircle
10
3287.163184788520
20
2625.535508823635
30
0.0
40
3.000000000000
100
AcDbArc
50
270.000000000000
51
360.000000000000
0
LINE
5
820
100
AcDbEntity
8
0-0
6
CONTINUOUS
62
7
100
AcDbLine
10
3290.163184788519
20
2628.535508823635
30
0.0
11
3290.163184788519
21
2625.535508823635
31
0.0
0
LINE
5
821
100
AcDbEntity
8
0-0
6
CONTINUOUS
62
7
100
AcDbLine
10
3287.163184788520
20
2631.535508823635
30
0.0
11
3243.163184788519
21
2631.535508823635
31
0.0
0
ARC
5
822
100
AcDbEntity
8
0-0
6
CONTINUOUS
62
7
100
AcDbCircle
10
3287.163184788520
20
2628.535508823635
30
0.0
40
3.000000000000
100
AcDbArc
50
0.000000000000
51
90.000000000000
0
ARC
5
823
100
AcDbEntity
8
0-0
6
CONTINUOUS
62
7
100
AcDbCircle
10
3265.045110112983
20
2603.930848250240
30
0.0
40
13.134414676531
100
AcDbArc
50
342.276763383114
51
377.297564485525
0
ARC
5
824
100
AcDbEntity
8
0-0
6
CONTINUOUS
62
7
100
AcDbCircle
10
3265.045110112983
20
2603.930848250240
30
0.0
40
13.134414676531
100
AcDbArc
50
162.521885466274
51
198.017609214690
0
CIRCLE
5
825
100
AcDbEntity
8
0-0
6
CONTINUOUS
62
7
100
AcDbCircle
10
3265.061568320276
20
2603.918130544605
30
0.0
40
3.389457447208
0
ARC
5
826
100
AcDbEntity
8
0-0
6
CONTINUOUS
62
7
100
AcDbCircle
10
3252.392974432741
20
2603.914867003870
30
0.0
40
3.389457447208
100
AcDbArc
50
269.971509582607
51
449.978070214998
0
ARC
5
827
100
AcDbEntity
8
0-0
6
CONTINUOUS
62
7
100
AcDbCircle
10
3277.702335275518
20
2603.928631256525
30
0.0
40
3.389457447208
100
AcDbArc
50
90.339830380176
51
269.767752220994
0
LINE
5
828
100
AcDbEntity
8
0-0
6
CONTINUOUS
62
7
100
AcDbLine
10
3252.696956309523
20
2607.617554115675
30
0.0
11
3277.564831907907
21
2607.617554115675
31
0.0
0
LINE
5
829
100
AcDbEntity
8
0-0
6
CONTINUOUS
62
7
100
AcDbLine
10
3252.854112282667
20
2570.665491207774
30
0.0
11
3252.854112282667
21
2599.814568418256
31
0.0
0
POLYLINE
5
82a
100
AcDbEntity
8
0-0
6
CONTINUOUS
62
  7
100
AcDb2dPolyline
66
1
10
0.0
20
0.0
30
0.0
70
0
0
VERTEX
5
82b
100
AcDbEntity
8
0-0
6
CONTINUOUS
62
  7
100
AcDbVertex
100
AcDb2dVertex
10
3252.525323087558
20
2607.613800916832
30
0.0
0
VERTEX
5
82c
100
AcDbEntity
8
0-0
6
CONTINUOUS
62
  7
100
AcDbVertex
100
AcDb2dVertex
10
3252.997392181656
20
2607.888948688636
30
0.0
0
VERTEX
5
82d
100
AcDbEntity
8
0-0
6
CONTINUOUS
62
  7
100
AcDbVertex
100
AcDb2dVertex
10
3253.809297286835
20
2608.366087936081
30
0.0
0
VERTEX
5
82e
100
AcDbEntity
8
0-0
6
CONTINUOUS
62
  7
100
AcDbVertex
100
AcDb2dVertex
10
3254.615627041945
20
2608.850856454179
30
0.0
0
VERTEX
5
82f
100
AcDbEntity
8
0-0
6
CONTINUOUS
62
  7
100
AcDbVertex
100
AcDb2dVertex
10
3255.412852744411
20
2609.348082895246
30
0.0
0
VERTEX
5
830
100
AcDbEntity
8
0-0
6
CONTINUOUS
62
  7
100
AcDbVertex
100
AcDb2dVertex
10
3256.197445691656
20
2609.862595911594
30
0.0
0
VERTEX
5
831
100
AcDbEntity
8
0-0
6
CONTINUOUS
62
  7
100
AcDbVertex
100
AcDb2dVertex
10
3256.965877181107
20
2610.399224155536
30
0.0
0
VERTEX
5
832
100
AcDbEntity
8
0-0
6
CONTINUOUS
62
  7
100
AcDbVertex
100
AcDb2dVertex
10
3257.402771772720
20
2610.722504474407
30
0.0
0
VERTEX
5
833
100
AcDbEntity
8
0-0
6
CONTINUOUS
62
  7
100
AcDbVertex
100
AcDb2dVertex
10
3257.652499838115
20
2610.914117128005
30
0.0
0
VERTEX
5
834
100
AcDbEntity
8
0-0
6
CONTINUOUS
62
  7
100
AcDbVertex
100
AcDb2dVertex
10
3258.077981399978
20
2611.251440775966
30
0.0
0
VERTEX
5
835
100
AcDbEntity
8
0-0
6
CONTINUOUS
62
  7
100
AcDbVertex
100
AcDb2dVertex
10
3258.498044814033
20
2611.596178580092
30
0.0
0
VERTEX
5
836
100
AcDbEntity
8
0-0
6
CONTINUOUS
62
  7
100
AcDbVertex
100
AcDb2dVertex
10
3258.913873081985
20
2611.946711728991
30
0.0
0
VERTEX
5
837
100
AcDbEntity
8
0-0
6
CONTINUOUS
62
  7
100
AcDbVertex
100
AcDb2dVertex
10
3259.326649205537
20
2612.301421411276
30
0.0
0
VERTEX
5
838
100
AcDbEntity
8
0-0
6
CONTINUOUS
62
  7
100
AcDbVertex
100
AcDb2dVertex
10
3259.737556186396
20
2612.658688815555
30
0.0
0
VERTEX
5
839
100
AcDbEntity
8
0-0
6
CONTINUOUS
62
  7
100
AcDbVertex
100
AcDb2dVertex
10
3259.975491958300
20
2612.866437962390
30
0.0
0
SEQEND
5
83a
100
AcDbEntity
8
0-0
0
LINE
5
83b
100
AcDbEntity
8
0-0
6
CONTINUOUS
62
7
100
AcDbLine
10
3270.054137875050
20
2612.896522838372
30
0.0
11
3260.054137875050
21
2612.896522838372
31
0.0
0
POLYLINE
5
83c
100
AcDbEntity
8
0-0
6
CONTINUOUS
62
  7
100
AcDb2dPolyline
66
1
10
0.0
20
0.0
30
0.0
70
0
0
VERTEX
5
83d
100
AcDbEntity
8
0-0
6
CONTINUOUS
62
  7
100
AcDbVertex
100
AcDb2dVertex
10
3277.662943234162
20
2607.667399254031
30
0.0
0
VERTEX
5
83e
100
AcDbEntity
8
0-0
6
CONTINUOUS
62
  7
100
AcDbVertex
100
AcDb2dVertex
10
3277.171377691743
20
2607.926086165185
30
0.0
0
VERTEX
5
83f
100
AcDbEntity
8
0-0
6
CONTINUOUS
62
  7
100
AcDbVertex
100
AcDb2dVertex
10
3276.326539640368
20
2608.375840870186
30
0.0
0
VERTEX
5
840
100
AcDbEntity
8
0-0
6
CONTINUOUS
62
  7
100
AcDbVertex
100
AcDb2dVertex
10
3275.489170327601
20
2608.835992211908
30
0.0
0
VERTEX
5
841
100
AcDbEntity
8
0-0
6
CONTINUOUS
62
  7
100
AcDbVertex
100
AcDb2dVertex
10
3274.663996803193
20
2609.313120340176
30
0.0
0
VERTEX
5
842
100
AcDbEntity
8
0-0
6
CONTINUOUS
62
  7
100
AcDbVertex
100
AcDb2dVertex
10
3273.855746116897
20
2609.813805404811
30
0.0
0
VERTEX
5
843
100
AcDbEntity
8
0-0
6
CONTINUOUS
62
  7
100
AcDbVertex
100
AcDb2dVertex
10
3273.069145318465
20
2610.344627555637
30
0.0
0
VERTEX
5
844
100
AcDbEntity
8
0-0
6
CONTINUOUS
62
  7
100
AcDbVertex
100
AcDb2dVertex
10
3272.624699537401
20
2610.668906137208
30
0.0
0
VERTEX
5
845
100
AcDbEntity
8
0-0
6
CONTINUOUS
62
  7
100
AcDbVertex
100
AcDb2dVertex
10
3272.367002301389
20
2610.866366699323
30
0.0
0
VERTEX
5
846
100
AcDbEntity
8
0-0
6
CONTINUOUS
62
  7
100
AcDbVertex
100
AcDb2dVertex
10
3271.929764200002
20
2611.216654018029
30
0.0
0
VERTEX
5
847
100
AcDbEntity
8
0-0
6
CONTINUOUS
62
  7
100
AcDbVertex
100
AcDb2dVertex
10
3271.500057988270
20
2611.577425881004
30
0.0
0
VERTEX
5
848
100
AcDbEntity
8
0-0
6
CONTINUOUS
62
  7
100
AcDbVertex
100
AcDb2dVertex
10
3271.076239148801
20
2611.946393086442
30
0.0
0
VERTEX
5
849
100
AcDbEntity
8
0-0
6
CONTINUOUS
62
  7
100
AcDbVertex
100
AcDb2dVertex
10
3270.656663164203
20
2612.321266432538
30
0.0
0
VERTEX
5
84a
100
AcDbEntity
8
0-0
6
CONTINUOUS
62
  7
100
AcDbVertex
100
AcDb2dVertex
10
3270.239685517085
20
2612.699756717487
30
0.0
0
VERTEX
5
84b
100
AcDbEntity
8
0-0
6
CONTINUOUS
62
  7
100
AcDbVertex
100
AcDb2dVertex
10
3269.998381014621
20
2612.920036299590
30
0.0
0
SEQEND
5
84c
100
AcDbEntity
8
0-0
0
LINE
5
84d
100
AcDbEntity
8
0-0
6
CONTINUOUS
62
7
100
AcDbLine
10
3261.054137875050
20
2612.874649084962
30
0.0
11
3261.054137875050
21
2622.607742561123
31
0.0
0
LINE
5
84e
100
AcDbEntity
8
0-0
6
CONTINUOUS
62
7
100
AcDbLine
10
3269.054137875050
20
2612.807390932593
30
0.0
11
3269.054137875050
21
2622.607742561123
31
0.0
0
LINE
5
84f
100
AcDbEntity
8
0-0
6
CONTINUOUS
62
7
100
AcDbLine
10
3277.445407564358
20
2570.685705635226
30
0.0
11
3277.445407564358
21
2599.879150041116
31
0.0
0
LINE
5
850
100
AcDbEntity
8
0-0
6
CONTINUOUS
62
7
100
AcDbLine
10
3257.054137875050
20
2538.348717741137
30
0.0
11
3257.054137875050
21
2563.150089202339
31
0.0
0
LINE
5
851
100
AcDbEntity
8
0-0
6
CONTINUOUS
62
7
100
AcDbLine
10
3273.054137875050
20
2538.100488360481
30
0.0
11
3273.054137875050
21
2562.856277803252
31
0.0
0
ARC
5
852
100
AcDbEntity
8
0-0
6
CONTINUOUS
62
7
100
AcDbCircle
10
3236.727175788172
20
2796.830727075135
30
0.0
40
53.616000000000
100
AcDbArc
50
286.974055081098
51
354.098476060540
0
ARC
5
853
100
AcDbEntity
8
0-0
6
CONTINUOUS
62
7
100
AcDbCircle
10
3352.598175788172
20
2813.456727075135
30
0.0
40
66.342000000000
100
AcDbArc
50
169.496645349485
51
199.494055186230
0
LINE
5
854
100
AcDbEntity
8
0-0
6
CONTINUOUS
62
7
100
AcDbLine
10
3830.117175788172
20
2525.550727075135
30
0.0
11
3305.117175788172
21
2525.550727075135
31
0.0
0
LINE
5
855
100
AcDbEntity
8
0-0
6
CONTINUOUS
62
7
100
AcDbLine
10
3900.117175788172
20
2900.550727075135
30
0.0
11
3390.041175788172
21
2900.550727075135
31
0.0
0
LINE
5
856
100
AcDbEntity
8
0-0
6
CONTINUOUS
62
7
100
AcDbLine
10
3380.117175788172
20
3150.550727075135
30
0.0
11
3385.117175788172
21
2905.473727075135
31
0.0
0
LINE
5
857
100
AcDbEntity
8
0-0
6
CONTINUOUS
62
7
100
AcDbLine
10
3896.506175788172
20
2913.562727075135
30
0.0
11
3900.214175788171
21
2903.550727075135
31
0.0
0
LINE
5
858
100
AcDbEntity
8
0-0
6
CONTINUOUS
62
7
100
AcDbLine
10
3896.506175788172
20
2928.562727075135
30
0.0
11
3900.214175788171
21
2918.550727075135
31
0.0
0
LINE
5
859
100
AcDbEntity
8
0-0
6
CONTINUOUS
62
7
100
AcDbLine
10
3893.733175788172
20
2915.550727075135
30
0.0
11
3476.138175788172
21
2915.550727075135
31
0.0
0
LINE
5
85a
100
AcDbEntity
8
0-0
6
CONTINUOUS
62
7
100
AcDbLine
10
3900.214175788171
20
2903.550727075135
30
0.0
11
3465.117175788172
21
2903.550727075135
31
0.0
0
LINE
5
85b
100
AcDbEntity
8
0-0
6
CONTINUOUS
62
7
100
AcDbLine
10
3415.117175788172
20
2910.550727075135
30
0.0
11
3415.117175788172
21
2900.550727075135
31
0.0
0
LINE
5
85c
100
AcDbEntity
8
0-0
6
CONTINUOUS
62
7
100
AcDbLine
10
3465.117175788172
20
2905.908727075135
30
0.0
11
3465.117175788172
21
2900.550727075135
31
0.0
0
LINE
5
85d
100
AcDbEntity
8
0-0
6
CONTINUOUS
62
7
100
AcDbLine
10
3440.117175788172
20
2910.550727075135
30
0.0
11
3415.117175788172
21
2910.550727075135
31
0.0
0
LINE
5
85e
100
AcDbEntity
8
0-0
6
CONTINUOUS
62
7
100
AcDbLine
10
3465.117175788172
20
2900.550727075135
30
0.0
11
3415.117175788172
21
2900.550727075135
31
0.0
0
LINE
5
85f
100
AcDbEntity
8
0-0
6
CONTINUOUS
62
7
100
AcDbLine
10
3375.117175788172
20
3155.550727075135
30
0.0
11
3210.117175788172
21
3155.550727075135
31
0.0
0
POLYLINE
5
860
100
AcDbEntity
8
0-0
6
CONTINUOUS
62
  7
100
AcDb2dPolyline
66
1
10
0.0
20
0.0
30
0.0
70
0
0
VERTEX
5
861
100
AcDbEntity
8
0-0
6
CONTINUOUS
62
  7
100
AcDbVertex
100
AcDb2dVertex
10
3270.117175788172
20
3155.550727075135
30
0.0
0
VERTEX
5
862
100
AcDbEntity
8
0-0
6
CONTINUOUS
62
  7
100
AcDbVertex
100
AcDb2dVertex
10
3320.117175788172
20
3155.550727075135
30
0.0
0
VERTEX
5
863
100
AcDbEntity
8
0-0
6
CONTINUOUS
62
  7
100
AcDbVertex
100
AcDb2dVertex
10
3320.117175788172
20
3158.550727075135
30
0.0
0
VERTEX
5
864
100
AcDbEntity
8
0-0
6
CONTINUOUS
62
  7
100
AcDbVertex
100
AcDb2dVertex
10
3270.117175788172
20
3158.550727075135
30
0.0
0
VERTEX
5
865
100
AcDbEntity
8
0-0
6
CONTINUOUS
62
  7
100
AcDbVertex
100
AcDb2dVertex
10
3270.117175788172
20
3155.550727075135
30
0.0
0
SEQEND
5
866
100
AcDbEntity
8
0-0
0
POLYLINE
5
867
100
AcDbEntity
8
0-0
6
CONTINUOUS
62
  7
100
AcDb2dPolyline
66
1
10
0.0
20
0.0
30
0.0
70
0
0
VERTEX
5
868
100
AcDbEntity
8
0-0
6
CONTINUOUS
62
  7
100
AcDbVertex
100
AcDb2dVertex
10
3280.117175788172
20
3158.550727075135
30
0.0
0
VERTEX
5
869
100
AcDbEntity
8
0-0
6
CONTINUOUS
62
  7
100
AcDbVertex
100
AcDb2dVertex
10
3310.117175788172
20
3158.550727075135
30
0.0
0
VERTEX
5
86a
100
AcDbEntity
8
0-0
6
CONTINUOUS
62
  7
100
AcDbVertex
100
AcDb2dVertex
10
3310.117175788172
20
3160.550727075135
30
0.0
0
VERTEX
5
86b
100
AcDbEntity
8
0-0
6
CONTINUOUS
62
  7
100
AcDbVertex
100
AcDb2dVertex
10
3280.117175788172
20
3160.550727075135
30
0.0
0
VERTEX
5
86c
100
AcDbEntity
8
0-0
6
CONTINUOUS
62
  7
100
AcDbVertex
100
AcDb2dVertex
10
3280.117175788172
20
3158.550727075135
30
0.0
0
SEQEND
5
86d
100
AcDbEntity
8
0-0
0
LINE
5
86e
100
AcDbEntity
8
0-0
6
CONTINUOUS
62
7
100
AcDbLine
10
3205.117175788172
20
2840.550727075135
30
0.0
11
3205.117175788172
21
2900.550727075135
31
0.0
0
LINE
5
86f
100
AcDbEntity
8
0-0
6
CONTINUOUS
62
7
100
AcDbLine
10
3763.062175788172
20
2750.550727075135
30
0.0
11
3830.117175788172
21
2525.550727075135
31
0.0
0
LINE
5
870
100
AcDbEntity
8
0-0
6
CONTINUOUS
62
7
100
AcDbLine
10
3209.417175788172
20
3115.550727075135
30
0.0
11
3380.832175788172
21
3115.550727075135
31
0.0
0
LINE
5
871
100
AcDbEntity
8
0-0
6
CONTINUOUS
62
7
100
AcDbLine
10
3205.117175788172
20
2900.550727075135
30
0.0
11
3210.117175788172
21
3150.550727075135
31
0.0
0
LINE
5
872
100
AcDbEntity
8
0-0
6
CONTINUOUS
62
7
100
AcDbLine
10
3625.117175788172
20
2560.550727075135
30
0.0
11
3625.117175788172
21
2670.550727075135
31
0.0
0
LINE
5
873
100
AcDbEntity
8
0-0
6
CONTINUOUS
62
7
100
AcDbLine
10
3439.099175788172
20
2825.550727075135
30
0.0
11
3278.396175788172
21
2825.550727075135
31
0.0
0
LINE
5
874
100
AcDbEntity
8
0-0
6
CONTINUOUS
62
7
100
AcDbLine
10
3435.117175788172
20
2555.550727075135
30
0.0
11
3620.117175788172
21
2555.550727075135
31
0.0
0
LINE
5
875
100
AcDbEntity
8
0-0
6
CONTINUOUS
62
7
100
AcDbLine
10
3562.382175788172
20
2600.531727075135
30
0.0
11
3563.757175788172
21
2581.283727075135
31
0.0
0
LINE
5
876
100
AcDbEntity
8
0-0
6
CONTINUOUS
62
7
100
AcDbLine
10
3553.631175788172
20
2600.867727075135
30
0.0
11
3551.961175788172
21
2581.386727075135
31
0.0
0
ARC
5
877
100
AcDbEntity
8
0-0
6
CONTINUOUS
62
7
100
AcDbCircle
10
3900.117175788172
20
2895.550727075135
30
0.0
40
5.000000000000
100
AcDbArc
50
0.000000000000
51
90.000000000000
0
ARC
5
878
100
AcDbEntity
8
0-0
6
CONTINUOUS
62
7
100
AcDbCircle
10
3900.117175788172
20
2895.550727075135
30
0.0
40
5.000000000000
100
AcDbArc
50
0.000000000000
51
90.000000000000
0
ARC
5
879
100
AcDbEntity
8
0-0
6
CONTINUOUS
62
7
100
AcDbCircle
10
3375.117175788172
20
3150.550727075135
30
0.0
40
5.000000000000
100
AcDbArc
50
0.000000000000
51
90.000000000000
0
ARC
5
87a
100
AcDbEntity
8
0-0
6
CONTINUOUS
62
7
100
AcDbCircle
10
3215.117175788172
20
3150.550727075135
30
0.0
40
5.000000000000
100
AcDbArc
50
90.000000000000
51
180.000000000000
0
ARC
5
87b
100
AcDbEntity
8
0-0
6
CONTINUOUS
62
7
100
AcDbCircle
10
3338.365175788172
20
2689.452727075135
30
0.0
40
112.739000000000
100
AcDbArc
50
70.884000626493
51
115.371342619488
0
ARC
5
87c
100
AcDbEntity
8
0-0
6
CONTINUOUS
62
7
100
AcDbCircle
10
3270.582175788172
20
2529.526727075135
30
0.0
40
286.282000000000
100
AcDbArc
50
36.221870215892
51
68.547271565011
0
ARC
5
87d
100
AcDbEntity
8
0-0
6
CONTINUOUS
62
7
100
AcDbCircle
10
3555.748175788172
20
2752.599727075135
30
0.0
40
76.451000000000
100
AcDbArc
50
224.837348609983
51
298.024668011403
0
ARC
5
87e
100
AcDbEntity
8
0-0
6
CONTINUOUS
62
7
100
AcDbCircle
10
3893.390175788171
20
2927.145727075135
30
0.0
40
3.423000000000
100
AcDbArc
50
24.454000000000
51
84.243000000000
0
ARC
5
87f
100
AcDbEntity
8
0-0
6
CONTINUOUS
62
7
100
AcDbCircle
10
3893.390175788171
20
2912.145727075135
30
0.0
40
3.423000000000
100
AcDbArc
50
24.454000000000
51
84.243000000000
0
ARC
5
880
100
AcDbEntity
8
0-0
6
CONTINUOUS
62
7
100
AcDbCircle
10
3339.808175788172
20
2967.893727075135
30
0.0
40
115.543000000000
100
AcDbArc
50
330.245171103881
51
356.356340427656
0
ARC
5
881
100
AcDbEntity
8
0-0
6
CONTINUOUS
62
7
100
AcDbCircle
10
3557.399175788172
20
3219.835727075135
30
0.0
40
278.730000000000
100
AcDbArc
50
248.471921693843
51
274.821047237777
0
ARC
5
882
100
AcDbEntity
8
0-0
6
CONTINUOUS
62
7
100
AcDbCircle
10
3694.002175788172
20
1762.986727075135
30
0.0
40
1184.525000000000
100
AcDbArc
50
80.292549826286
51
95.482754931166
0
ARC
5
883
100
AcDbEntity
8
0-0
6
CONTINUOUS
62
7
100
AcDbCircle
10
3465.368175788172
20
2976.897727075135
30
0.0
40
70.989000000000
100
AcDbArc
50
249.163705804059
51
269.797508783493
0
ARC
5
884
100
AcDbEntity
8
0-0
6
CONTINUOUS
62
7
100
AcDbCircle
10
3480.408175788172
20
2899.550727075136
30
0.0
40
16.560000000000
100
AcDbArc
50
80.157398692587
51
157.423123494443
0
ARC
5
885
100
AcDbEntity
8
0-0
6
CONTINUOUS
62
7
100
AcDbCircle
10
3763.201175788172
20
-8188.105272924866
30
0.0
40
11107.501000000000
100
AcDbArc
50
89.293230716542
51
91.444280297056
0
ARC
5
886
100
AcDbEntity
8
0-0
6
CONTINUOUS
62
7
100
AcDbCircle
10
3389.988175788172
20
2905.421727075135
30
0.0
40
4.871000000000
100
AcDbArc
50
179.384000000000
51
270.623000000000
0
ARC
5
887
100
AcDbEntity
8
0-0
6
CONTINUOUS
62
7
100
AcDbCircle
10
3679.735175788172
20
2974.270727075135
30
0.0
40
238.734000000000
100
AcDbArc
50
215.525000000000
51
340.747000000000
0
ARC
5
888
100
AcDbEntity
8
0-0
6
CONTINUOUS
62
7
100
AcDbCircle
10
3210.117175788172
20
2840.550727075135
30
0.0
40
5.000000000000
100
AcDbArc
50
180.000000000000
51
270.000000000000
0
ARC
5
889
100
AcDbEntity
8
0-0
6
CONTINUOUS
62
7
100
AcDbCircle
10
3620.117175788172
20
2670.550727075135
30
0.0
40
5.000000000000
100
AcDbArc
50
0.000000000000
51
90.000000000000
0
ARC
5
88a
100
AcDbEntity
8
0-0
6
CONTINUOUS
62
7
100
AcDbCircle
10
3697.665175788172
20
2953.360727075135
30
0.0
40
288.430000000000
100
AcDbArc
50
206.303000000000
51
254.403000000000
0
ARC
5
88b
100
AcDbEntity
8
0-0
6
CONTINUOUS
62
7
100
AcDbCircle
10
3620.117175788172
20
2560.550727075135
30
0.0
40
5.000000000000
100
AcDbArc
50
270.000000000000
51
360.000000000000
0
ARC
5
88c
100
AcDbEntity
8
0-0
6
CONTINUOUS
62
7
100
AcDbCircle
10
3373.373175788172
20
2857.289727075135
30
0.0
40
164.697000000000
100
AcDbArc
50
187.584756810983
51
222.722716214266
0
ARC
5
88d
100
AcDbEntity
8
0-0
6
CONTINUOUS
62
7
100
AcDbCircle
10
3362.869175788172
20
2745.540727075135
30
0.0
40
110.490000000000
100
AcDbArc
50
179.994918119039
51
246.474481479438
0
ARC
5
88e
100
AcDbEntity
8
0-0
6
CONTINUOUS
62
7
100
AcDbCircle
10
3313.965175788172
20
2636.374727075135
30
0.0
40
9.210000000000
100
AcDbArc
50
335.637761630347
51
418.577408742039
0
ARC
5
88f
100
AcDbEntity
8
0-0
6
CONTINUOUS
62
7
100
AcDbCircle
10
3541.415175788172
20
2542.393727075135
30
0.0
40
236.897000000000
100
AcDbArc
50
157.624045557188
51
184.076976358362
0
ARC
5
890
100
AcDbEntity
8
0-0
6
CONTINUOUS
62
7
100
AcDbCircle
10
3456.740175788172
20
2624.661727075135
30
0.0
40
72.414000000000
100
AcDbArc
50
188.673021279277
51
252.626982690909
0
ARC
5
891
100
AcDbEntity
8
0-0
6
CONTINUOUS
62
7
100
AcDbCircle
10
4270.957175788171
20
2895.629727075135
30
0.0
40
1025.682000000000
100
AcDbArc
50
191.363148028602
51
199.598505559675
0
LINE
5
892
100
AcDbEntity
8
0-0
6
CONTINUOUS
62
7
100
AcDbLine
10
3312.117175788172
20
3082.491088039772
30
0.0
11
3312.117175788172
21
3072.491088039772
31
0.0
0
LINE
5
893
100
AcDbEntity
8
0-0
6
CONTINUOUS
62
7
100
AcDbLine
10
3367.117175788172
20
3082.491088039772
30
0.0
11
3367.117175788172
21
3072.491088039772
31
0.0
0
LINE
5
894
100
AcDbEntity
8
0-0
6
CONTINUOUS
62
7
100
AcDbLine
10
3364.117175788172
20
3079.491088039771
30
0.0
11
3364.117175788172
21
3075.491088039771
31
0.0
0
LINE
5
895
100
AcDbEntity
8
0-0
6
CONTINUOUS
62
7
100
AcDbLine
10
3315.117175788172
20
3079.491088039771
30
0.0
11
3315.117175788172
21
3075.491088039771
31
0.0
0
LINE
5
896
100
AcDbEntity
8
0-0
6
CONTINUOUS
62
7
100
AcDbLine
10
3322.117175788172
20
3092.491088039772
30
0.0
11
3357.117175788172
21
3092.491088039772
31
0.0
0
LINE
5
897
100
AcDbEntity
8
0-0
6
CONTINUOUS
62
7
100
AcDbLine
10
3322.117175788172
20
3062.491088039772
30
0.0
11
3357.117175788172
21
3062.491088039772
31
0.0
0
LINE
5
898
100
AcDbEntity
8
0-0
6
CONTINUOUS
62
7
100
AcDbLine
10
3325.117175788172
20
3089.491088039771
30
0.0
11
3354.117175788172
21
3089.491088039771
31
0.0
0
LINE
5
899
100
AcDbEntity
8
0-0
6
CONTINUOUS
62
7
100
AcDbLine
10
3325.117175788172
20
3065.491088039771
30
0.0
11
3354.117175788172
21
3065.491088039771
31
0.0
0
ARC
5
89a
100
AcDbEntity
8
0-0
6
CONTINUOUS
62
7
100
AcDbCircle
10
3354.117175788172
20
3075.491088039771
30
0.0
40
10.000000000000
100
AcDbArc
50
270.000000000000
51
360.000000000000
0
ARC
5
89b
100
AcDbEntity
8
0-0
6
CONTINUOUS
62
7
100
AcDbCircle
10
3354.117175788172
20
3079.491088039771
30
0.0
40
10.000000000000
100
AcDbArc
50
0.000000000000
51
90.000000000000
0
ARC
5
89c
100
AcDbEntity
8
0-0
6
CONTINUOUS
62
7
100
AcDbCircle
10
3325.117175788172
20
3079.491088039771
30
0.0
40
10.000000000000
100
AcDbArc
50
90.000000000000
51
180.000000000000
0
ARC
5
89d
100
AcDbEntity
8
0-0
6
CONTINUOUS
62
7
100
AcDbCircle
10
3325.117175788172
20
3075.491088039771
30
0.0
40
10.000000000000
100
AcDbArc
50
180.000000000000
51
270.000000000000
0
ARC
5
89e
100
AcDbEntity
8
0-0
6
CONTINUOUS
62
7
100
AcDbCircle
10
3357.117175788172
20
3072.491088039772
30
0.0
40
10.000000000000
100
AcDbArc
50
270.000000000000
51
360.000000000000
0
ARC
5
89f
100
AcDbEntity
8
0-0
6
CONTINUOUS
62
7
100
AcDbCircle
10
3357.117175788172
20
3082.491088039772
30
0.0
40
10.000000000000
100
AcDbArc
50
0.000000000000
51
90.000000000000
0
ARC
5
8a0
100
AcDbEntity
8
0-0
6
CONTINUOUS
62
7
100
AcDbCircle
10
3322.117175788172
20
3082.491088039772
30
0.0
40
10.000000000000
100
AcDbArc
50
90.000000000000
51
180.000000000000
0
ARC
5
8a1
100
AcDbEntity
8
0-0
6
CONTINUOUS
62
7
100
AcDbCircle
10
3322.117175788172
20
3072.491088039772
30
0.0
40
10.000000000000
100
AcDbArc
50
180.000000000000
51
270.000000000000
0
LINE
5
8a2
100
AcDbEntity
8
0-0
6
CONTINUOUS
62
7
100
AcDbLine
10
3206.269267297474
20
2838.185367118349
30
0.0
11
3516.269267297474
21
2838.185367118349
31
0.0
0
LINE
5
8a3
100
AcDbEntity
8
0-0
6
CONTINUOUS
62
7
100
AcDbLine
10
4622.207531719931
20
1019.164417418140
30
0.0
11
5147.207531719931
21
1019.164417418140
31
0.0
0
LINE
5
8a4
100
AcDbEntity
8
0-0
6
CONTINUOUS
62
7
100
AcDbLine
10
4552.207531719931
20
1394.164417418140
30
0.0
11
5062.283531719930
21
1394.164417418140
31
0.0
0
LINE
5
8a5
100
AcDbEntity
8
0-0
6
CONTINUOUS
62
7
100
AcDbLine
10
5072.207531719931
20
1644.164417418140
30
0.0
11
5067.207531719931
21
1399.087417418140
31
0.0
0
LINE
5
8a6
100
AcDbEntity
8
0-0
6
CONTINUOUS
62
7
100
AcDbLine
10
4555.818531719930
20
1407.176417418139
30
0.0
11
4552.110531719931
21
1397.164417418140
31
0.0
0
LINE
5
8a7
100
AcDbEntity
8
0-0
6
CONTINUOUS
62
7
100
AcDbLine
10
4555.818531719930
20
1422.176417418139
30
0.0
11
4552.110531719931
21
1412.164417418140
31
0.0
0
LINE
5
8a8
100
AcDbEntity
8
0-0
6
CONTINUOUS
62
7
100
AcDbLine
10
4558.591531719931
20
1409.164417418140
30
0.0
11
4976.186531719930
21
1409.164417418140
31
0.0
0
LINE
5
8a9
100
AcDbEntity
8
0-0
6
CONTINUOUS
62
7
100
AcDbLine
10
4552.110531719931
20
1397.164417418140
30
0.0
11
4987.207531719931
21
1397.164417418140
31
0.0
0
LINE
5
8aa
100
AcDbEntity
8
0-0
6
CONTINUOUS
62
7
100
AcDbLine
10
5037.207531719931
20
1404.164417418140
30
0.0
11
5037.207531719931
21
1394.164417418140
31
0.0
0
LINE
5
8ab
100
AcDbEntity
8
0-0
6
CONTINUOUS
62
7
100
AcDbLine
10
4987.207531719931
20
1399.522417418139
30
0.0
11
4987.207531719931
21
1394.164417418140
31
0.0
0
LINE
5
8ac
100
AcDbEntity
8
0-0
6
CONTINUOUS
62
7
100
AcDbLine
10
5012.207531719931
20
1404.164417418140
30
0.0
11
5037.207531719931
21
1404.164417418140
31
0.0
0
LINE
5
8ad
100
AcDbEntity
8
0-0
6
CONTINUOUS
62
7
100
AcDbLine
10
4987.207531719931
20
1394.164417418140
30
0.0
11
5037.207531719931
21
1394.164417418140
31
0.0
0
LINE
5
8ae
100
AcDbEntity
8
0-0
6
CONTINUOUS
62
7
100
AcDbLine
10
5077.207531719931
20
1649.164417418140
30
0.0
11
5242.207531719931
21
1649.164417418140
31
0.0
0
POLYLINE
5
8af
100
AcDbEntity
8
0-0
6
CONTINUOUS
62
  7
100
AcDb2dPolyline
66
1
10
0.0
20
0.0
30
0.0
70
0
0
VERTEX
5
8b0
100
AcDbEntity
8
0-0
6
CONTINUOUS
62
  7
100
AcDbVertex
100
AcDb2dVertex
10
5182.207531719931
20
1649.164417418140
30
0.0
0
VERTEX
5
8b1
100
AcDbEntity
8
0-0
6
CONTINUOUS
62
  7
100
AcDbVertex
100
AcDb2dVertex
10
5132.207531719931
20
1649.164417418140
30
0.0
0
VERTEX
5
8b2
100
AcDbEntity
8
0-0
6
CONTINUOUS
62
  7
100
AcDbVertex
100
AcDb2dVertex
10
5132.207531719931
20
1652.164417418140
30
0.0
0
VERTEX
5
8b3
100
AcDbEntity
8
0-0
6
CONTINUOUS
62
  7
100
AcDbVertex
100
AcDb2dVertex
10
5182.207531719931
20
1652.164417418140
30
0.0
0
VERTEX
5
8b4
100
AcDbEntity
8
0-0
6
CONTINUOUS
62
  7
100
AcDbVertex
100
AcDb2dVertex
10
5182.207531719931
20
1649.164417418140
30
0.0
0
SEQEND
5
8b5
100
AcDbEntity
8
0-0
0
POLYLINE
5
8b6
100
AcDbEntity
8
0-0
6
CONTINUOUS
62
  7
100
AcDb2dPolyline
66
1
10
0.0
20
0.0
30
0.0
70
0
0
VERTEX
5
8b7
100
AcDbEntity
8
0-0
6
CONTINUOUS
62
  7
100
AcDbVertex
100
AcDb2dVertex
10
5172.207531719931
20
1652.164417418140
30
0.0
0
VERTEX
5
8b8
100
AcDbEntity
8
0-0
6
CONTINUOUS
62
  7
100
AcDbVertex
100
AcDb2dVertex
10
5142.207531719931
20
1652.164417418140
30
0.0
0
VERTEX
5
8b9
100
AcDbEntity
8
0-0
6
CONTINUOUS
62
  7
100
AcDbVertex
100
AcDb2dVertex
10
5142.207531719931
20
1654.164417418140
30
0.0
0
VERTEX
5
8ba
100
AcDbEntity
8
0-0
6
CONTINUOUS
62
  7
100
AcDbVertex
100
AcDb2dVertex
10
5172.207531719931
20
1654.164417418140
30
0.0
0
VERTEX
5
8bb
100
AcDbEntity
8
0-0
6
CONTINUOUS
62
  7
100
AcDbVertex
100
AcDb2dVertex
10
5172.207531719931
20
1652.164417418140
30
0.0
0
SEQEND
5
8bc
100
AcDbEntity
8
0-0
0
LINE
5
8bd
100
AcDbEntity
8
0-0
6
CONTINUOUS
62
7
100
AcDbLine
10
5247.207531719931
20
1334.164417418140
30
0.0
11
5247.207531719931
21
1394.164417418140
31
0.0
0
LINE
5
8be
100
AcDbEntity
8
0-0
6
CONTINUOUS
62
7
100
AcDbLine
10
4689.262531719931
20
1244.164417418140
30
0.0
11
4622.207531719931
21
1019.164417418140
31
0.0
0
LINE
5
8bf
100
AcDbEntity
8
0-0
6
CONTINUOUS
62
7
100
AcDbLine
10
5242.907531719930
20
1609.164417418140
30
0.0
11
5071.492531719930
21
1609.164417418140
31
0.0
0
LINE
5
8c0
100
AcDbEntity
8
0-0
6
CONTINUOUS
62
7
100
AcDbLine
10
5247.207531719931
20
1394.164417418140
30
0.0
11
5242.207531719931
21
1644.164417418140
31
0.0
0
LINE
5
8c1
100
AcDbEntity
8
0-0
6
CONTINUOUS
62
7
100
AcDbLine
10
4827.207531719931
20
1054.164417418140
30
0.0
11
4827.207531719931
21
1164.164417418140
31
0.0
0
LINE
5
8c2
100
AcDbEntity
8
0-0
6
CONTINUOUS
62
7
100
AcDbLine
10
5013.225531719930
20
1319.164417418140
30
0.0
11
5173.928531719930
21
1319.164417418140
31
0.0
0
LINE
5
8c3
100
AcDbEntity
8
0-0
6
CONTINUOUS
62
7
100
AcDbLine
10
5017.207531719931
20
1049.164417418140
30
0.0
11
4832.207531719931
21
1049.164417418140
31
0.0
0
LINE
5
8c4
100
AcDbEntity
8
0-0
6
CONTINUOUS
62
7
100
AcDbLine
10
4889.942531719930
20
1094.145417418139
30
0.0
11
4888.567531719929
21
1074.897417418140
31
0.0
0
LINE
5
8c5
100
AcDbEntity
8
0-0
6
CONTINUOUS
62
7
100
AcDbLine
10
4898.693531719930
20
1094.481417418140
30
0.0
11
4900.363531719930
21
1075.000417418139
31
0.0
0
ARC
5
8c6
100
AcDbEntity
8
0-0
6
CONTINUOUS
62
7
100
AcDbCircle
10
4552.207531719931
20
1389.164417418140
30
0.0
40
5.000000000000
100
AcDbArc
50
90.000000000000
51
180.000000000000
0
ARC
5
8c7
100
AcDbEntity
8
0-0
6
CONTINUOUS
62
7
100
AcDbCircle
10
4552.207531719931
20
1389.164417418140
30
0.0
40
5.000000000000
100
AcDbArc
50
90.000000000000
51
180.000000000000
0
ARC
5
8c8
100
AcDbEntity
8
0-0
6
CONTINUOUS
62
7
100
AcDbCircle
10
5077.207531719931
20
1644.164417418140
30
0.0
40
5.000000000000
100
AcDbArc
50
90.000000000000
51
180.000000000000
0
ARC
5
8c9
100
AcDbEntity
8
0-0
6
CONTINUOUS
62
7
100
AcDbCircle
10
5237.207531719931
20
1644.164417418140
30
0.0
40
5.000000000000
100
AcDbArc
50
360.000000000000
51
450.000000000000
0
ARC
5
8ca
100
AcDbEntity
8
0-0
6
CONTINUOUS
62
7
100
AcDbCircle
10
5113.959531719929
20
1183.066417418140
30
0.0
40
112.739000000000
100
AcDbArc
50
64.628657380511
51
109.115999373507
0
ARC
5
8cb
100
AcDbEntity
8
0-0
6
CONTINUOUS
62
7
100
AcDbCircle
10
5181.742531719930
20
1023.140417418140
30
0.0
40
286.282000000000
100
AcDbArc
50
111.452728434989
51
143.778129784108
0
ARC
5
8cc
100
AcDbEntity
8
0-0
6
CONTINUOUS
62
7
100
AcDbCircle
10
4896.576531719929
20
1246.213417418140
30
0.0
40
76.451000000000
100
AcDbArc
50
241.975331988597
51
315.162651390017
0
ARC
5
8cd
100
AcDbEntity
8
0-0
6
CONTINUOUS
62
7
100
AcDbCircle
10
4874.341531719931
20
1194.786417418140
30
0.0
40
99.779000000000
100
AcDbArc
50
241.810438184670
51
263.257819873176
0
ARC
5
8ce
100
AcDbEntity
8
0-0
6
CONTINUOUS
62
7
100
AcDbCircle
10
4887.024531719931
20
1283.998417418140
30
0.0
40
189.875000000000
100
AcDbArc
50
262.617595755554
51
318.618026681498
0
ARC
5
8cf
100
AcDbEntity
8
0-0
6
CONTINUOUS
62
7
100
AcDbCircle
10
5146.188531719931
20
1066.541417418140
30
0.0
40
148.560000000000
100
AcDbArc
50
101.169739704450
51
141.768490801650
0
ARC
5
8d0
100
AcDbEntity
8
0-0
6
CONTINUOUS
62
7
100
AcDbCircle
10
5120.288531719930
20
1207.915417418140
30
0.0
40
5.234000000000
100
AcDbArc
50
298.580867950732
51
483.361942620311
0
ARC
5
8d1
100
AcDbEntity
8
0-0
6
CONTINUOUS
62
7
100
AcDbCircle
10
5175.753531719929
20
1106.386417418139
30
0.0
40
110.456000000000
100
AcDbArc
50
118.651096718629
51
155.496729843235
0
ARC
5
8d2
100
AcDbEntity
8
0-0
6
CONTINUOUS
62
7
100
AcDbCircle
10
5203.473531719930
20
1105.961417418139
30
0.0
40
136.310000000000
100
AcDbArc
50
160.171877396952
51
179.414127540734
0
ARC
5
8d3
100
AcDbEntity
8
0-0
6
CONTINUOUS
62
7
100
AcDbCircle
10
5029.533531719931
20
1122.783417418140
30
0.0
40
40.677000000000
100
AcDbArc
50
294.709524657961
51
337.710866932337
0
ARC
5
8d4
100
AcDbEntity
8
0-0
6
CONTINUOUS
62
7
100
AcDbCircle
10
4969.342531719931
20
1443.270417418140
30
0.0
40
365.679000000000
100
AcDbArc
50
271.123744956779
51
282.186751424023
0
ARC
5
8d5
100
AcDbEntity
8
0-0
6
CONTINUOUS
62
7
100
AcDbCircle
10
4879.889531719929
20
2751.955417418140
30
0.0
40
1677.081000000001
100
AcDbArc
50
268.199875276856
51
273.302939800859
0
ARC
5
8d6
100
AcDbEntity
8
0-0
6
CONTINUOUS
62
7
100
AcDbCircle
10
4558.934531719931
20
1420.759417418140
30
0.0
40
3.423000000000
100
AcDbArc
50
95.757000000000
51
155.546000000000
0
ARC
5
8d7
100
AcDbEntity
8
0-0
6
CONTINUOUS
62
7
100
AcDbCircle
10
4558.934531719931
20
1405.759417418140
30
0.0
40
3.423000000000
100
AcDbArc
50
95.757000000000
51
155.546000000000
0
ARC
5
8d8
100
AcDbEntity
8
0-0
6
CONTINUOUS
62
7
100
AcDbCircle
10
5112.516531719930
20
1461.507417418140
30
0.0
40
115.543000000000
100
AcDbArc
50
183.643659572344
51
209.754828896119
0
ARC
5
8d9
100
AcDbEntity
8
0-0
6
CONTINUOUS
62
7
100
AcDbCircle
10
4894.925531719930
20
1713.449417418140
30
0.0
40
278.730000000000
100
AcDbArc
50
265.178952762223
51
291.528078306157
0
ARC
5
8da
100
AcDbEntity
8
0-0
6
CONTINUOUS
62
7
100
AcDbCircle
10
4758.322531719930
20
256.600417418139
30
0.0
40
1184.525000000000
100
AcDbArc
50
84.517245068834
51
99.707450173714
0
ARC
5
8db
100
AcDbEntity
8
0-0
6
CONTINUOUS
62
7
100
AcDbCircle
10
4986.956531719929
20
1470.511417418140
30
0.0
40
70.989000000000
100
AcDbArc
50
270.202491216507
51
290.836294195941
0
ARC
5
8dc
100
AcDbEntity
8
0-0
6
CONTINUOUS
62
7
100
AcDbCircle
10
4971.916531719930
20
1393.164417418140
30
0.0
40
16.560000000000
100
AcDbArc
50
22.576876505557
51
99.842601307413
0
ARC
5
8dd
100
AcDbEntity
8
0-0
6
CONTINUOUS
62
7
100
AcDbCircle
10
4689.123531719930
20
-9694.491582581861
30
0.0
40
11107.501000000000
100
AcDbArc
50
88.555719702944
51
90.706769283458
0
ARC
5
8de
100
AcDbEntity
8
0-0
6
CONTINUOUS
62
7
100
AcDbCircle
10
5062.336531719930
20
1399.035417418140
30
0.0
40
4.871000000000
100
AcDbArc
50
269.377000000000
51
360.616000000000
0
ARC
5
8df
100
AcDbEntity
8
0-0
6
CONTINUOUS
62
7
100
AcDbCircle
10
4772.589531719930
20
1467.884417418140
30
0.0
40
238.734000000000
100
AcDbArc
50
199.253000000000
51
324.475000000000
0
ARC
5
8e0
100
AcDbEntity
8
0-0
6
CONTINUOUS
62
7
100
AcDbCircle
10
5242.207531719931
20
1334.164417418140
30
0.0
40
5.000000000000
100
AcDbArc
50
270.000000000000
51
360.000000000000
0
ARC
5
8e1
100
AcDbEntity
8
0-0
6
CONTINUOUS
62
7
100
AcDbCircle
10
4832.207531719931
20
1164.164417418140
30
0.0
40
5.000000000000
100
AcDbArc
50
90.000000000000
51
180.000000000000
0
ARC
5
8e2
100
AcDbEntity
8
0-0
6
CONTINUOUS
62
7
100
AcDbCircle
10
4754.659531719931
20
1446.974417418140
30
0.0
40
288.430000000000
100
AcDbArc
50
285.597000000000
51
333.697000000000
0
ARC
5
8e3
100
AcDbEntity
8
0-0
6
CONTINUOUS
62
7
100
AcDbCircle
10
4832.207531719931
20
1054.164417418140
30
0.0
40
5.000000000000
100
AcDbArc
50
180.000000000000
51
270.000000000000
0
ARC
5
8e4
100
AcDbEntity
8
0-0
6
CONTINUOUS
62
7
100
AcDbCircle
10
5078.951531719931
20
1350.903417418140
30
0.0
40
164.697000000000
100
AcDbArc
50
317.277283785734
51
352.415243189018
0
ARC
5
8e5
100
AcDbEntity
8
0-0
6
CONTINUOUS
62
7
100
AcDbCircle
10
5089.455531719930
20
1239.154417418140
30
0.0
40
110.490000000000
100
AcDbArc
50
293.525518520562
51
360.005081880961
0
ARC
5
8e6
100
AcDbEntity
8
0-0
6
CONTINUOUS
62
7
100
AcDbCircle
10
5138.359531719930
20
1129.988417418140
30
0.0
40
9.210000000000
100
AcDbArc
50
121.422591257961
51
204.362238369653
0
ARC
5
8e7
100
AcDbEntity
8
0-0
6
CONTINUOUS
62
7
100
AcDbCircle
10
4910.909531719931
20
1036.007417418140
30
0.0
40
236.897000000000
100
AcDbArc
50
355.923023641638
51
382.375954442812
0
ARC
5
8e8
100
AcDbEntity
8
0-0
6
CONTINUOUS
62
7
100
AcDbCircle
10
5215.597531719930
20
1290.444417418139
30
0.0
40
53.616000000000
100
AcDbArc
50
185.901523939460
51
253.025944918902
0
ARC
5
8e9
100
AcDbEntity
8
0-0
6
CONTINUOUS
62
7
100
AcDbCircle
10
5099.726531719930
20
1307.070417418139
30
0.0
40
66.342000000000
100
AcDbArc
50
340.505944813770
51
370.503354650515
0
ARC
5
8ea
100
AcDbEntity
8
0-0
6
CONTINUOUS
62
7
100
AcDbCircle
10
4995.584531719931
20
1118.275417418139
30
0.0
40
72.414000000000
100
AcDbArc
50
287.373017309092
51
351.326978720723
0
ARC
5
8eb
100
AcDbEntity
8
0-0
6
CONTINUOUS
62
7
100
AcDbCircle
10
4181.367531719930
20
1389.243417418140
30
0.0
40
1025.682000000000
100
AcDbArc
50
340.401494440325
51
348.636851971398
0
LINE
5
8ec
100
AcDbEntity
8
0-0
6
CONTINUOUS
62
7
100
AcDbLine
10
5246.055440210628
20
1331.799057461354
30
0.0
11
4936.055440210628
21
1331.799057461354
31
0.0
0
LINE
5
8ed
100
AcDbEntity
8
0-0
6
CONTINUOUS
62
7
100
AcDbLine
10
4622.207531719931
20
2525.031059998582
30
0.0
11
5147.207531719931
21
2525.031059998582
31
0.0
0
LINE
5
8ee
100
AcDbEntity
8
0-0
6
CONTINUOUS
62
7
100
AcDbLine
10
4552.207531719931
20
2900.031059998582
30
0.0
11
5062.283531719930
21
2900.031059998582
31
0.0
0
LINE
5
8ef
100
AcDbEntity
8
0-0
6
CONTINUOUS
62
7
100
AcDbLine
10
5072.207531719931
20
3150.031059998582
30
0.0
11
5067.207531719931
21
2904.954059998582
31
0.0
0
LINE
5
8f0
100
AcDbEntity
8
0-0
6
CONTINUOUS
62
7
100
AcDbLine
10
4555.818531719930
20
2913.043059998582
30
0.0
11
4552.110531719931
21
2903.031059998582
31
0.0
0
LINE
5
8f1
100
AcDbEntity
8
0-0
6
CONTINUOUS
62
7
100
AcDbLine
10
4555.818531719930
20
2928.043059998582
30
0.0
11
4552.110531719931
21
2918.031059998582
31
0.0
0
LINE
5
8f2
100
AcDbEntity
8
0-0
6
CONTINUOUS
62
7
100
AcDbLine
10
4558.591531719931
20
2915.031059998582
30
0.0
11
4976.186531719930
21
2915.031059998582
31
0.0
0
LINE
5
8f3
100
AcDbEntity
8
0-0
6
CONTINUOUS
62
7
100
AcDbLine
10
4552.110531719931
20
2903.031059998582
30
0.0
11
4987.207531719931
21
2903.031059998582
31
0.0
0
LINE
5
8f4
100
AcDbEntity
8
0-0
6
CONTINUOUS
62
7
100
AcDbLine
10
5037.207531719931
20
2910.031059998582
30
0.0
11
5037.207531719931
21
2900.031059998582
31
0.0
0
LINE
5
8f5
100
AcDbEntity
8
0-0
6
CONTINUOUS
62
7
100
AcDbLine
10
4987.207531719931
20
2905.389059998582
30
0.0
11
4987.207531719931
21
2900.031059998582
31
0.0
0
LINE
5
8f6
100
AcDbEntity
8
0-0
6
CONTINUOUS
62
7
100
AcDbLine
10
5012.207531719931
20
2910.031059998582
30
0.0
11
5037.207531719931
21
2910.031059998582
31
0.0
0
LINE
5
8f7
100
AcDbEntity
8
0-0
6
CONTINUOUS
62
7
100
AcDbLine
10
4987.207531719931
20
2900.031059998582
30
0.0
11
5037.207531719931
21
2900.031059998582
31
0.0
0
LINE
5
8f8
100
AcDbEntity
8
0-0
6
CONTINUOUS
62
7
100
AcDbLine
10
5077.207531719931
20
3155.031059998582
30
0.0
11
5242.207531719931
21
3155.031059998582
31
0.0
0
POLYLINE
5
8f9
100
AcDbEntity
8
0-0
6
CONTINUOUS
62
  7
100
AcDb2dPolyline
66
1
10
0.0
20
0.0
30
0.0
70
0
0
VERTEX
5
8fa
100
AcDbEntity
8
0-0
6
CONTINUOUS
62
  7
100
AcDbVertex
100
AcDb2dVertex
10
5182.207531719931
20
3155.031059998582
30
0.0
0
VERTEX
5
8fb
100
AcDbEntity
8
0-0
6
CONTINUOUS
62
  7
100
AcDbVertex
100
AcDb2dVertex
10
5132.207531719931
20
3155.031059998582
30
0.0
0
VERTEX
5
8fc
100
AcDbEntity
8
0-0
6
CONTINUOUS
62
  7
100
AcDbVertex
100
AcDb2dVertex
10
5132.207531719931
20
3158.031059998582
30
0.0
0
VERTEX
5
8fd
100
AcDbEntity
8
0-0
6
CONTINUOUS
62
  7
100
AcDbVertex
100
AcDb2dVertex
10
5182.207531719931
20
3158.031059998582
30
0.0
0
VERTEX
5
8fe
100
AcDbEntity
8
0-0
6
CONTINUOUS
62
  7
100
AcDbVertex
100
AcDb2dVertex
10
5182.207531719931
20
3155.031059998582
30
0.0
0
SEQEND
5
8ff
100
AcDbEntity
8
0-0
0
POLYLINE
5
900
100
AcDbEntity
8
0-0
6
CONTINUOUS
62
  7
100
AcDb2dPolyline
66
1
10
0.0
20
0.0
30
0.0
70
0
0
VERTEX
5
901
100
AcDbEntity
8
0-0
6
CONTINUOUS
62
  7
100
AcDbVertex
100
AcDb2dVertex
10
5172.207531719931
20
3158.031059998582
30
0.0
0
VERTEX
5
902
100
AcDbEntity
8
0-0
6
CONTINUOUS
62
  7
100
AcDbVertex
100
AcDb2dVertex
10
5142.207531719931
20
3158.031059998582
30
0.0
0
VERTEX
5
903
100
AcDbEntity
8
0-0
6
CONTINUOUS
62
  7
100
AcDbVertex
100
AcDb2dVertex
10
5142.207531719931
20
3160.031059998582
30
0.0
0
VERTEX
5
904
100
AcDbEntity
8
0-0
6
CONTINUOUS
62
  7
100
AcDbVertex
100
AcDb2dVertex
10
5172.207531719931
20
3160.031059998582
30
0.0
0
VERTEX
5
905
100
AcDbEntity
8
0-0
6
CONTINUOUS
62
  7
100
AcDbVertex
100
AcDb2dVertex
10
5172.207531719931
20
3158.031059998582
30
0.0
0
SEQEND
5
906
100
AcDbEntity
8
0-0
0
LINE
5
907
100
AcDbEntity
8
0-0
6
CONTINUOUS
62
7
100
AcDbLine
10
5247.207531719931
20
2840.031059998582
30
0.0
11
5247.207531719931
21
2900.031059998582
31
0.0
0
LINE
5
908
100
AcDbEntity
8
0-0
6
CONTINUOUS
62
7
100
AcDbLine
10
4689.262531719931
20
2750.031059998582
30
0.0
11
4622.207531719931
21
2525.031059998582
31
0.0
0
LINE
5
909
100
AcDbEntity
8
0-0
6
CONTINUOUS
62
7
100
AcDbLine
10
5242.907531719930
20
3115.031059998582
30
0.0
11
5071.492531719930
21
3115.031059998582
31
0.0
0
LINE
5
90a
100
AcDbEntity
8
0-0
6
CONTINUOUS
62
7
100
AcDbLine
10
5247.207531719931
20
2900.031059998582
30
0.0
11
5242.207531719931
21
3150.031059998582
31
0.0
0
LINE
5
90b
100
AcDbEntity
8
0-0
6
CONTINUOUS
62
7
100
AcDbLine
10
4827.207531719931
20
2560.031059998582
30
0.0
11
4827.207531719931
21
2670.031059998582
31
0.0
0
LINE
5
90c
100
AcDbEntity
8
0-0
6
CONTINUOUS
62
7
100
AcDbLine
10
5013.225531719930
20
2825.031059998582
30
0.0
11
5173.928531719930
21
2825.031059998582
31
0.0
0
LINE
5
90d
100
AcDbEntity
8
0-0
6
CONTINUOUS
62
7
100
AcDbLine
10
5017.207531719931
20
2555.031059998582
30
0.0
11
4832.207531719931
21
2555.031059998582
31
0.0
0
LINE
5
90e
100
AcDbEntity
8
0-0
6
CONTINUOUS
62
7
100
AcDbLine
10
4889.942531719930
20
2600.012059998582
30
0.0
11
4888.567531719929
21
2580.764059998582
31
0.0
0
LINE
5
90f
100
AcDbEntity
8
0-0
6
CONTINUOUS
62
7
100
AcDbLine
10
4898.693531719930
20
2600.348059998582
30
0.0
11
4900.363531719930
21
2580.867059998582
31
0.0
0
ARC
5
910
100
AcDbEntity
8
0-0
6
CONTINUOUS
62
7
100
AcDbCircle
10
4552.207531719931
20
2895.031059998582
30
0.0
40
5.000000000000
100
AcDbArc
50
90.000000000000
51
180.000000000000
0
ARC
5
911
100
AcDbEntity
8
0-0
6
CONTINUOUS
62
7
100
AcDbCircle
10
4552.207531719931
20
2895.031059998582
30
0.0
40
5.000000000000
100
AcDbArc
50
90.000000000000
51
180.000000000000
0
ARC
5
912
100
AcDbEntity
8
0-0
6
CONTINUOUS
62
7
100
AcDbCircle
10
5077.207531719931
20
3150.031059998582
30
0.0
40
5.000000000000
100
AcDbArc
50
90.000000000000
51
180.000000000000
0
ARC
5
913
100
AcDbEntity
8
0-0
6
CONTINUOUS
62
7
100
AcDbCircle
10
5237.207531719931
20
3150.031059998582
30
0.0
40
5.000000000000
100
AcDbArc
50
360.000000000000
51
450.000000000000
0
ARC
5
914
100
AcDbEntity
8
0-0
6
CONTINUOUS
62
7
100
AcDbCircle
10
5113.959531719929
20
2688.933059998582
30
0.0
40
112.739000000000
100
AcDbArc
50
64.628657380511
51
109.115999373507
0
ARC
5
915
100
AcDbEntity
8
0-0
6
CONTINUOUS
62
7
100
AcDbCircle
10
5181.742531719930
20
2529.007059998582
30
0.0
40
286.282000000000
100
AcDbArc
50
111.452728434989
51
143.778129784108
0
ARC
5
916
100
AcDbEntity
8
0-0
6
CONTINUOUS
62
7
100
AcDbCircle
10
4896.576531719929
20
2752.080059998582
30
0.0
40
76.451000000000
100
AcDbArc
50
241.975331988597
51
315.162651390017
0
ARC
5
917
100
AcDbEntity
8
0-0
6
CONTINUOUS
62
7
100
AcDbCircle
10
4874.341531719931
20
2700.653059998582
30
0.0
40
99.779000000000
100
AcDbArc
50
241.810438184670
51
263.257819873176
0
ARC
5
918
100
AcDbEntity
8
0-0
6
CONTINUOUS
62
7
100
AcDbCircle
10
4887.024531719931
20
2789.865059998582
30
0.0
40
189.875000000000
100
AcDbArc
50
262.617595755554
51
318.618026681498
0
ARC
5
919
100
AcDbEntity
8
0-0
6
CONTINUOUS
62
7
100
AcDbCircle
10
5146.188531719931
20
2572.408059998582
30
0.0
40
148.560000000000
100
AcDbArc
50
101.169739704450
51
141.768490801650
0
ARC
5
91a
100
AcDbEntity
8
0-0
6
CONTINUOUS
62
7
100
AcDbCircle
10
5120.288531719930
20
2713.782059998583
30
0.0
40
5.234000000000
100
AcDbArc
50
298.580867950732
51
483.361942620311
0
ARC
5
91b
100
AcDbEntity
8
0-0
6
CONTINUOUS
62
7
100
AcDbCircle
10
5175.753531719929
20
2612.253059998582
30
0.0
40
110.456000000000
100
AcDbArc
50
118.651096718629
51
155.496729843235
0
ARC
5
91c
100
AcDbEntity
8
0-0
6
CONTINUOUS
62
7
100
AcDbCircle
10
5203.473531719930
20
2611.828059998582
30
0.0
40
136.310000000000
100
AcDbArc
50
160.171877396952
51
179.414127540734
0
ARC
5
91d
100
AcDbEntity
8
0-0
6
CONTINUOUS
62
7
100
AcDbCircle
10
5029.533531719931
20
2628.650059998582
30
0.0
40
40.677000000000
100
AcDbArc
50
294.709524657961
51
337.710866932337
0
ARC
5
91e
100
AcDbEntity
8
0-0
6
CONTINUOUS
62
7
100
AcDbCircle
10
4969.342531719931
20
2949.137059998582
30
0.0
40
365.679000000000
100
AcDbArc
50
271.123744956779
51
282.186751424023
0
ARC
5
91f
100
AcDbEntity
8
0-0
6
CONTINUOUS
62
7
100
AcDbCircle
10
4879.889531719929
20
4257.822059998583
30
0.0
40
1677.081000000001
100
AcDbArc
50
268.199875276856
51
273.302939800859
0
ARC
5
920
100
AcDbEntity
8
0-0
6
CONTINUOUS
62
7
100
AcDbCircle
10
4558.934531719931
20
2926.626059998582
30
0.0
40
3.423000000000
100
AcDbArc
50
95.757000000000
51
155.546000000000
0
ARC
5
921
100
AcDbEntity
8
0-0
6
CONTINUOUS
62
7
100
AcDbCircle
10
4558.934531719931
20
2911.626059998582
30
0.0
40
3.423000000000
100
AcDbArc
50
95.757000000000
51
155.546000000000
0
ARC
5
922
100
AcDbEntity
8
0-0
6
CONTINUOUS
62
7
100
AcDbCircle
10
5112.516531719930
20
2967.374059998582
30
0.0
40
115.543000000000
100
AcDbArc
50
183.643659572344
51
209.754828896119
0
ARC
5
923
100
AcDbEntity
8
0-0
6
CONTINUOUS
62
7
100
AcDbCircle
10
4894.925531719930
20
3219.316059998582
30
0.0
40
278.730000000000
100
AcDbArc
50
265.178952762223
51
291.528078306157
0
ARC
5
924
100
AcDbEntity
8
0-0
6
CONTINUOUS
62
7
100
AcDbCircle
10
4758.322531719930
20
1762.467059998582
30
0.0
40
1184.525000000000
100
AcDbArc
50
84.517245068834
51
99.707450173714
0
ARC
5
925
100
AcDbEntity
8
0-0
6
CONTINUOUS
62
7
100
AcDbCircle
10
4986.956531719929
20
2976.378059998582
30
0.0
40
70.989000000000
100
AcDbArc
50
270.202491216507
51
290.836294195941
0
ARC
5
926
100
AcDbEntity
8
0-0
6
CONTINUOUS
62
7
100
AcDbCircle
10
4971.916531719930
20
2899.031059998582
30
0.0
40
16.560000000000
100
AcDbArc
50
22.576876505557
51
99.842601307413
0
ARC
5
927
100
AcDbEntity
8
0-0
6
CONTINUOUS
62
7
100
AcDbCircle
10
4689.123531719930
20
-8188.624940001419
30
0.0
40
11107.501000000000
100
AcDbArc
50
88.555719702944
51
90.706769283458
0
ARC
5
928
100
AcDbEntity
8
0-0
6
CONTINUOUS
62
7
100
AcDbCircle
10
5062.336531719930
20
2904.902059998582
30
0.0
40
4.871000000000
100
AcDbArc
50
269.377000000000
51
360.616000000000
0
ARC
5
929
100
AcDbEntity
8
0-0
6
CONTINUOUS
62
7
100
AcDbCircle
10
4772.589531719930
20
2973.751059998582
30
0.0
40
238.734000000000
100
AcDbArc
50
199.253000000000
51
324.475000000000
0
ARC
5
92a
100
AcDbEntity
8
0-0
6
CONTINUOUS
62
7
100
AcDbCircle
10
5242.207531719931
20
2840.031059998582
30
0.0
40
5.000000000000
100
AcDbArc
50
270.000000000000
51
360.000000000000
0
ARC
5
92b
100
AcDbEntity
8
0-0
6
CONTINUOUS
62
7
100
AcDbCircle
10
4832.207531719931
20
2670.031059998582
30
0.0
40
5.000000000000
100
AcDbArc
50
90.000000000000
51
180.000000000000
0
ARC
5
92c
100
AcDbEntity
8
0-0
6
CONTINUOUS
62
7
100
AcDbCircle
10
4754.659531719931
20
2952.841059998582
30
0.0
40
288.430000000000
100
AcDbArc
50
285.597000000000
51
333.697000000000
0
ARC
5
92d
100
AcDbEntity
8
0-0
6
CONTINUOUS
62
7
100
AcDbCircle
10
4832.207531719931
20
2560.031059998582
30
0.0
40
5.000000000000
100
AcDbArc
50
180.000000000000
51
270.000000000000
0
ARC
5
92e
100
AcDbEntity
8
0-0
6
CONTINUOUS
62
7
100
AcDbCircle
10
5078.951531719931
20
2856.770059998582
30
0.0
40
164.697000000000
100
AcDbArc
50
317.277283785734
51
352.415243189018
0
ARC
5
92f
100
AcDbEntity
8
0-0
6
CONTINUOUS
62
7
100
AcDbCircle
10
5089.455531719930
20
2745.021059998582
30
0.0
40
110.490000000000
100
AcDbArc
50
293.525518520562
51
360.005081880961
0
ARC
5
930
100
AcDbEntity
8
0-0
6
CONTINUOUS
62
7
100
AcDbCircle
10
5138.359531719930
20
2635.855059998582
30
0.0
40
9.210000000000
100
AcDbArc
50
121.422591257961
51
204.362238369653
0
ARC
5
931
100
AcDbEntity
8
0-0
6
CONTINUOUS
62
7
100
AcDbCircle
10
4910.909531719931
20
2541.874059998582
30
0.0
40
236.897000000000
100
AcDbArc
50
355.923023641638
51
382.375954442812
0
ARC
5
932
100
AcDbEntity
8
0-0
6
CONTINUOUS
62
7
100
AcDbCircle
10
5215.597531719930
20
2796.311059998582
30
0.0
40
53.616000000000
100
AcDbArc
50
185.901523939460
51
253.025944918902
0
ARC
5
933
100
AcDbEntity
8
0-0
6
CONTINUOUS
62
7
100
AcDbCircle
10
5099.726531719930
20
2812.937059998582
30
0.0
40
66.342000000000
100
AcDbArc
50
340.505944813770
51
370.503354650515
0
ARC
5
934
100
AcDbEntity
8
0-0
6
CONTINUOUS
62
7
100
AcDbCircle
10
4995.584531719931
20
2624.142059998582
30
0.0
40
72.414000000000
100
AcDbArc
50
287.373017309092
51
351.326978720723
0
ARC
5
935
100
AcDbEntity
8
0-0
6
CONTINUOUS
62
7
100
AcDbCircle
10
4181.367531719930
20
2895.110059998582
30
0.0
40
1025.682000000000
100
AcDbArc
50
340.401494440325
51
348.636851971398
0
LINE
5
936
100
AcDbEntity
8
0-0
6
CONTINUOUS
62
7
100
AcDbLine
10
5246.055440210628
20
2837.665700041797
30
0.0
11
4936.055440210628
21
2837.665700041797
31
0.0
0
ENDSEC
 0
SECTION
  2
OBJECTS
 0
DICTIONARY
  5
C
100
AcDbDictionary
  3
ACAD_GROUP
350
D
  3
ACAD_MLINESTYLE
350
E
 0
DICTIONARY
  5
D
100
AcDbDictionary
 0
DICTIONARY
  5
E
100
AcDbDictionary
  3
STANDARD
350
13
0
MLINESTYLE
  5
13
100
AcDbMlineStyle
  2
STANDARD
 70
    0
3

62
256
51
90.0
52
90.0
71
0
0
ENDSEC
0
EOF
