0
SECTION
2
HEADER
9
$ACADVER
1
AC1012
9
$DWGCODEPAGE
3
dos932
9
$EXTMIN
10
0.000
20
0.000
30
0.0
9
$EXTMAX
10
5940.000
20
4200.000
30
0.0
9
$LIMMIN
10
0.000
20
0.000
9
$LIMMAX
10
5940.000
20
4200.000
9
$DIMSCALE
40
20.000000
9
$LTSCALE
40
20.000
9
$PDMODE
70
0
9
$PDSIZE
40
40.0
9
$HANDSEED
5
62172
9
$UNITMODE
70
0
9
$VISRETAIN
70
0
9
$PLINEGEN
70
0
9
$PSLTSCALE
70
1
9
$TREEDEPTH
70
3020
9
$CMLSTYLE
2
STANDARD
9
$CMLJUST
70
0
9
$CMLSCALE
40
1.0
0
ENDSEC
0
SECTION
2
TABLES
0
TABLE
2
VPORT
5
190
100
AcDbSymbolTable
70
2
0
VPORT
5
191
100
AcDbSymbolTableRecord
100
AcDbViewportTableRecord
2
*ACTIVE
70
0
10
0.0
20
0.0
11
1.0
21
1.0
12
2970.000
22
2100.000
13
0.0
23
0.0
14
1.0
24
1.0
15
0.0
25
0.0
16
0.0
26
0.0
36
1.0
17
0.0
27
0.0
37
0.0
40
4304.348
41
2.0
42
50.0
43
0.0
44
0.0
50
0.0
51
0.0
71
0
72
1000
73
1
74
1
75
0
76
0
77
0
78
0
0
ENDTAB
0
TABLE
2
LTYPE
5
1f4
100
AcDbSymbolTable
70
9
0
LTYPE
5
1f5
100
AcDbSymbolTableRecord
100
AcDbLinetypeTableRecord
2
BYBLOCK
70
 64
3

72
 65
73
  0
40
0.0
0
LTYPE
5
1f6
100
AcDbSymbolTableRecord
100
AcDbLinetypeTableRecord
2
BYLAYER
70
 64
3

72
 65
73
  0
40
0.0
0
LTYPE
5
1f7
100
AcDbSymbolTableRecord
100
AcDbLinetypeTableRecord
2
CONTINUOUS
70
64
3
SolidLine
72
65
73
0
40
0.0
0
LTYPE
5
1f8
100
AcDbSymbolTableRecord
100
AcDbLinetypeTableRecord
2
DOT
70
64
3
--  --  --  --  --  --  --  --     
72
65
73
2
40
3.000
49
1.000
74
0
49
-2.000
74
0
0
LTYPE
5
1f9
100
AcDbSymbolTableRecord
100
AcDbLinetypeTableRecord
2
DASHED
70
64
3
----    ----    ----    ----    
72
65
73
2
40
5.000
49
2.000
74
0
49
-3.000
74
0
0
LTYPE
5
1fa
100
AcDbSymbolTableRecord
100
AcDbLinetypeTableRecord
2
DASHED2
70
64
3
------  ------  ------  ------ 
72
65
73
2
40
10.000
49
4.000
74
0
49
-6.000
74
0
0
LTYPE
5
1fb
100
AcDbSymbolTableRecord
100
AcDbLinetypeTableRecord
2
CENTER
70
64
3
----- - ----- - ----- - ----- - 
72
65
73
4
40
10.000
49
6.000
74
0
49
-3.000
74
0
49
1.000
74
0
49
-3.000
74
0
0
LTYPE
5
1fc
100
AcDbSymbolTableRecord
100
AcDbLinetypeTableRecord
2
CENTER2
70
64
3
----------  --  ----------  -- 
72
65
73
4
40
17.000
49
12.000
74
0
49
-5.000
74
0
49
2.000
74
0
49
-5.000
74
0
0
LTYPE
5
1fd
100
AcDbSymbolTableRecord
100
AcDbLinetypeTableRecord
2
PHANTOM
70
64
3
--- - - --- - - --- - - --- - -
72
65
73
6
40
13.000
49
5.000
74
0
49
-3.000
74
0
49
1.000
74
0
49
-3.000
74
0
49
1.000
74
0
49
-3.000
74
0
0
LTYPE
5
1fe
100
AcDbSymbolTableRecord
100
AcDbLinetypeTableRecord
2
PHANTOM2
70
64
3
--------  -  -  --------  -  -
72
65
73
6
40
20.000
49
6.000
74
0
49
-5.000
74
0
49
2.000
74
0
49
-5.000
74
0
49
2.000
74
0
49
-5.000
74
0
0
LTYPE
5
1ff
100
AcDbSymbolTableRecord
100
AcDbLinetypeTableRecord
2
HIDDEN
70
64
3
-   -   -   -   -   -   -   -   
72
65
73
2
40
3.000
49
0.500
74
0
49
-2.500
74
0
0
ENDTAB
0
TABLE
2
STYLE
5
200
100
AcDbSymbolTable
70
1
0
STYLE
5
201
100
AcDbSymbolTableRecord
100
AcDbTextStyleTableRecord
2
STANDARD
70
0
40
0.0
41
1.0
50
0.0
71
0
42
0.0
3
txt.shx
4
extfont.shx
0
STYLE
5
202
100
AcDbSymbolTableRecord
100
AcDbTextStyleTableRecord
2
TATEGAKI
70
4
40
0.0
41
1.0
50
0.0
71
0
42
0.0
3
txt.shx
4
extfont.shx
0
STYLE
5
203
100
AcDbSymbolTableRecord
100
AcDbTextStyleTableRecord
2
DIM
70
0
40
0.0
41
0.75
50
0.0
71
0
42
0.0
3
txt.shx
4
extfont.shx
0
STYLE
5
204
100
AcDbSymbolTableRecord
100
AcDbTextStyleTableRecord
2
_Gothic_
70
0
40
1.0
41
1.0
50
0.0
71
0
42
10.0
3

4

1001
ACAD
1000
MS Gothic
1071
32817
0
STYLE
5
205
100
AcDbSymbolTableRecord
100
AcDbTextStyleTableRecord
2
_TateGothic_
70
4
40
0.0
41
1.0
50
0.0
71
0
42
0.0
3
@MS Gothic
4

0
ENDTAB
0
TABLE
2
VIEW
5
206
100
AcDbSymbolTable
70
0
0
ENDTAB
0
TABLE
2
UCS
5
207
100
AcDbSymbolTable
70
0
0
ENDTAB
0
TABLE
2
APPID
5
208
100
AcDbSymbolTable
70
1
0
APPID
5
209
100
AcDbSymbolTableRecord
100
AcDbRegAppTableRecord
2
ACAD
70
0
0
ENDTAB
0
TABLE
2
DIMSTYLE
5
403
100
AcDbSymbolTable
70
1
0
DIMSTYLE
105
404
330
402
100
AcDbSymbolTableRecord
100
AcDbDimStyleTableRecord
2
JAC_DIM
70
0
41
40.000
42
0.000
44
0.0
73
0
74
0
77
1
78
8
79
2
140
0.000
170
0
171
2
172
0
173
0
174
0
175
0
176
0
177
0
178
0
270
2
271
0
272
0
273
2
274
2
340
201
275
0
280
0
281
0
282
0
283
0
284
0
285
0
286
0
287
3
288
0
0
ENDTAB
0
TABLE
2
BLOCK_RECORD
5
405
100
AcDbSymbolTable
70
0
0
BLOCK_RECORD
5
406
100
AcDbSymbolTableRecord
100
AcDbBlockTableRecord
2
*MODEL_SPACE
0
BLOCK_RECORD
5
407
100
AcDbSymbolTableRecord
100
AcDbBlockTableRecord
2
*PAPER_SPACE
0
BLOCK_RECORD
5
408
100
AcDbSymbolTableRecord
100
AcDbBlockTableRecord
2
_JACCONVERT_
0
ENDTAB
0
TABLE
2
LAYER
5
409
100
AcDbSymbolTable
70
10
0
LAYER
5
40a
100
AcDbSymbolTableRecord
100
AcDbLayerTableRecord
2
0
70
0
62
7
6
CONTINUOUS
0
LAYER
5
40b
100
AcDbSymbolTableRecord
100
AcDbLayerTableRecord
2
0-0
70
0
62
7
6
CONTINUOUS
0
LAYER
5
40c
100
AcDbSymbolTableRecord
100
AcDbLayerTableRecord
2
F-F_J_ADD
70
0
62
-7
6
CONTINUOUS
0
ENDTAB
0
ENDSEC
0
SECTION
2
BLOCKS
0
BLOCK
5
40d
100
AcDbEntity
67
1
8
0
100
AcDbBlockBegin
2
*MODEL_SPACE
70
0
10
0.0
20
0.0
30
0.0
3
*MODEL_SPACE
1

0
ENDBLK
5
40e
100
AcDbEntity
8
0
100
AcDbBlockEnd
0
BLOCK
5
40f
100
AcDbEntity
67
1
8
0
100
AcDbBlockBegin
2
*PAPER_SPACE
70
0
10
0.0
20
0.0
30
0.0
3
*PAPER_SPACE
1

0
ENDBLK
5
410
100
AcDbEntity
67
1
8
0
100
AcDbBlockEnd
0
BLOCK
5
411
100
AcDbEntity
8
0
100
AcDbBlockBegin
2
_JACCONVERT_
70
2
10
0.0
20
0.0
30
0.0
3
_JACCONVERT_
1
_JACCONVERT_
0
ATTDEF
5
412
100
AcDbEntity
8
0
62
0
100
AcDbText
10
0.0
20
0.0
30
0.0
40
1.0
1
User:HARUOWAKUDA
100
AcDbAttributeDefinition
3

2
USER
70
8
0
ATTDEF
5
413
100
AcDbEntity
8
0
62
0
100
AcDbText
10
0.0
20
2.0
30
0.0
40
1.0
1
Date:06/09/14 11:36
100
AcDbAttributeDefinition
3

2
REVDATE
70
8
0
ATTDEF
5
414
100
AcDbEntity
8
0
62
0
100
AcDbText
10
0.0
20
4.0
30
0.0
40
1.0
1
File:d_29000_cad_20060914.dxf
100
AcDbAttributeDefinition
3

2
FNAME
70
8
0
ATTDEF
5
415
100
AcDbEntity
8
0
62
0
100
AcDbText
10
0.0
20
6.0
30
0.0
40
1.0
1
JacConvert Version2.75 Copyright (c) 2001-2006 K.Nakahara
100
AcDbAttributeDefinition
3

2
VER
70
8
0
ENDBLK
5
416
100
AcDbEntity
67
1
8
0
100
AcDbBlockEnd
0
ENDSEC
0
SECTION
2
ENTITIES
0
CIRCLE
5
417
100
AcDbEntity
8
0-0
6
CONTINUOUS
62
7
100
AcDbCircle
10
848.177796186064
20
2958.115801966116
30
0.0
40
5.560000000000
0
ELLIPSE
  5
418
100
AcDbEntity
8
0-0
6
CONTINUOUS
62
7
100
AcDbEllipse
10
848.215526932606
20
2958.399060345714
30
0.0
11
24.534999686935
21
0.000000000000
31
0.0
210
0.0
220
0.0
230
1.0
40
0.500000000000
41
0.000000000000
42
6.283185307180
0
LINE
5
419
100
AcDbEntity
8
0-0
6
CONTINUOUS
62
7
100
AcDbLine
10
866.344331374468
20
2968.522579099174
30
0.0
11
862.317419162932
21
2968.522579099174
31
0.0
0
LINE
5
41a
100
AcDbEntity
8
0-0
6
CONTINUOUS
62
7
100
AcDbLine
10
866.344331374468
20
2948.388018041494
30
0.0
11
862.142336023300
21
2948.388018041494
31
0.0
0
LINE
5
41b
100
AcDbEntity
8
0-0
6
CONTINUOUS
62
7
100
AcDbLine
10
866.434457757254
20
2968.472902241264
30
0.0
11
866.434457757254
21
2966.558061547491
31
0.0
0
LINE
5
41c
100
AcDbEntity
8
0-0
6
CONTINUOUS
62
7
100
AcDbLine
10
866.434457757254
20
2950.279622579425
30
0.0
11
866.434457757254
21
2948.485731592912
31
0.0
0
ARC
5
41d
100
AcDbEntity
8
0-0
6
CONTINUOUS
62
7
100
AcDbCircle
10
872.467750952744
20
2975.907810470392
30
0.0
40
9.625929816131
100
AcDbArc
50
231.441277284353
51
308.558722715647
0
ARC
5
41e
100
AcDbEntity
8
0-0
6
CONTINUOUS
62
7
100
AcDbCircle
10
872.467750952744
20
2960.853439035481
30
0.0
40
9.625929816131
100
AcDbArc
50
51.441277284353
51
128.558722715647
0
ARC
5
41f
100
AcDbEntity
8
0-0
6
CONTINUOUS
62
7
100
AcDbCircle
10
872.467750952744
20
2956.038407679688
30
0.0
40
6.440961171922
100
AcDbArc
50
21.324157753203
51
99.333630495641
0
ARC
5
420
100
AcDbEntity
8
0-0
6
CONTINUOUS
62
7
100
AcDbCircle
10
872.467750952744
20
2960.722841826184
30
0.0
40
6.440961171922
100
AcDbArc
50
259.784091500290
51
338.675842246797
0
ARC
5
421
100
AcDbEntity
8
0-0
6
CONTINUOUS
62
7
100
AcDbCircle
10
872.467750952744
20
2940.853439035481
30
0.0
40
9.625929816131
100
AcDbArc
50
51.441277284353
51
128.558722715647
0
ARC
5
422
100
AcDbEntity
8
0-0
6
CONTINUOUS
62
7
100
AcDbCircle
10
872.467750952744
20
2955.907810470392
30
0.0
40
9.625929816131
100
AcDbArc
50
231.441277284353
51
308.558722715647
0
LINE
5
423
100
AcDbEntity
8
0-0
6
CONTINUOUS
62
7
100
AcDbLine
10
878.467750952744
20
2968.380624752936
30
0.0
11
878.467750952744
21
2948.380624752936
31
0.0
0
POLYLINE
5
424
100
AcDbEntity
8
0-0
6
CONTINUOUS
62
  7
100
AcDb2dPolyline
66
1
10
0.0
20
0.0
30
0.0
70
0
0
VERTEX
5
425
100
AcDbEntity
8
0-0
6
CONTINUOUS
62
  7
100
AcDbVertex
100
AcDb2dVertex
10
874.713805198180
20
2967.120557224412
30
0.0
0
VERTEX
5
426
100
AcDbEntity
8
0-0
6
CONTINUOUS
62
  7
100
AcDbVertex
100
AcDb2dVertex
10
877.646643667496
20
2966.725959470005
30
0.0
0
VERTEX
5
427
100
AcDbEntity
8
0-0
6
CONTINUOUS
62
  7
100
AcDbVertex
100
AcDb2dVertex
10
882.701184616044
20
2966.081499768665
30
0.0
0
VERTEX
5
428
100
AcDbEntity
8
0-0
6
CONTINUOUS
62
  7
100
AcDbVertex
100
AcDb2dVertex
10
887.749955836823
20
2965.536710218813
30
0.0
0
VERTEX
5
429
100
AcDbEntity
8
0-0
6
CONTINUOUS
62
  7
100
AcDbVertex
100
AcDb2dVertex
10
892.789305603399
20
2965.154673194807
30
0.0
0
VERTEX
5
42a
100
AcDbEntity
8
0-0
6
CONTINUOUS
62
  7
100
AcDbVertex
100
AcDb2dVertex
10
894.877884939478
20
2965.089766196068
30
0.0
0
SEQEND
5
42b
100
AcDbEntity
8
0-0
0
POLYLINE
5
42c
100
AcDbEntity
8
0-0
6
CONTINUOUS
62
  7
100
AcDb2dPolyline
66
1
10
0.0
20
0.0
30
0.0
70
0
0
VERTEX
5
42d
100
AcDbEntity
8
0-0
6
CONTINUOUS
62
  7
100
AcDbVertex
100
AcDb2dVertex
10
874.713805198180
20
2950.041681065305
30
0.0
0
VERTEX
5
42e
100
AcDbEntity
8
0-0
6
CONTINUOUS
62
  7
100
AcDbVertex
100
AcDb2dVertex
10
877.646643667496
20
2949.647083310897
30
0.0
0
VERTEX
5
42f
100
AcDbEntity
8
0-0
6
CONTINUOUS
62
  7
100
AcDbVertex
100
AcDb2dVertex
10
882.701184616044
20
2949.002623609558
30
0.0
0
VERTEX
5
430
100
AcDbEntity
8
0-0
6
CONTINUOUS
62
  7
100
AcDbVertex
100
AcDb2dVertex
10
887.749955836823
20
2948.457834059706
30
0.0
0
VERTEX
5
431
100
AcDbEntity
8
0-0
6
CONTINUOUS
62
  7
100
AcDbVertex
100
AcDb2dVertex
10
892.789305603399
20
2948.075797035700
30
0.0
0
VERTEX
5
432
100
AcDbEntity
8
0-0
6
CONTINUOUS
62
  7
100
AcDbVertex
100
AcDb2dVertex
10
897.815582189333
20
2947.919594911897
30
0.0
0
VERTEX
5
433
100
AcDbEntity
8
0-0
6
CONTINUOUS
62
  7
100
AcDbVertex
100
AcDb2dVertex
10
899.125443664160
20
2947.954296313190
30
0.0
0
SEQEND
5
434
100
AcDbEntity
8
0-0
0
LINE
5
435
100
AcDbEntity
8
0-0
6
CONTINUOUS
62
7
100
AcDbLine
10
895.044921886907
20
2965.361609872516
30
0.0
11
958.376926540252
21
2974.032062890534
31
0.0
0
LINE
5
436
100
AcDbEntity
8
0-0
6
CONTINUOUS
62
7
100
AcDbLine
10
899.380148395916
20
2948.397680054657
30
0.0
11
949.517985413147
21
2953.863835218189
31
0.0
0
LINE
5
437
100
AcDbEntity
8
0-0
6
CONTINUOUS
62
7
100
AcDbLine
10
968.420674565343
20
3017.734162585332
30
0.0
11
1208.420674565343
21
3017.734162585332
31
0.0
0
LINE
5
438
100
AcDbEntity
8
0-0
6
CONTINUOUS
62
7
100
AcDbLine
10
958.420674565343
20
3007.734162585332
30
0.0
11
958.420674565343
21
2961.040162585332
31
0.0
0
LINE
5
439
100
AcDbEntity
8
0-0
6
CONTINUOUS
62
7
100
AcDbLine
10
1218.420674565343
20
3007.734162585332
30
0.0
11
1218.420674565343
21
2961.040162585332
31
0.0
0
LINE
5
43a
100
AcDbEntity
8
0-0
6
CONTINUOUS
62
7
100
AcDbLine
10
1014.420674565343
20
2742.734162585331
30
0.0
11
1162.420674565343
21
2742.734162585331
31
0.0
0
LINE
5
43b
100
AcDbEntity
8
0-0
6
CONTINUOUS
62
7
100
AcDbLine
10
1018.420674565343
20
2732.734162585331
30
0.0
11
1158.420674565343
21
2732.734162585331
31
0.0
0
LINE
5
43c
100
AcDbEntity
8
0-0
6
CONTINUOUS
62
7
100
AcDbLine
10
1000.971674565342
20
2727.734162585331
30
0.0
11
1013.420674565343
21
2727.734162585331
31
0.0
0
LINE
5
43d
100
AcDbEntity
8
0-0
6
CONTINUOUS
62
7
100
AcDbLine
10
1163.420674565343
20
2727.734162585331
30
0.0
11
1175.869674565343
21
2727.735162585332
31
0.0
0
LINE
5
43e
100
AcDbEntity
8
0-0
6
CONTINUOUS
62
7
100
AcDbLine
10
1038.420674565343
20
2732.734162585331
30
0.0
11
1038.420674565343
21
2742.734162585331
31
0.0
0
LINE
5
43f
100
AcDbEntity
8
0-0
6
CONTINUOUS
62
7
100
AcDbLine
10
1053.420674565343
20
2732.734162585331
30
0.0
11
1053.420674565343
21
2742.734162585331
31
0.0
0
LINE
5
440
100
AcDbEntity
8
0-0
6
CONTINUOUS
62
7
100
AcDbLine
10
1123.420674565343
20
2732.734162585331
30
0.0
11
1123.420674565343
21
2742.734162585331
31
0.0
0
LINE
5
441
100
AcDbEntity
8
0-0
6
CONTINUOUS
62
7
100
AcDbLine
10
1138.420674565343
20
2732.734162585331
30
0.0
11
1138.420674565343
21
2742.734162585331
31
0.0
0
ELLIPSE
  5
442
100
AcDbEntity
8
0-0
6
CONTINUOUS
62
7
100
AcDbEllipse
10
1088.420674565343
20
2910.234162585331
30
0.0
11
165.000000000000
21
0.000000000000
31
0.0
210
0.0
220
0.0
230
1.0
40
0.500000000000
41
0.000000000000
42
6.283185307180
0
ARC
5
443
100
AcDbEntity
8
0-0
6
CONTINUOUS
62
7
100
AcDbCircle
10
968.420674565343
20
3007.734162585332
30
0.0
40
10.000000000000
100
AcDbArc
50
90.000000000000
51
180.000000000000
0
ARC
5
444
100
AcDbEntity
8
0-0
6
CONTINUOUS
62
7
100
AcDbCircle
10
1208.420674565343
20
3007.734162585332
30
0.0
40
10.000000000000
100
AcDbArc
50
0.000000000000
51
90.000000000000
0
CIRCLE
5
445
100
AcDbEntity
8
0-0
6
CONTINUOUS
62
7
100
AcDbCircle
10
1088.420674565343
20
2922.734162585331
30
0.0
40
25.000000000000
0
CIRCLE
5
446
100
AcDbEntity
8
0-0
6
CONTINUOUS
62
7
100
AcDbCircle
10
1088.420674565343
20
2922.734162585331
30
0.0
40
15.000000000000
0
ARC
5
447
100
AcDbEntity
8
0-0
6
CONTINUOUS
62
7
100
AcDbCircle
10
938.213674565342
20
2731.854162585331
30
0.0
40
75.319000000000
100
AcDbArc
50
315.261000000000
51
356.864000000000
0
ARC
5
448
100
AcDbEntity
8
0-0
6
CONTINUOUS
62
7
100
AcDbCircle
10
1238.626674565344
20
2731.854162585331
30
0.0
40
75.319000000000
100
AcDbArc
50
183.136000000000
51
224.739000000000
0
ARC
5
449
100
AcDbEntity
8
0-0
6
CONTINUOUS
62
7
100
AcDbCircle
10
1018.420674565343
20
2727.734162585331
30
0.0
40
5.000000000000
100
AcDbArc
50
90.000000000000
51
180.000000000000
0
ARC
5
44a
100
AcDbEntity
8
0-0
6
CONTINUOUS
62
7
100
AcDbCircle
10
1158.420674565343
20
2727.734162585331
30
0.0
40
5.000000000000
100
AcDbArc
50
0.000000000000
51
90.000000000000
0
ARC
5
44b
100
AcDbEntity
8
0-0
6
CONTINUOUS
62
7
100
AcDbCircle
10
1170.920674565343
20
2722.734162585331
30
0.0
40
5.000000000000
100
AcDbArc
50
0.000000000000
51
90.000000000000
0
ARC
5
44c
100
AcDbEntity
8
0-0
6
CONTINUOUS
62
7
100
AcDbCircle
10
1014.420674565343
20
2736.734162585331
30
0.0
40
6.000000000000
100
AcDbArc
50
90.000000000000
51
270.000000000000
0
ARC
5
44d
100
AcDbEntity
8
0-0
6
CONTINUOUS
62
7
100
AcDbCircle
10
1162.420674565343
20
2736.734162585331
30
0.0
40
6.000000000000
100
AcDbArc
50
270.000000000000
51
450.000000000000
0
ELLIPSE
  5
44e
100
AcDbEntity
8
0-0
6
CONTINUOUS
62
7
100
AcDbEllipse
10
1088.420674565343
20
2573.583162585332
30
0.0
11
0.000000000000
21
-150.849000000000
31
0.0
210
0.0
220
0.0
230
1.0
40
0.894934000000
41
0.759761706079
42
7.041875691922
0
ELLIPSE
  5
44f
100
AcDbEntity
8
0-0
6
CONTINUOUS
62
7
100
AcDbEllipse
10
1088.420674565343
20
2914.144742082722
30
0.0
11
165.000000000000
21
0.000000000000
31
0.0
210
0.0
220
0.0
230
1.0
40
0.590909000000
41
3.141592653580
42
6.283185307159
0
ARC
5
450
100
AcDbEntity
8
0-0
6
CONTINUOUS
62
7
100
AcDbCircle
10
1014.670674565343
20
2762.270380982417
30
0.0
40
13.750000000000
100
AcDbArc
50
354.784000000000
51
545.216000000000
0
ARC
5
451
100
AcDbEntity
8
0-0
6
CONTINUOUS
62
7
100
AcDbCircle
10
1162.170674565343
20
2762.270380982417
30
0.0
40
13.750000000000
100
AcDbArc
50
354.784000000000
51
545.216000000000
0
LINE
5
452
100
AcDbEntity
8
0-0
6
CONTINUOUS
62
7
100
AcDbLine
10
1028.420674565343
20
2732.734162585331
30
0.0
11
1028.420674565343
21
2760.949275632969
31
0.0
0
LINE
5
453
100
AcDbEntity
8
0-0
6
CONTINUOUS
62
7
100
AcDbLine
10
1000.971674565342
20
2727.734162585331
30
0.0
11
1000.975839205390
21
2761.051282957427
31
0.0
0
LINE
5
454
100
AcDbEntity
8
0-0
6
CONTINUOUS
62
7
100
AcDbLine
10
1175.869674565343
20
2727.735162585332
30
0.0
11
1175.864679793187
21
2761.032811163410
31
0.0
0
LINE
5
455
100
AcDbEntity
8
0-0
6
CONTINUOUS
62
7
100
AcDbLine
10
1148.420674565343
20
2732.734162585331
30
0.0
11
1148.420674565343
21
2761.032868356445
31
0.0
0
ELLIPSE
  5
456
100
AcDbEntity
8
0-0
6
CONTINUOUS
62
7
100
AcDbEllipse
10
1088.420674565343
20
2588.315156660467
30
0.0
11
0.000000000000
21
-172.500000000000
31
0.0
210
0.0
220
0.0
230
1.0
40
0.898551000000
41
0.556185684313
42
2.368828926491
0
ELLIPSE
  5
457
100
AcDbEntity
8
0-0
6
CONTINUOUS
62
7
100
AcDbEllipse
10
1088.420674565343
20
2588.315156660467
30
0.0
11
0.000000000000
21
-172.500000000000
31
0.0
210
0.0
220
0.0
230
1.0
40
0.898551000000
41
3.916643237471
42
6.838256963098
0
ELLIPSE
  5
458
100
AcDbEntity
8
0-0
6
CONTINUOUS
62
7
100
AcDbEllipse
10
1088.420674565343
20
2581.664156660467
30
0.0
11
0.000000000000
21
-160.849000000000
31
0.0
210
0.0
220
0.0
230
1.0
40
0.901466000000
41
5.489702077326
42
8.734472456364
0
ELLIPSE
  5
459
100
AcDbEntity
8
0-0
6
CONTINUOUS
62
7
100
AcDbEllipse
10
1088.420674565343
20
2581.664156660467
30
0.0
11
0.000000000000
21
-160.849000000000
31
0.0
210
0.0
220
0.0
230
1.0
40
0.901466000000
41
3.834092733997
42
5.489242576134
0
POLYLINE
5
45a
100
AcDbEntity
8
0-0
6
CONTINUOUS
62
  7
100
AcDb2dPolyline
66
1
10
0.0
20
0.0
30
0.0
70
0
0
VERTEX
5
45b
100
AcDbEntity
8
0-0
6
CONTINUOUS
62
  7
100
AcDbVertex
100
AcDb2dVertex
10
980.001802265288
20
2711.422474175844
30
0.0
0
VERTEX
5
45c
100
AcDbEntity
8
0-0
6
CONTINUOUS
62
  7
100
AcDbVertex
100
AcDb2dVertex
10
980.134464453190
20
2711.724152398071
30
0.0
0
VERTEX
5
45d
100
AcDbEntity
8
0-0
6
CONTINUOUS
62
  7
100
AcDbVertex
100
AcDb2dVertex
10
980.362359758670
20
2712.244597024445
30
0.0
0
VERTEX
5
45e
100
AcDbEntity
8
0-0
6
CONTINUOUS
62
  7
100
AcDbVertex
100
AcDb2dVertex
10
980.587942273334
20
2712.765902096553
30
0.0
0
VERTEX
5
45f
100
AcDbEntity
8
0-0
6
CONTINUOUS
62
  7
100
AcDbVertex
100
AcDb2dVertex
10
980.809748205526
20
2713.288612200302
30
0.0
0
VERTEX
5
460
100
AcDbEntity
8
0-0
6
CONTINUOUS
62
  7
100
AcDbVertex
100
AcDb2dVertex
10
981.026313763592
20
2713.813271921602
30
0.0
0
VERTEX
5
461
100
AcDbEntity
8
0-0
6
CONTINUOUS
62
  7
100
AcDbVertex
100
AcDb2dVertex
10
981.236175155873
20
2714.340425846358
30
0.0
0
VERTEX
5
462
100
AcDbEntity
8
0-0
6
CONTINUOUS
62
  7
100
AcDbVertex
100
AcDb2dVertex
10
981.354246104605
20
2714.647532561907
30
0.0
0
VERTEX
5
463
100
AcDbEntity
8
0-0
6
CONTINUOUS
62
  7
100
AcDbVertex
100
AcDb2dVertex
10
981.602961427427
20
2715.325264345319
30
0.0
0
VERTEX
5
464
100
AcDbEntity
8
0-0
6
CONTINUOUS
62
  7
100
AcDbVertex
100
AcDb2dVertex
10
982.000211711283
20
2716.505214646525
30
0.0
0
VERTEX
5
465
100
AcDbEntity
8
0-0
6
CONTINUOUS
62
  7
100
AcDbVertex
100
AcDb2dVertex
10
982.361628914870
20
2717.697669195266
30
0.0
0
VERTEX
5
466
100
AcDbEntity
8
0-0
6
CONTINUOUS
62
  7
100
AcDbVertex
100
AcDb2dVertex
10
982.692013015870
20
2718.900318791064
30
0.0
0
VERTEX
5
467
100
AcDbEntity
8
0-0
6
CONTINUOUS
62
  7
100
AcDbVertex
100
AcDb2dVertex
10
982.996163991963
20
2720.110854233441
30
0.0
0
VERTEX
5
468
100
AcDbEntity
8
0-0
6
CONTINUOUS
62
  7
100
AcDbVertex
100
AcDb2dVertex
10
983.278881820832
20
2721.326966321915
30
0.0
0
VERTEX
5
469
100
AcDbEntity
8
0-0
6
CONTINUOUS
62
  7
100
AcDbVertex
100
AcDb2dVertex
10
983.434928934323
20
2722.033956607406
30
0.0
0
VERTEX
5
46a
100
AcDbEntity
8
0-0
6
CONTINUOUS
62
  7
100
AcDbVertex
100
AcDb2dVertex
10
983.660455397139
20
2723.097454969219
30
0.0
0
VERTEX
5
46b
100
AcDbEntity
8
0-0
6
CONTINUOUS
62
  7
100
AcDbVertex
100
AcDb2dVertex
10
984.025922957455
20
2724.934415289645
30
0.0
0
VERTEX
5
46c
100
AcDbEntity
8
0-0
6
CONTINUOUS
62
  7
100
AcDbVertex
100
AcDb2dVertex
10
984.363808746834
20
2726.775461921284
30
0.0
0
VERTEX
5
46d
100
AcDbEntity
8
0-0
6
CONTINUOUS
62
  7
100
AcDbVertex
100
AcDb2dVertex
10
984.676440656994
20
2728.620426672534
30
0.0
0
VERTEX
5
46e
100
AcDbEntity
8
0-0
6
CONTINUOUS
62
  7
100
AcDbVertex
100
AcDb2dVertex
10
984.966146579655
20
2730.469141351793
30
0.0
0
VERTEX
5
46f
100
AcDbEntity
8
0-0
6
CONTINUOUS
62
  7
100
AcDbVertex
100
AcDb2dVertex
10
985.235254406538
20
2732.321437767457
30
0.0
0
VERTEX
5
470
100
AcDbEntity
8
0-0
6
CONTINUOUS
62
  7
100
AcDbVertex
100
AcDb2dVertex
10
985.382816209032
20
2733.397344563926
30
0.0
0
VERTEX
5
471
100
AcDbEntity
8
0-0
6
CONTINUOUS
62
  7
100
AcDbVertex
100
AcDb2dVertex
10
985.452489105748
20
2733.921347468998
30
0.0
0
VERTEX
5
472
100
AcDbEntity
8
0-0
6
CONTINUOUS
62
  7
100
AcDbVertex
100
AcDb2dVertex
10
985.568690382609
20
2734.825386672675
30
0.0
0
VERTEX
5
473
100
AcDbEntity
8
0-0
6
CONTINUOUS
62
  7
100
AcDbVertex
100
AcDb2dVertex
10
985.678776992567
20
2735.730115376189
30
0.0
0
VERTEX
5
474
100
AcDbEntity
8
0-0
6
CONTINUOUS
62
  7
100
AcDbVertex
100
AcDb2dVertex
10
985.781415141514
20
2736.635472916888
30
0.0
0
VERTEX
5
475
100
AcDbEntity
8
0-0
6
CONTINUOUS
62
  7
100
AcDbVertex
100
AcDb2dVertex
10
985.875271035336
20
2737.541398632125
30
0.0
0
VERTEX
5
476
100
AcDbEntity
8
0-0
6
CONTINUOUS
62
  7
100
AcDbVertex
100
AcDb2dVertex
10
985.959010879921
20
2738.447831859250
30
0.0
0
VERTEX
5
477
100
AcDbEntity
8
0-0
6
CONTINUOUS
62
  7
100
AcDbVertex
100
AcDb2dVertex
10
986.002419231784
20
2738.973771768692
30
0.0
0
VERTEX
5
478
100
AcDbEntity
8
0-0
6
CONTINUOUS
62
  7
100
AcDbVertex
100
AcDb2dVertex
10
986.134675608296
20
2741.039201773912
30
0.0
0
VERTEX
5
479
100
AcDbEntity
8
0-0
6
CONTINUOUS
62
  7
100
AcDbVertex
100
AcDb2dVertex
10
986.239538523635
20
2744.604921091313
30
0.0
0
VERTEX
5
47a
100
AcDbEntity
8
0-0
6
CONTINUOUS
62
  7
100
AcDbVertex
100
AcDb2dVertex
10
986.227155674208
20
2748.175936553130
30
0.0
0
VERTEX
5
47b
100
AcDbEntity
8
0-0
6
CONTINUOUS
62
  7
100
AcDbVertex
100
AcDb2dVertex
10
986.142480203759
20
2751.751587065143
30
0.0
0
VERTEX
5
47c
100
AcDbEntity
8
0-0
6
CONTINUOUS
62
  7
100
AcDbVertex
100
AcDb2dVertex
10
986.030465256033
20
2755.331211533130
30
0.0
0
VERTEX
5
47d
100
AcDbEntity
8
0-0
6
CONTINUOUS
62
  7
100
AcDbVertex
100
AcDb2dVertex
10
985.936063974777
20
2758.914148862868
30
0.0
0
VERTEX
5
47e
100
AcDbEntity
8
0-0
6
CONTINUOUS
62
  7
100
AcDbVertex
100
AcDb2dVertex
10
985.907095689822
20
2760.993509961871
30
0.0
0
VERTEX
5
47f
100
AcDbEntity
8
0-0
6
CONTINUOUS
62
  7
100
AcDbVertex
100
AcDb2dVertex
10
985.907684817512
20
2763.469964162666
30
0.0
0
VERTEX
5
480
100
AcDbEntity
8
0-0
6
CONTINUOUS
62
  7
100
AcDbVertex
100
AcDb2dVertex
10
985.971840066361
20
2767.740147131561
30
0.0
0
VERTEX
5
481
100
AcDbEntity
8
0-0
6
CONTINUOUS
62
  7
100
AcDbVertex
100
AcDb2dVertex
10
986.061318031848
20
2772.007696385213
30
0.0
0
VERTEX
5
482
100
AcDbEntity
8
0-0
6
CONTINUOUS
62
  7
100
AcDbVertex
100
AcDb2dVertex
10
986.112629509823
20
2776.268910154601
30
0.0
0
VERTEX
5
483
100
AcDbEntity
8
0-0
6
CONTINUOUS
62
  7
100
AcDbVertex
100
AcDb2dVertex
10
986.062285296126
20
2780.520086670700
30
0.0
0
VERTEX
5
484
100
AcDbEntity
8
0-0
6
CONTINUOUS
62
  7
100
AcDbVertex
100
AcDb2dVertex
10
985.846796186604
20
2784.757524164485
30
0.0
0
VERTEX
5
485
100
AcDbEntity
8
0-0
6
CONTINUOUS
62
  7
100
AcDbVertex
100
AcDb2dVertex
10
985.621125063937
20
2787.207484001369
30
0.0
0
VERTEX
5
486
100
AcDbEntity
8
0-0
6
CONTINUOUS
62
  7
100
AcDbVertex
100
AcDb2dVertex
10
985.512203818756
20
2788.143183590900
30
0.0
0
VERTEX
5
487
100
AcDbEntity
8
0-0
6
CONTINUOUS
62
  7
100
AcDbVertex
100
AcDb2dVertex
10
985.298121138883
20
2789.754564017602
30
0.0
0
VERTEX
5
488
100
AcDbEntity
8
0-0
6
CONTINUOUS
62
  7
100
AcDbVertex
100
AcDb2dVertex
10
985.057434121120
20
2791.364106315330
30
0.0
0
VERTEX
5
489
100
AcDbEntity
8
0-0
6
CONTINUOUS
62
  7
100
AcDbVertex
100
AcDb2dVertex
10
984.797899613606
20
2792.972461949745
30
0.0
0
VERTEX
5
48a
100
AcDbEntity
8
0-0
6
CONTINUOUS
62
  7
100
AcDbVertex
100
AcDb2dVertex
10
984.527274464484
20
2794.580282386508
30
0.0
0
VERTEX
5
48b
100
AcDbEntity
8
0-0
6
CONTINUOUS
62
  7
100
AcDbVertex
100
AcDb2dVertex
10
984.253315521893
20
2796.188219091281
30
0.0
0
VERTEX
5
48c
100
AcDbEntity
8
0-0
6
CONTINUOUS
62
  7
100
AcDbVertex
100
AcDb2dVertex
10
984.095948392548
20
2797.121132365397
30
0.0
0
VERTEX
5
48d
100
AcDbEntity
8
0-0
6
CONTINUOUS
62
  7
100
AcDbVertex
100
AcDb2dVertex
10
983.921933036278
20
2798.170930030239
30
0.0
0
VERTEX
5
48e
100
AcDbEntity
8
0-0
6
CONTINUOUS
62
  7
100
AcDbVertex
100
AcDb2dVertex
10
983.625604141101
20
2799.981013770032
30
0.0
0
VERTEX
5
48f
100
AcDbEntity
8
0-0
6
CONTINUOUS
62
  7
100
AcDbVertex
100
AcDb2dVertex
10
983.326061435539
20
2801.789609853610
30
0.0
0
VERTEX
5
490
100
AcDbEntity
8
0-0
6
CONTINUOUS
62
  7
100
AcDbVertex
100
AcDb2dVertex
10
983.014125509299
20
2803.594859266646
30
0.0
0
VERTEX
5
491
100
AcDbEntity
8
0-0
6
CONTINUOUS
62
  7
100
AcDbVertex
100
AcDb2dVertex
10
982.680616952094
20
2805.394902994807
30
0.0
0
VERTEX
5
492
100
AcDbEntity
8
0-0
6
CONTINUOUS
62
  7
100
AcDbVertex
100
AcDb2dVertex
10
982.316356353630
20
2807.187882023766
30
0.0
0
VERTEX
5
493
100
AcDbEntity
8
0-0
6
CONTINUOUS
62
  7
100
AcDbVertex
100
AcDb2dVertex
10
982.087377456234
20
2808.223840267073
30
0.0
0
VERTEX
5
494
100
AcDbEntity
8
0-0
6
CONTINUOUS
62
  7
100
AcDbVertex
100
AcDb2dVertex
10
981.802910272733
20
2809.422933509241
30
0.0
0
VERTEX
5
495
100
AcDbEntity
8
0-0
6
CONTINUOUS
62
  7
100
AcDbVertex
100
AcDb2dVertex
10
981.268454191631
20
2811.480313952195
30
0.0
0
VERTEX
5
496
100
AcDbEntity
8
0-0
6
CONTINUOUS
62
  7
100
AcDbVertex
100
AcDb2dVertex
10
980.684706774467
20
2813.525972021446
30
0.0
0
VERTEX
5
497
100
AcDbEntity
8
0-0
6
CONTINUOUS
62
  7
100
AcDbVertex
100
AcDb2dVertex
10
980.059108798993
20
2815.561027857546
30
0.0
0
VERTEX
5
498
100
AcDbEntity
8
0-0
6
CONTINUOUS
62
  7
100
AcDbVertex
100
AcDb2dVertex
10
979.399101042963
20
2817.586601601049
30
0.0
0
VERTEX
5
499
100
AcDbEntity
8
0-0
6
CONTINUOUS
62
  7
100
AcDbVertex
100
AcDb2dVertex
10
978.712124284127
20
2819.603813392505
30
0.0
0
VERTEX
5
49a
100
AcDbEntity
8
0-0
6
CONTINUOUS
62
  7
100
AcDbVertex
100
AcDb2dVertex
10
978.304252620271
20
2820.770406178748
30
0.0
0
VERTEX
5
49b
100
AcDbEntity
8
0-0
6
CONTINUOUS
62
  7
100
AcDbVertex
100
AcDb2dVertex
10
977.919028309096
20
2821.856119538267
30
0.0
0
VERTEX
5
49c
100
AcDbEntity
8
0-0
6
CONTINUOUS
62
  7
100
AcDbVertex
100
AcDb2dVertex
10
977.243117954692
20
2823.722991860574
30
0.0
0
VERTEX
5
49d
100
AcDbEntity
8
0-0
6
CONTINUOUS
62
  7
100
AcDbVertex
100
AcDb2dVertex
10
976.550421077852
20
2825.582689918495
30
0.0
0
VERTEX
5
49e
100
AcDbEntity
8
0-0
6
CONTINUOUS
62
  7
100
AcDbVertex
100
AcDb2dVertex
10
975.838684447522
20
2827.434300544836
30
0.0
0
VERTEX
5
49f
100
AcDbEntity
8
0-0
6
CONTINUOUS
62
  7
100
AcDbVertex
100
AcDb2dVertex
10
975.105654832653
20
2829.276910572401
30
0.0
0
VERTEX
5
4a0
100
AcDbEntity
8
0-0
6
CONTINUOUS
62
  7
100
AcDbVertex
100
AcDb2dVertex
10
974.349079002192
20
2831.109606833993
30
0.0
0
VERTEX
5
4a1
100
AcDbEntity
8
0-0
6
CONTINUOUS
62
  7
100
AcDbVertex
100
AcDb2dVertex
10
973.898588254339
20
2832.167668342789
30
0.0
0
VERTEX
5
4a2
100
AcDbEntity
8
0-0
6
CONTINUOUS
62
  7
100
AcDbVertex
100
AcDb2dVertex
10
973.331089914938
20
2833.466484450327
30
0.0
0
VERTEX
5
4a3
100
AcDbEntity
8
0-0
6
CONTINUOUS
62
  7
100
AcDbVertex
100
AcDb2dVertex
10
972.322786835323
20
2835.693086371566
30
0.0
0
VERTEX
5
4a4
100
AcDbEntity
8
0-0
6
CONTINUOUS
62
  7
100
AcDbVertex
100
AcDb2dVertex
10
971.280722478659
20
2837.904913229717
30
0.0
0
VERTEX
5
4a5
100
AcDbEntity
8
0-0
6
CONTINUOUS
62
  7
100
AcDbVertex
100
AcDb2dVertex
10
970.209586656524
20
2840.103530958496
30
0.0
0
VERTEX
5
4a6
100
AcDbEntity
8
0-0
6
CONTINUOUS
62
  7
100
AcDbVertex
100
AcDb2dVertex
10
969.114069180493
20
2842.290505491621
30
0.0
0
VERTEX
5
4a7
100
AcDbEntity
8
0-0
6
CONTINUOUS
62
  7
100
AcDbVertex
100
AcDb2dVertex
10
967.998859862148
20
2844.467402762806
30
0.0
0
VERTEX
5
4a8
100
AcDbEntity
8
0-0
6
CONTINUOUS
62
  7
100
AcDbVertex
100
AcDb2dVertex
10
967.344863684989
20
2845.726002837985
30
0.0
0
VERTEX
5
4a9
100
AcDbEntity
8
0-0
6
CONTINUOUS
62
  7
100
AcDbVertex
100
AcDb2dVertex
10
967.181444542948
20
2846.038790674167
30
0.0
0
VERTEX
5
4aa
100
AcDbEntity
8
0-0
6
CONTINUOUS
62
  7
100
AcDbVertex
100
AcDb2dVertex
10
966.899156801041
20
2846.577751580771
30
0.0
0
VERTEX
5
4ab
100
AcDbEntity
8
0-0
6
CONTINUOUS
62
  7
100
AcDbVertex
100
AcDb2dVertex
10
966.616303592344
20
2847.116362437382
30
0.0
0
VERTEX
5
4ac
100
AcDbEntity
8
0-0
6
CONTINUOUS
62
  7
100
AcDbVertex
100
AcDb2dVertex
10
966.333008381221
20
2847.654699674130
30
0.0
0
VERTEX
5
4ad
100
AcDbEntity
8
0-0
6
CONTINUOUS
62
  7
100
AcDbVertex
100
AcDb2dVertex
10
966.049394632037
20
2848.192839721143
30
0.0
0
VERTEX
5
4ae
100
AcDbEntity
8
0-0
6
CONTINUOUS
62
  7
100
AcDbVertex
100
AcDb2dVertex
10
965.765585809157
20
2848.730859008553
30
0.0
0
VERTEX
5
4af
100
AcDbEntity
8
0-0
6
CONTINUOUS
62
  7
100
AcDbVertex
100
AcDb2dVertex
10
965.600935960499
20
2849.042884980645
30
0.0
0
SEQEND
5
4b0
100
AcDbEntity
8
0-0
0
POLYLINE
5
4b1
100
AcDbEntity
8
0-0
6
CONTINUOUS
62
  7
100
AcDb2dPolyline
66
1
10
0.0
20
0.0
30
0.0
70
0
0
VERTEX
5
4b2
100
AcDbEntity
8
0-0
6
CONTINUOUS
62
  7
100
AcDbVertex
100
AcDb2dVertex
10
1196.568457748919
20
2711.422474175844
30
0.0
0
VERTEX
5
4b3
100
AcDbEntity
8
0-0
6
CONTINUOUS
62
  7
100
AcDbVertex
100
AcDb2dVertex
10
1196.435795561019
20
2711.724152398071
30
0.0
0
VERTEX
5
4b4
100
AcDbEntity
8
0-0
6
CONTINUOUS
62
  7
100
AcDbVertex
100
AcDb2dVertex
10
1196.207900255538
20
2712.244597024445
30
0.0
0
VERTEX
5
4b5
100
AcDbEntity
8
0-0
6
CONTINUOUS
62
  7
100
AcDbVertex
100
AcDb2dVertex
10
1195.982317740873
20
2712.765902096553
30
0.0
0
VERTEX
5
4b6
100
AcDbEntity
8
0-0
6
CONTINUOUS
62
  7
100
AcDbVertex
100
AcDb2dVertex
10
1195.760511808681
20
2713.288612200302
30
0.0
0
VERTEX
5
4b7
100
AcDbEntity
8
0-0
6
CONTINUOUS
62
  7
100
AcDbVertex
100
AcDb2dVertex
10
1195.543946250616
20
2713.813271921602
30
0.0
0
VERTEX
5
4b8
100
AcDbEntity
8
0-0
6
CONTINUOUS
62
  7
100
AcDbVertex
100
AcDb2dVertex
10
1195.334084858335
20
2714.340425846358
30
0.0
0
VERTEX
5
4b9
100
AcDbEntity
8
0-0
6
CONTINUOUS
62
  7
100
AcDbVertex
100
AcDb2dVertex
10
1195.216013909603
20
2714.647532561907
30
0.0
0
VERTEX
5
4ba
100
AcDbEntity
8
0-0
6
CONTINUOUS
62
  7
100
AcDbVertex
100
AcDb2dVertex
10
1194.967298586781
20
2715.325264345319
30
0.0
0
VERTEX
5
4bb
100
AcDbEntity
8
0-0
6
CONTINUOUS
62
  7
100
AcDbVertex
100
AcDb2dVertex
10
1194.570048302925
20
2716.505214646525
30
0.0
0
VERTEX
5
4bc
100
AcDbEntity
8
0-0
6
CONTINUOUS
62
  7
100
AcDbVertex
100
AcDb2dVertex
10
1194.208631099337
20
2717.697669195266
30
0.0
0
VERTEX
5
4bd
100
AcDbEntity
8
0-0
6
CONTINUOUS
62
  7
100
AcDbVertex
100
AcDb2dVertex
10
1193.878246998339
20
2718.900318791064
30
0.0
0
VERTEX
5
4be
100
AcDbEntity
8
0-0
6
CONTINUOUS
62
  7
100
AcDbVertex
100
AcDb2dVertex
10
1193.574096022246
20
2720.110854233441
30
0.0
0
VERTEX
5
4bf
100
AcDbEntity
8
0-0
6
CONTINUOUS
62
  7
100
AcDbVertex
100
AcDb2dVertex
10
1193.291378193377
20
2721.326966321915
30
0.0
0
VERTEX
5
4c0
100
AcDbEntity
8
0-0
6
CONTINUOUS
62
  7
100
AcDbVertex
100
AcDb2dVertex
10
1193.135331079885
20
2722.033956607406
30
0.0
0
VERTEX
5
4c1
100
AcDbEntity
8
0-0
6
CONTINUOUS
62
  7
100
AcDbVertex
100
AcDb2dVertex
10
1192.909804617069
20
2723.097454969219
30
0.0
0
VERTEX
5
4c2
100
AcDbEntity
8
0-0
6
CONTINUOUS
62
  7
100
AcDbVertex
100
AcDb2dVertex
10
1192.544337056753
20
2724.934415289645
30
0.0
0
VERTEX
5
4c3
100
AcDbEntity
8
0-0
6
CONTINUOUS
62
  7
100
AcDbVertex
100
AcDb2dVertex
10
1192.206451267375
20
2726.775461921284
30
0.0
0
VERTEX
5
4c4
100
AcDbEntity
8
0-0
6
CONTINUOUS
62
  7
100
AcDbVertex
100
AcDb2dVertex
10
1191.893819357215
20
2728.620426672534
30
0.0
0
VERTEX
5
4c5
100
AcDbEntity
8
0-0
6
CONTINUOUS
62
  7
100
AcDbVertex
100
AcDb2dVertex
10
1191.604113434553
20
2730.469141351793
30
0.0
0
VERTEX
5
4c6
100
AcDbEntity
8
0-0
6
CONTINUOUS
62
  7
100
AcDbVertex
100
AcDb2dVertex
10
1191.335005607670
20
2732.321437767457
30
0.0
0
VERTEX
5
4c7
100
AcDbEntity
8
0-0
6
CONTINUOUS
62
  7
100
AcDbVertex
100
AcDb2dVertex
10
1191.187443805176
20
2733.397344563926
30
0.0
0
VERTEX
5
4c8
100
AcDbEntity
8
0-0
6
CONTINUOUS
62
  7
100
AcDbVertex
100
AcDb2dVertex
10
1191.117770908460
20
2733.921347468998
30
0.0
0
VERTEX
5
4c9
100
AcDbEntity
8
0-0
6
CONTINUOUS
62
  7
100
AcDbVertex
100
AcDb2dVertex
10
1191.001569631600
20
2734.825386672675
30
0.0
0
VERTEX
5
4ca
100
AcDbEntity
8
0-0
6
CONTINUOUS
62
  7
100
AcDbVertex
100
AcDb2dVertex
10
1190.891483021640
20
2735.730115376189
30
0.0
0
VERTEX
5
4cb
100
AcDbEntity
8
0-0
6
CONTINUOUS
62
  7
100
AcDbVertex
100
AcDb2dVertex
10
1190.788844872694
20
2736.635472916888
30
0.0
0
VERTEX
5
4cc
100
AcDbEntity
8
0-0
6
CONTINUOUS
62
  7
100
AcDbVertex
100
AcDb2dVertex
10
1190.694988978872
20
2737.541398632125
30
0.0
0
VERTEX
5
4cd
100
AcDbEntity
8
0-0
6
CONTINUOUS
62
  7
100
AcDbVertex
100
AcDb2dVertex
10
1190.611249134287
20
2738.447831859250
30
0.0
0
VERTEX
5
4ce
100
AcDbEntity
8
0-0
6
CONTINUOUS
62
  7
100
AcDbVertex
100
AcDb2dVertex
10
1190.567840782424
20
2738.973771768692
30
0.0
0
VERTEX
5
4cf
100
AcDbEntity
8
0-0
6
CONTINUOUS
62
  7
100
AcDbVertex
100
AcDb2dVertex
10
1190.435584405912
20
2741.039201773912
30
0.0
0
VERTEX
5
4d0
100
AcDbEntity
8
0-0
6
CONTINUOUS
62
  7
100
AcDbVertex
100
AcDb2dVertex
10
1190.330721490572
20
2744.604921091313
30
0.0
0
VERTEX
5
4d1
100
AcDbEntity
8
0-0
6
CONTINUOUS
62
  7
100
AcDbVertex
100
AcDb2dVertex
10
1190.343104339999
20
2748.175936553130
30
0.0
0
VERTEX
5
4d2
100
AcDbEntity
8
0-0
6
CONTINUOUS
62
  7
100
AcDbVertex
100
AcDb2dVertex
10
1190.427779810449
20
2751.751587065143
30
0.0
0
VERTEX
5
4d3
100
AcDbEntity
8
0-0
6
CONTINUOUS
62
  7
100
AcDbVertex
100
AcDb2dVertex
10
1190.539794758174
20
2755.331211533130
30
0.0
0
VERTEX
5
4d4
100
AcDbEntity
8
0-0
6
CONTINUOUS
62
  7
100
AcDbVertex
100
AcDb2dVertex
10
1190.634196039432
20
2758.914148862868
30
0.0
0
VERTEX
5
4d5
100
AcDbEntity
8
0-0
6
CONTINUOUS
62
  7
100
AcDbVertex
100
AcDb2dVertex
10
1190.663164324386
20
2760.993509961871
30
0.0
0
VERTEX
5
4d6
100
AcDbEntity
8
0-0
6
CONTINUOUS
62
  7
100
AcDbVertex
100
AcDb2dVertex
10
1190.662575196695
20
2763.469964162666
30
0.0
0
VERTEX
5
4d7
100
AcDbEntity
8
0-0
6
CONTINUOUS
62
  7
100
AcDbVertex
100
AcDb2dVertex
10
1190.598419947848
20
2767.740147131561
30
0.0
0
VERTEX
5
4d8
100
AcDbEntity
8
0-0
6
CONTINUOUS
62
  7
100
AcDbVertex
100
AcDb2dVertex
10
1190.508941982359
20
2772.007696385213
30
0.0
0
VERTEX
5
4d9
100
AcDbEntity
8
0-0
6
CONTINUOUS
62
  7
100
AcDbVertex
100
AcDb2dVertex
10
1190.457630504386
20
2776.268910154601
30
0.0
0
VERTEX
5
4da
100
AcDbEntity
8
0-0
6
CONTINUOUS
62
  7
100
AcDbVertex
100
AcDb2dVertex
10
1190.507974718082
20
2780.520086670700
30
0.0
0
VERTEX
5
4db
100
AcDbEntity
8
0-0
6
CONTINUOUS
62
  7
100
AcDbVertex
100
AcDb2dVertex
10
1190.723463827605
20
2784.757524164485
30
0.0
0
VERTEX
5
4dc
100
AcDbEntity
8
0-0
6
CONTINUOUS
62
  7
100
AcDbVertex
100
AcDb2dVertex
10
1190.949134950272
20
2787.207484001369
30
0.0
0
VERTEX
5
4dd
100
AcDbEntity
8
0-0
6
CONTINUOUS
62
  7
100
AcDbVertex
100
AcDb2dVertex
10
1191.058056195452
20
2788.143183590900
30
0.0
0
VERTEX
5
4de
100
AcDbEntity
8
0-0
6
CONTINUOUS
62
  7
100
AcDbVertex
100
AcDb2dVertex
10
1191.272138875325
20
2789.754564017602
30
0.0
0
VERTEX
5
4df
100
AcDbEntity
8
0-0
6
CONTINUOUS
62
  7
100
AcDbVertex
100
AcDb2dVertex
10
1191.512825893088
20
2791.364106315330
30
0.0
0
VERTEX
5
4e0
100
AcDbEntity
8
0-0
6
CONTINUOUS
62
  7
100
AcDbVertex
100
AcDb2dVertex
10
1191.772360400603
20
2792.972461949745
30
0.0
0
VERTEX
5
4e1
100
AcDbEntity
8
0-0
6
CONTINUOUS
62
  7
100
AcDbVertex
100
AcDb2dVertex
10
1192.042985549724
20
2794.580282386508
30
0.0
0
VERTEX
5
4e2
100
AcDbEntity
8
0-0
6
CONTINUOUS
62
  7
100
AcDbVertex
100
AcDb2dVertex
10
1192.316944492314
20
2796.188219091281
30
0.0
0
VERTEX
5
4e3
100
AcDbEntity
8
0-0
6
CONTINUOUS
62
  7
100
AcDbVertex
100
AcDb2dVertex
10
1192.474311621661
20
2797.121132365397
30
0.0
0
VERTEX
5
4e4
100
AcDbEntity
8
0-0
6
CONTINUOUS
62
  7
100
AcDbVertex
100
AcDb2dVertex
10
1192.648326977929
20
2798.170930030239
30
0.0
0
VERTEX
5
4e5
100
AcDbEntity
8
0-0
6
CONTINUOUS
62
  7
100
AcDbVertex
100
AcDb2dVertex
10
1192.944655873107
20
2799.981013770032
30
0.0
0
VERTEX
5
4e6
100
AcDbEntity
8
0-0
6
CONTINUOUS
62
  7
100
AcDbVertex
100
AcDb2dVertex
10
1193.244198578670
20
2801.789609853610
30
0.0
0
VERTEX
5
4e7
100
AcDbEntity
8
0-0
6
CONTINUOUS
62
  7
100
AcDbVertex
100
AcDb2dVertex
10
1193.556134504908
20
2803.594859266646
30
0.0
0
VERTEX
5
4e8
100
AcDbEntity
8
0-0
6
CONTINUOUS
62
  7
100
AcDbVertex
100
AcDb2dVertex
10
1193.889643062114
20
2805.394902994807
30
0.0
0
VERTEX
5
4e9
100
AcDbEntity
8
0-0
6
CONTINUOUS
62
  7
100
AcDbVertex
100
AcDb2dVertex
10
1194.253903660577
20
2807.187882023766
30
0.0
0
VERTEX
5
4ea
100
AcDbEntity
8
0-0
6
CONTINUOUS
62
  7
100
AcDbVertex
100
AcDb2dVertex
10
1194.482882557975
20
2808.223840267073
30
0.0
0
VERTEX
5
4eb
100
AcDbEntity
8
0-0
6
CONTINUOUS
62
  7
100
AcDbVertex
100
AcDb2dVertex
10
1194.767349741476
20
2809.422933509241
30
0.0
0
VERTEX
5
4ec
100
AcDbEntity
8
0-0
6
CONTINUOUS
62
  7
100
AcDbVertex
100
AcDb2dVertex
10
1195.301805822578
20
2811.480313952195
30
0.0
0
VERTEX
5
4ed
100
AcDbEntity
8
0-0
6
CONTINUOUS
62
  7
100
AcDbVertex
100
AcDb2dVertex
10
1195.885553239741
20
2813.525972021446
30
0.0
0
VERTEX
5
4ee
100
AcDbEntity
8
0-0
6
CONTINUOUS
62
  7
100
AcDbVertex
100
AcDb2dVertex
10
1196.511151215214
20
2815.561027857546
30
0.0
0
VERTEX
5
4ef
100
AcDbEntity
8
0-0
6
CONTINUOUS
62
  7
100
AcDbVertex
100
AcDb2dVertex
10
1197.171158971246
20
2817.586601601049
30
0.0
0
VERTEX
5
4f0
100
AcDbEntity
8
0-0
6
CONTINUOUS
62
  7
100
AcDbVertex
100
AcDb2dVertex
10
1197.858135730082
20
2819.603813392505
30
0.0
0
VERTEX
5
4f1
100
AcDbEntity
8
0-0
6
CONTINUOUS
62
  7
100
AcDbVertex
100
AcDb2dVertex
10
1198.266007393937
20
2820.770406178748
30
0.0
0
VERTEX
5
4f2
100
AcDbEntity
8
0-0
6
CONTINUOUS
62
  7
100
AcDbVertex
100
AcDb2dVertex
10
1198.651231705113
20
2821.856119538267
30
0.0
0
VERTEX
5
4f3
100
AcDbEntity
8
0-0
6
CONTINUOUS
62
  7
100
AcDbVertex
100
AcDb2dVertex
10
1199.327142059516
20
2823.722991860574
30
0.0
0
VERTEX
5
4f4
100
AcDbEntity
8
0-0
6
CONTINUOUS
62
  7
100
AcDbVertex
100
AcDb2dVertex
10
1200.019838936356
20
2825.582689918495
30
0.0
0
VERTEX
5
4f5
100
AcDbEntity
8
0-0
6
CONTINUOUS
62
  7
100
AcDbVertex
100
AcDb2dVertex
10
1200.731575566685
20
2827.434300544836
30
0.0
0
VERTEX
5
4f6
100
AcDbEntity
8
0-0
6
CONTINUOUS
62
  7
100
AcDbVertex
100
AcDb2dVertex
10
1201.464605181554
20
2829.276910572401
30
0.0
0
VERTEX
5
4f7
100
AcDbEntity
8
0-0
6
CONTINUOUS
62
  7
100
AcDbVertex
100
AcDb2dVertex
10
1202.221181012015
20
2831.109606833993
30
0.0
0
VERTEX
5
4f8
100
AcDbEntity
8
0-0
6
CONTINUOUS
62
  7
100
AcDbVertex
100
AcDb2dVertex
10
1202.671671759868
20
2832.167668342789
30
0.0
0
VERTEX
5
4f9
100
AcDbEntity
8
0-0
6
CONTINUOUS
62
  7
100
AcDbVertex
100
AcDb2dVertex
10
1203.239170099269
20
2833.466484450327
30
0.0
0
VERTEX
5
4fa
100
AcDbEntity
8
0-0
6
CONTINUOUS
62
  7
100
AcDbVertex
100
AcDb2dVertex
10
1204.247473178884
20
2835.693086371566
30
0.0
0
VERTEX
5
4fb
100
AcDbEntity
8
0-0
6
CONTINUOUS
62
  7
100
AcDbVertex
100
AcDb2dVertex
10
1205.289537535549
20
2837.904913229717
30
0.0
0
VERTEX
5
4fc
100
AcDbEntity
8
0-0
6
CONTINUOUS
62
  7
100
AcDbVertex
100
AcDb2dVertex
10
1206.360673357685
20
2840.103530958496
30
0.0
0
VERTEX
5
4fd
100
AcDbEntity
8
0-0
6
CONTINUOUS
62
  7
100
AcDbVertex
100
AcDb2dVertex
10
1207.456190833715
20
2842.290505491621
30
0.0
0
VERTEX
5
4fe
100
AcDbEntity
8
0-0
6
CONTINUOUS
62
  7
100
AcDbVertex
100
AcDb2dVertex
10
1208.571400152061
20
2844.467402762806
30
0.0
0
VERTEX
5
4ff
100
AcDbEntity
8
0-0
6
CONTINUOUS
62
  7
100
AcDbVertex
100
AcDb2dVertex
10
1209.225396329218
20
2845.726002837985
30
0.0
0
VERTEX
5
500
100
AcDbEntity
8
0-0
6
CONTINUOUS
62
  7
100
AcDbVertex
100
AcDb2dVertex
10
1209.388815471261
20
2846.038790674167
30
0.0
0
VERTEX
5
501
100
AcDbEntity
8
0-0
6
CONTINUOUS
62
  7
100
AcDbVertex
100
AcDb2dVertex
10
1209.671103213168
20
2846.577751580771
30
0.0
0
VERTEX
5
502
100
AcDbEntity
8
0-0
6
CONTINUOUS
62
  7
100
AcDbVertex
100
AcDb2dVertex
10
1209.953956421864
20
2847.116362437382
30
0.0
0
VERTEX
5
503
100
AcDbEntity
8
0-0
6
CONTINUOUS
62
  7
100
AcDbVertex
100
AcDb2dVertex
10
1210.237251632987
20
2847.654699674130
30
0.0
0
VERTEX
5
504
100
AcDbEntity
8
0-0
6
CONTINUOUS
62
  7
100
AcDbVertex
100
AcDb2dVertex
10
1210.520865382172
20
2848.192839721143
30
0.0
0
VERTEX
5
505
100
AcDbEntity
8
0-0
6
CONTINUOUS
62
  7
100
AcDbVertex
100
AcDb2dVertex
10
1210.804674205051
20
2848.730859008553
30
0.0
0
VERTEX
5
506
100
AcDbEntity
8
0-0
6
CONTINUOUS
62
  7
100
AcDbVertex
100
AcDb2dVertex
10
1210.969324053710
20
2849.042884980645
30
0.0
0
SEQEND
5
507
100
AcDbEntity
8
0-0
0
POLYLINE
5
508
100
AcDbEntity
8
0-0
6
CONTINUOUS
62
  7
100
AcDb2dPolyline
66
1
10
0.0
20
0.0
30
0.0
70
0
0
VERTEX
5
509
100
AcDbEntity
8
0-0
6
CONTINUOUS
62
  7
100
AcDbVertex
100
AcDb2dVertex
10
995.933020006734
20
2705.515720749496
30
0.0
0
VERTEX
5
50a
100
AcDbEntity
8
0-0
6
CONTINUOUS
62
  7
100
AcDbVertex
100
AcDb2dVertex
10
996.348098951750
20
2706.585238257400
30
0.0
0
VERTEX
5
50b
100
AcDbEntity
8
0-0
6
CONTINUOUS
62
  7
100
AcDbVertex
100
AcDb2dVertex
10
997.056327221369
20
2708.431229936936
30
0.0
0
VERTEX
5
50c
100
AcDbEntity
8
0-0
6
CONTINUOUS
62
  7
100
AcDbVertex
100
AcDb2dVertex
10
997.743930258060
20
2710.282765994953
30
0.0
0
VERTEX
5
50d
100
AcDbEntity
8
0-0
6
CONTINUOUS
62
  7
100
AcDbVertex
100
AcDb2dVertex
10
998.397854116931
20
2712.143355531754
30
0.0
0
VERTEX
5
50e
100
AcDbEntity
8
0-0
6
CONTINUOUS
62
  7
100
AcDbVertex
100
AcDb2dVertex
10
999.005044853088
20
2714.016507647643
30
0.0
0
VERTEX
5
50f
100
AcDbEntity
8
0-0
6
CONTINUOUS
62
  7
100
AcDbVertex
100
AcDb2dVertex
10
999.552448521641
20
2715.905731442927
30
0.0
0
VERTEX
5
510
100
AcDbEntity
8
0-0
6
CONTINUOUS
62
  7
100
AcDbVertex
100
AcDb2dVertex
10
999.837404281934
20
2717.010228055681
30
0.0
0
VERTEX
5
511
100
AcDbEntity
8
0-0
6
CONTINUOUS
62
  7
100
AcDbVertex
100
AcDb2dVertex
10
999.960968386392
20
2717.526613658700
30
0.0
0
VERTEX
5
512
100
AcDbEntity
8
0-0
6
CONTINUOUS
62
  7
100
AcDbVertex
100
AcDb2dVertex
10
1000.160054437819
20
2718.420558178284
30
0.0
0
VERTEX
5
513
100
AcDbEntity
8
0-0
6
CONTINUOUS
62
  7
100
AcDbVertex
100
AcDb2dVertex
10
1000.341173333089
20
2719.318979933798
30
0.0
0
VERTEX
5
514
100
AcDbEntity
8
0-0
6
CONTINUOUS
62
  7
100
AcDbVertex
100
AcDb2dVertex
10
1000.503973960369
20
2720.221750138082
30
0.0
0
VERTEX
5
515
100
AcDbEntity
8
0-0
6
CONTINUOUS
62
  7
100
AcDbVertex
100
AcDb2dVertex
10
1000.648105207824
20
2721.128740003978
30
0.0
0
VERTEX
5
516
100
AcDbEntity
8
0-0
6
CONTINUOUS
62
  7
100
AcDbVertex
100
AcDb2dVertex
10
1000.773215963621
20
2722.039820744326
30
0.0
0
VERTEX
5
517
100
AcDbEntity
8
0-0
6
CONTINUOUS
62
  7
100
AcDbVertex
100
AcDb2dVertex
10
1000.836926656385
20
2722.570071263564
30
0.0
0
VERTEX
5
518
100
AcDbEntity
8
0-0
6
CONTINUOUS
62
  7
100
AcDbVertex
100
AcDb2dVertex
10
1000.853034885425
20
2722.712950307876
30
0.0
0
VERTEX
5
519
100
AcDbEntity
8
0-0
6
CONTINUOUS
62
  7
100
AcDbVertex
100
AcDb2dVertex
10
1000.881207713408
20
2722.959176606246
30
0.0
0
VERTEX
5
51a
100
AcDbEntity
8
0-0
6
CONTINUOUS
62
  7
100
AcDbVertex
100
AcDb2dVertex
10
1000.912184487754
20
2723.204742069337
30
0.0
0
VERTEX
5
51b
100
AcDbEntity
8
0-0
6
CONTINUOUS
62
  7
100
AcDbVertex
100
AcDb2dVertex
10
1000.948636828025
20
2723.449050320355
30
0.0
0
VERTEX
5
51c
100
AcDbEntity
8
0-0
6
CONTINUOUS
62
  7
100
AcDbVertex
100
AcDb2dVertex
10
1000.993236353790
20
2723.691504982509
30
0.0
0
VERTEX
5
51d
100
AcDbEntity
8
0-0
6
CONTINUOUS
62
  7
100
AcDbVertex
100
AcDb2dVertex
10
1001.048654684611
20
2723.931509679005
30
0.0
0
VERTEX
5
51e
100
AcDbEntity
8
0-0
6
CONTINUOUS
62
  7
100
AcDbVertex
100
AcDb2dVertex
10
1001.086807249997
20
2724.069354825241
30
0.0
0
VERTEX
5
51f
100
AcDbEntity
8
0-0
6
CONTINUOUS
62
  7
100
AcDbVertex
100
AcDb2dVertex
10
1001.139744928946
20
2724.235100405293
30
0.0
0
VERTEX
5
520
100
AcDbEntity
8
0-0
6
CONTINUOUS
62
  7
100
AcDbVertex
100
AcDb2dVertex
10
1001.247510549051
20
2724.516181272776
30
0.0
0
VERTEX
5
521
100
AcDbEntity
8
0-0
6
CONTINUOUS
62
  7
100
AcDbVertex
100
AcDb2dVertex
10
1001.374631090989
20
2724.790209912790
30
0.0
0
VERTEX
5
522
100
AcDbEntity
8
0-0
6
CONTINUOUS
62
  7
100
AcDbVertex
100
AcDb2dVertex
10
1001.519335327790
20
2725.055885345479
30
0.0
0
VERTEX
5
523
100
AcDbEntity
8
0-0
6
CONTINUOUS
62
  7
100
AcDbVertex
100
AcDb2dVertex
10
1001.679852032487
20
2725.311906590987
30
0.0
0
VERTEX
5
524
100
AcDbEntity
8
0-0
6
CONTINUOUS
62
  7
100
AcDbVertex
100
AcDb2dVertex
10
1001.854409978114
20
2725.556972669459
30
0.0
0
VERTEX
5
525
100
AcDbEntity
8
0-0
6
CONTINUOUS
62
  7
100
AcDbVertex
100
AcDb2dVertex
10
1001.961389327642
20
2725.693578683723
30
0.0
0
VERTEX
5
526
100
AcDbEntity
8
0-0
6
CONTINUOUS
62
  7
100
AcDbVertex
100
AcDb2dVertex
10
1002.045956726563
20
2725.795367046037
30
0.0
0
VERTEX
5
527
100
AcDbEntity
8
0-0
6
CONTINUOUS
62
  7
100
AcDbVertex
100
AcDb2dVertex
10
1002.196799407879
20
2725.965562065900
30
0.0
0
VERTEX
5
528
100
AcDbEntity
8
0-0
6
CONTINUOUS
62
  7
100
AcDbVertex
100
AcDb2dVertex
10
1002.353748468725
20
2726.130153615316
30
0.0
0
VERTEX
5
529
100
AcDbEntity
8
0-0
6
CONTINUOUS
62
  7
100
AcDbVertex
100
AcDb2dVertex
10
1002.516490719115
20
2726.290430206042
30
0.0
0
VERTEX
5
52a
100
AcDbEntity
8
0-0
6
CONTINUOUS
62
  7
100
AcDbVertex
100
AcDb2dVertex
10
1002.684712969060
20
2726.447680349832
30
0.0
0
VERTEX
5
52b
100
AcDbEntity
8
0-0
6
CONTINUOUS
62
  7
100
AcDbVertex
100
AcDb2dVertex
10
1002.858102028572
20
2726.603192558444
30
0.0
0
VERTEX
5
52c
100
AcDbEntity
8
0-0
6
CONTINUOUS
62
  7
100
AcDbVertex
100
AcDb2dVertex
10
1002.960911702093
20
2726.693101058174
30
0.0
0
VERTEX
5
52d
100
AcDbEntity
8
0-0
6
CONTINUOUS
62
  7
100
AcDbVertex
100
AcDb2dVertex
10
1003.103816095765
20
2726.815617858175
30
0.0
0
VERTEX
5
52e
100
AcDbEntity
8
0-0
6
CONTINUOUS
62
  7
100
AcDbVertex
100
AcDb2dVertex
10
1003.357364981861
20
2727.021787211864
30
0.0
0
VERTEX
5
52f
100
AcDbEntity
8
0-0
6
CONTINUOUS
62
  7
100
AcDbVertex
100
AcDb2dVertex
10
1003.620410444296
20
2727.213219899290
30
0.0
0
VERTEX
5
530
100
AcDbEntity
8
0-0
6
CONTINUOUS
62
  7
100
AcDbVertex
100
AcDb2dVertex
10
1003.893453358624
20
2727.380237589630
30
0.0
0
VERTEX
5
531
100
AcDbEntity
8
0-0
6
CONTINUOUS
62
  7
100
AcDbVertex
100
AcDb2dVertex
10
1004.176994600400
20
2727.513161952055
30
0.0
0
VERTEX
5
532
100
AcDbEntity
8
0-0
6
CONTINUOUS
62
  7
100
AcDbVertex
100
AcDb2dVertex
10
1004.471535045178
20
2727.602314655739
30
0.0
0
VERTEX
5
533
100
AcDbEntity
8
0-0
6
CONTINUOUS
62
  7
100
AcDbVertex
100
AcDb2dVertex
10
1004.647605708978
20
2727.630153284222
30
0.0
0
VERTEX
5
534
100
AcDbEntity
8
0-0
6
CONTINUOUS
62
  7
100
AcDbVertex
100
AcDb2dVertex
10
1004.693848005429
20
2727.634226604202
30
0.0
0
VERTEX
5
535
100
AcDbEntity
8
0-0
6
CONTINUOUS
62
  7
100
AcDbVertex
100
AcDb2dVertex
10
1004.774127941619
20
2727.638485204087
30
0.0
0
VERTEX
5
536
100
AcDbEntity
8
0-0
6
CONTINUOUS
62
  7
100
AcDbVertex
100
AcDb2dVertex
10
1004.854995978610
20
2727.639797788887
30
0.0
0
VERTEX
5
537
100
AcDbEntity
8
0-0
6
CONTINUOUS
62
  7
100
AcDbVertex
100
AcDb2dVertex
10
1004.936323710111
20
2727.638807593336
30
0.0
0
VERTEX
5
538
100
AcDbEntity
8
0-0
6
CONTINUOUS
62
  7
100
AcDbVertex
100
AcDb2dVertex
10
1005.017982729834
20
2727.636157852170
30
0.0
0
VERTEX
5
539
100
AcDbEntity
8
0-0
6
CONTINUOUS
62
  7
100
AcDbVertex
100
AcDb2dVertex
10
1005.099844631493
20
2727.632491800121
30
0.0
0
VERTEX
5
53a
100
AcDbEntity
8
0-0
6
CONTINUOUS
62
  7
100
AcDbVertex
100
AcDb2dVertex
10
1005.147366896204
20
2727.630153284222
30
0.0
0
SEQEND
5
53b
100
AcDbEntity
8
0-0
0
POLYLINE
5
53c
100
AcDbEntity
8
0-0
6
CONTINUOUS
62
  7
100
AcDb2dPolyline
66
1
10
0.0
20
0.0
30
0.0
70
0
0
VERTEX
5
53d
100
AcDbEntity
8
0-0
6
CONTINUOUS
62
  7
100
AcDbVertex
100
AcDb2dVertex
10
1180.867534392727
20
2705.515720749496
30
0.0
0
VERTEX
5
53e
100
AcDbEntity
8
0-0
6
CONTINUOUS
62
  7
100
AcDbVertex
100
AcDb2dVertex
10
1180.452455447712
20
2706.585238257400
30
0.0
0
VERTEX
5
53f
100
AcDbEntity
8
0-0
6
CONTINUOUS
62
  7
100
AcDbVertex
100
AcDb2dVertex
10
1179.744227178092
20
2708.431229936936
30
0.0
0
VERTEX
5
540
100
AcDbEntity
8
0-0
6
CONTINUOUS
62
  7
100
AcDbVertex
100
AcDb2dVertex
10
1179.056624141401
20
2710.282765994953
30
0.0
0
VERTEX
5
541
100
AcDbEntity
8
0-0
6
CONTINUOUS
62
  7
100
AcDbVertex
100
AcDb2dVertex
10
1178.402700282531
20
2712.143355531754
30
0.0
0
VERTEX
5
542
100
AcDbEntity
8
0-0
6
CONTINUOUS
62
  7
100
AcDbVertex
100
AcDb2dVertex
10
1177.795509546373
20
2714.016507647643
30
0.0
0
VERTEX
5
543
100
AcDbEntity
8
0-0
6
CONTINUOUS
62
  7
100
AcDbVertex
100
AcDb2dVertex
10
1177.248105877820
20
2715.905731442927
30
0.0
0
VERTEX
5
544
100
AcDbEntity
8
0-0
6
CONTINUOUS
62
  7
100
AcDbVertex
100
AcDb2dVertex
10
1176.963150117528
20
2717.010228055681
30
0.0
0
VERTEX
5
545
100
AcDbEntity
8
0-0
6
CONTINUOUS
62
  7
100
AcDbVertex
100
AcDb2dVertex
10
1176.839586013070
20
2717.526613658700
30
0.0
0
VERTEX
5
546
100
AcDbEntity
8
0-0
6
CONTINUOUS
62
  7
100
AcDbVertex
100
AcDb2dVertex
10
1176.640499961643
20
2718.420558178284
30
0.0
0
VERTEX
5
547
100
AcDbEntity
8
0-0
6
CONTINUOUS
62
  7
100
AcDbVertex
100
AcDb2dVertex
10
1176.459381066372
20
2719.318979933798
30
0.0
0
VERTEX
5
548
100
AcDbEntity
8
0-0
6
CONTINUOUS
62
  7
100
AcDbVertex
100
AcDb2dVertex
10
1176.296580439092
20
2720.221750138082
30
0.0
0
VERTEX
5
549
100
AcDbEntity
8
0-0
6
CONTINUOUS
62
  7
100
AcDbVertex
100
AcDb2dVertex
10
1176.152449191637
20
2721.128740003978
30
0.0
0
VERTEX
5
54a
100
AcDbEntity
8
0-0
6
CONTINUOUS
62
  7
100
AcDbVertex
100
AcDb2dVertex
10
1176.027338435840
20
2722.039820744326
30
0.0
0
VERTEX
5
54b
100
AcDbEntity
8
0-0
6
CONTINUOUS
62
  7
100
AcDbVertex
100
AcDb2dVertex
10
1175.963627743077
20
2722.570071263564
30
0.0
0
VERTEX
5
54c
100
AcDbEntity
8
0-0
6
CONTINUOUS
62
  7
100
AcDbVertex
100
AcDb2dVertex
10
1175.947519514037
20
2722.712950307876
30
0.0
0
VERTEX
5
54d
100
AcDbEntity
8
0-0
6
CONTINUOUS
62
  7
100
AcDbVertex
100
AcDb2dVertex
10
1175.919346686053
20
2722.959176606246
30
0.0
0
VERTEX
5
54e
100
AcDbEntity
8
0-0
6
CONTINUOUS
62
  7
100
AcDbVertex
100
AcDb2dVertex
10
1175.888369911707
20
2723.204742069337
30
0.0
0
VERTEX
5
54f
100
AcDbEntity
8
0-0
6
CONTINUOUS
62
  7
100
AcDbVertex
100
AcDb2dVertex
10
1175.851917571435
20
2723.449050320355
30
0.0
0
VERTEX
5
550
100
AcDbEntity
8
0-0
6
CONTINUOUS
62
  7
100
AcDbVertex
100
AcDb2dVertex
10
1175.807318045671
20
2723.691504982509
30
0.0
0
VERTEX
5
551
100
AcDbEntity
8
0-0
6
CONTINUOUS
62
  7
100
AcDbVertex
100
AcDb2dVertex
10
1175.751899714851
20
2723.931509679005
30
0.0
0
VERTEX
5
552
100
AcDbEntity
8
0-0
6
CONTINUOUS
62
  7
100
AcDbVertex
100
AcDb2dVertex
10
1175.713747149464
20
2724.069354825241
30
0.0
0
VERTEX
5
553
100
AcDbEntity
8
0-0
6
CONTINUOUS
62
  7
100
AcDbVertex
100
AcDb2dVertex
10
1175.660809470516
20
2724.235100405293
30
0.0
0
VERTEX
5
554
100
AcDbEntity
8
0-0
6
CONTINUOUS
62
  7
100
AcDbVertex
100
AcDb2dVertex
10
1175.553043850410
20
2724.516181272776
30
0.0
0
VERTEX
5
555
100
AcDbEntity
8
0-0
6
CONTINUOUS
62
  7
100
AcDbVertex
100
AcDb2dVertex
10
1175.425923308473
20
2724.790209912790
30
0.0
0
VERTEX
5
556
100
AcDbEntity
8
0-0
6
CONTINUOUS
62
  7
100
AcDbVertex
100
AcDb2dVertex
10
1175.281219071671
20
2725.055885345479
30
0.0
0
VERTEX
5
557
100
AcDbEntity
8
0-0
6
CONTINUOUS
62
  7
100
AcDbVertex
100
AcDb2dVertex
10
1175.120702366973
20
2725.311906590987
30
0.0
0
VERTEX
5
558
100
AcDbEntity
8
0-0
6
CONTINUOUS
62
  7
100
AcDbVertex
100
AcDb2dVertex
10
1174.946144421348
20
2725.556972669459
30
0.0
0
VERTEX
5
559
100
AcDbEntity
8
0-0
6
CONTINUOUS
62
  7
100
AcDbVertex
100
AcDb2dVertex
10
1174.839165071820
20
2725.693578683723
30
0.0
0
VERTEX
5
55a
100
AcDbEntity
8
0-0
6
CONTINUOUS
62
  7
100
AcDbVertex
100
AcDb2dVertex
10
1174.754597672898
20
2725.795367046037
30
0.0
0
VERTEX
5
55b
100
AcDbEntity
8
0-0
6
CONTINUOUS
62
  7
100
AcDbVertex
100
AcDb2dVertex
10
1174.603754991582
20
2725.965562065900
30
0.0
0
VERTEX
5
55c
100
AcDbEntity
8
0-0
6
CONTINUOUS
62
  7
100
AcDbVertex
100
AcDb2dVertex
10
1174.446805930736
20
2726.130153615316
30
0.0
0
VERTEX
5
55d
100
AcDbEntity
8
0-0
6
CONTINUOUS
62
  7
100
AcDbVertex
100
AcDb2dVertex
10
1174.284063680347
20
2726.290430206042
30
0.0
0
VERTEX
5
55e
100
AcDbEntity
8
0-0
6
CONTINUOUS
62
  7
100
AcDbVertex
100
AcDb2dVertex
10
1174.115841430403
20
2726.447680349832
30
0.0
0
VERTEX
5
55f
100
AcDbEntity
8
0-0
6
CONTINUOUS
62
  7
100
AcDbVertex
100
AcDb2dVertex
10
1173.942452370889
20
2726.603192558444
30
0.0
0
VERTEX
5
560
100
AcDbEntity
8
0-0
6
CONTINUOUS
62
  7
100
AcDbVertex
100
AcDb2dVertex
10
1173.839642697369
20
2726.693101058174
30
0.0
0
VERTEX
5
561
100
AcDbEntity
8
0-0
6
CONTINUOUS
62
  7
100
AcDbVertex
100
AcDb2dVertex
10
1173.696738303697
20
2726.815617858175
30
0.0
0
VERTEX
5
562
100
AcDbEntity
8
0-0
6
CONTINUOUS
62
  7
100
AcDbVertex
100
AcDb2dVertex
10
1173.443189417600
20
2727.021787211864
30
0.0
0
VERTEX
5
563
100
AcDbEntity
8
0-0
6
CONTINUOUS
62
  7
100
AcDbVertex
100
AcDb2dVertex
10
1173.180143955164
20
2727.213219899290
30
0.0
0
VERTEX
5
564
100
AcDbEntity
8
0-0
6
CONTINUOUS
62
  7
100
AcDbVertex
100
AcDb2dVertex
10
1172.907101040837
20
2727.380237589630
30
0.0
0
VERTEX
5
565
100
AcDbEntity
8
0-0
6
CONTINUOUS
62
  7
100
AcDbVertex
100
AcDb2dVertex
10
1172.623559799062
20
2727.513161952055
30
0.0
0
VERTEX
5
566
100
AcDbEntity
8
0-0
6
CONTINUOUS
62
  7
100
AcDbVertex
100
AcDb2dVertex
10
1172.329019354284
20
2727.602314655739
30
0.0
0
VERTEX
5
567
100
AcDbEntity
8
0-0
6
CONTINUOUS
62
  7
100
AcDbVertex
100
AcDb2dVertex
10
1172.152948690483
20
2727.630153284222
30
0.0
0
VERTEX
5
568
100
AcDbEntity
8
0-0
6
CONTINUOUS
62
  7
100
AcDbVertex
100
AcDb2dVertex
10
1172.106706394033
20
2727.634226604202
30
0.0
0
VERTEX
5
569
100
AcDbEntity
8
0-0
6
CONTINUOUS
62
  7
100
AcDbVertex
100
AcDb2dVertex
10
1172.026426457842
20
2727.638485204087
30
0.0
0
VERTEX
5
56a
100
AcDbEntity
8
0-0
6
CONTINUOUS
62
  7
100
AcDbVertex
100
AcDb2dVertex
10
1171.945558420851
20
2727.639797788887
30
0.0
0
VERTEX
5
56b
100
AcDbEntity
8
0-0
6
CONTINUOUS
62
  7
100
AcDbVertex
100
AcDb2dVertex
10
1171.864230689351
20
2727.638807593336
30
0.0
0
VERTEX
5
56c
100
AcDbEntity
8
0-0
6
CONTINUOUS
62
  7
100
AcDbVertex
100
AcDb2dVertex
10
1171.782571669627
20
2727.636157852170
30
0.0
0
VERTEX
5
56d
100
AcDbEntity
8
0-0
6
CONTINUOUS
62
  7
100
AcDbVertex
100
AcDb2dVertex
10
1171.700709767967
20
2727.632491800121
30
0.0
0
VERTEX
5
56e
100
AcDbEntity
8
0-0
6
CONTINUOUS
62
  7
100
AcDbVertex
100
AcDb2dVertex
10
1171.653187503258
20
2727.630153284222
30
0.0
0
SEQEND
5
56f
100
AcDbEntity
8
0-0
0
ARC
5
570
100
AcDbEntity
8
0-0
6
CONTINUOUS
62
7
100
AcDbCircle
10
844.784843872244
20
1452.816970995890
30
0.0
40
8.000000000000
100
AcDbArc
50
87.277996028082
51
269.278324649109
0
LINE
5
571
100
AcDbEntity
8
0-0
6
CONTINUOUS
62
7
100
AcDbLine
10
850.046663005339
20
1462.047273162406
30
0.0
11
839.546663005339
21
1462.047273162406
31
0.0
0
LINE
5
572
100
AcDbEntity
8
0-0
6
CONTINUOUS
62
7
100
AcDbLine
10
851.126296865081
20
1460.177292463760
30
0.0
11
850.046663005339
21
1462.047273162406
31
0.0
0
LINE
5
573
100
AcDbEntity
8
0-0
6
CONTINUOUS
62
7
100
AcDbLine
10
856.724710379680
20
1467.048177178032
30
0.0
11
856.724710379680
21
1459.470934363277
31
0.0
0
LINE
5
574
100
AcDbEntity
8
0-0
6
CONTINUOUS
62
7
100
AcDbLine
10
856.724710379680
20
1443.531266590307
30
0.0
11
856.724710379680
21
1437.899099967550
31
0.0
0
POLYLINE
5
575
100
AcDbEntity
8
0-0
6
CONTINUOUS
62
  7
100
AcDb2dPolyline
66
1
10
0.0
20
0.0
30
0.0
70
0
0
VERTEX
5
576
100
AcDbEntity
8
0-0
6
CONTINUOUS
62
  7
100
AcDbVertex
100
AcDb2dVertex
10
839.546663005339
20
1462.047273162406
30
0.0
0
VERTEX
5
577
100
AcDbEntity
8
0-0
6
CONTINUOUS
62
  7
100
AcDbVertex
100
AcDb2dVertex
10
834.296663005339
20
1452.954006422669
30
0.0
0
VERTEX
5
578
100
AcDbEntity
8
0-0
6
CONTINUOUS
62
  7
100
AcDbVertex
100
AcDb2dVertex
10
839.546663005339
20
1443.860739682932
30
0.0
0
VERTEX
5
579
100
AcDbEntity
8
0-0
6
CONTINUOUS
62
  7
100
AcDbVertex
100
AcDb2dVertex
10
850.046663005339
20
1443.860739682932
30
0.0
0
SEQEND
5
57a
100
AcDbEntity
8
0-0
0
LINE
5
57b
100
AcDbEntity
8
0-0
6
CONTINUOUS
62
7
100
AcDbLine
10
831.984452802439
20
1437.822498062652
30
0.0
11
856.984452802439
21
1437.822498062652
31
0.0
0
LINE
5
57c
100
AcDbEntity
8
0-0
6
CONTINUOUS
62
7
100
AcDbLine
10
828.524684787298
20
1501.630256264009
30
0.0
11
860.524684787298
21
1501.630256264009
31
0.0
0
ARC
5
57d
100
AcDbEntity
8
0-0
6
CONTINUOUS
62
7
100
AcDbCircle
10
860.524684787298
20
1513.630256264008
30
0.0
40
12.000000000000
100
AcDbArc
50
270.000000000000
51
360.000000000000
0
ARC
5
57e
100
AcDbEntity
8
0-0
6
CONTINUOUS
62
7
100
AcDbCircle
10
828.524684787298
20
1513.630256264008
30
0.0
40
12.000000000000
100
AcDbArc
50
180.000000000000
51
270.000000000000
0
LINE
5
57f
100
AcDbEntity
8
0-0
6
CONTINUOUS
62
7
100
AcDbLine
10
816.772978584739
20
1513.347553094052
30
0.0
11
872.378666569601
21
1513.347553094052
31
0.0
0
LINE
5
580
100
AcDbEntity
8
0-0
6
CONTINUOUS
62
7
100
AcDbLine
10
856.984452802439
20
1467.114963845782
30
0.0
11
831.984452802439
21
1467.114963845782
31
0.0
0
LINE
5
581
100
AcDbEntity
8
0-0
6
CONTINUOUS
62
7
100
AcDbLine
10
831.984452802439
20
1475.114963845782
30
0.0
11
856.984452802439
21
1475.114963845782
31
0.0
0
ARC
5
582
100
AcDbEntity
8
0-0
6
CONTINUOUS
62
7
100
AcDbCircle
10
844.533712549365
20
1471.075285918696
30
0.0
40
13.134414676531
100
AcDbArc
50
162.276763383113
51
197.297564485525
0
ARC
5
583
100
AcDbEntity
8
0-0
6
CONTINUOUS
62
7
100
AcDbCircle
10
844.533712549365
20
1471.075285918696
30
0.0
40
13.134414676531
100
AcDbArc
50
342.521885466274
51
378.017609214690
0
CIRCLE
5
584
100
AcDbEntity
8
0-0
6
CONTINUOUS
62
7
100
AcDbCircle
10
844.517254342072
20
1471.088003624332
30
0.0
40
3.389457447208
0
ARC
5
585
100
AcDbEntity
8
0-0
6
CONTINUOUS
62
7
100
AcDbCircle
10
857.185848229607
20
1471.091267165066
30
0.0
40
3.389457447208
100
AcDbArc
50
89.971509582607
51
269.978070214998
0
ARC
5
586
100
AcDbEntity
8
0-0
6
CONTINUOUS
62
7
100
AcDbCircle
10
831.876487386830
20
1471.077502912412
30
0.0
40
3.389457447208
100
AcDbArc
50
270.339830380176
51
449.767752220994
0
LINE
5
587
100
AcDbEntity
8
0-0
6
CONTINUOUS
62
7
100
AcDbLine
10
852.524684787298
20
1501.152962748992
30
0.0
11
852.524684787298
21
1475.253385186173
31
0.0
0
LINE
5
588
100
AcDbEntity
8
0-0
6
CONTINUOUS
62
7
100
AcDbLine
10
836.524684787298
20
1501.401192129648
30
0.0
11
836.524684787298
21
1475.187505522022
31
0.0
0
ARC
5
589
100
AcDbEntity
8
0-0
6
CONTINUOUS
62
7
100
AcDbCircle
10
840.204684787298
20
1406.148794363261
30
0.0
40
3.240000000000
100
AcDbArc
50
180.000000000000
51
270.000000000000
0
ARC
5
58a
100
AcDbEntity
8
0-0
6
CONTINUOUS
62
7
100
AcDbCircle
10
848.844684787297
20
1406.148794363261
30
0.0
40
3.240000000000
100
AcDbArc
50
270.000000000000
51
360.000000000000
0
LINE
5
58b
100
AcDbEntity
8
0-0
6
CONTINUOUS
62
7
100
AcDbLine
10
840.204684787298
20
1402.908794363259
30
0.0
11
848.844684787297
21
1402.908794363259
31
0.0
0
ARC
5
58c
100
AcDbEntity
8
0-0
6
CONTINUOUS
62
7
100
AcDbCircle
10
866.415637873828
20
1412.178159562172
30
0.0
40
3.000000000000
100
AcDbArc
50
0.000000000000
51
90.000000000000
0
LINE
5
58d
100
AcDbEntity
8
0-0
6
CONTINUOUS
62
7
100
AcDbLine
10
869.415637873828
20
1409.178159562172
30
0.0
11
869.415637873828
21
1412.178159562172
31
0.0
0
ARC
5
58e
100
AcDbEntity
8
0-0
6
CONTINUOUS
62
7
100
AcDbCircle
10
866.415637873828
20
1409.178159562172
30
0.0
40
3.000000000000
100
AcDbArc
50
270.000000000000
51
360.000000000000
0
LINE
5
58f
100
AcDbEntity
8
0-0
6
CONTINUOUS
62
7
100
AcDbLine
10
822.415637873828
20
1415.178159562172
30
0.0
11
866.415637873828
21
1415.178159562172
31
0.0
0
ARC
5
590
100
AcDbEntity
8
0-0
6
CONTINUOUS
62
7
100
AcDbCircle
10
822.415637873828
20
1412.178159562172
30
0.0
40
3.000000000000
100
AcDbArc
50
90.000000000000
51
180.000000000000
0
LINE
5
591
100
AcDbEntity
8
0-0
6
CONTINUOUS
62
7
100
AcDbLine
10
819.415637873828
20
1409.178159562172
30
0.0
11
819.415637873828
21
1412.178159562172
31
0.0
0
LINE
5
592
100
AcDbEntity
8
0-0
6
CONTINUOUS
62
7
100
AcDbLine
10
822.415637873828
20
1406.178159562172
30
0.0
11
866.415637873828
21
1406.178159562172
31
0.0
0
ARC
5
593
100
AcDbEntity
8
0-0
6
CONTINUOUS
62
7
100
AcDbCircle
10
822.415637873828
20
1409.178159562172
30
0.0
40
3.000000000000
100
AcDbArc
50
180.000000000000
51
270.000000000000
0
ARC
5
594
100
AcDbEntity
8
0-0
6
CONTINUOUS
62
7
100
AcDbCircle
10
844.533712549365
20
1433.782820135566
30
0.0
40
13.134414676531
100
AcDbArc
50
162.276763383113
51
197.297564485525
0
ARC
5
595
100
AcDbEntity
8
0-0
6
CONTINUOUS
62
7
100
AcDbCircle
10
844.533712549365
20
1433.782820135566
30
0.0
40
13.134414676531
100
AcDbArc
50
342.521885466274
51
378.017609214690
0
CIRCLE
5
596
100
AcDbEntity
8
0-0
6
CONTINUOUS
62
7
100
AcDbCircle
10
844.517254342071
20
1433.795537841202
30
0.0
40
3.389457447208
0
ARC
5
597
100
AcDbEntity
8
0-0
6
CONTINUOUS
62
7
100
AcDbCircle
10
857.185848229607
20
1433.798801381936
30
0.0
40
3.389457447208
100
AcDbArc
50
89.971509582607
51
269.978070214998
0
ARC
5
598
100
AcDbEntity
8
0-0
6
CONTINUOUS
62
7
100
AcDbCircle
10
831.876487386829
20
1433.785037129282
30
0.0
40
3.389457447208
100
AcDbArc
50
270.339830380176
51
449.767752220994
0
LINE
5
599
100
AcDbEntity
8
0-0
6
CONTINUOUS
62
7
100
AcDbLine
10
856.881866352825
20
1430.096114270132
30
0.0
11
832.013990754441
21
1430.096114270132
31
0.0
0
POLYLINE
5
59a
100
AcDbEntity
8
0-0
6
CONTINUOUS
62
  7
100
AcDb2dPolyline
66
1
10
0.0
20
0.0
30
0.0
70
0
0
VERTEX
5
59b
100
AcDbEntity
8
0-0
6
CONTINUOUS
62
  7
100
AcDbVertex
100
AcDb2dVertex
10
857.053499574790
20
1430.099867468975
30
0.0
0
VERTEX
5
59c
100
AcDbEntity
8
0-0
6
CONTINUOUS
62
  7
100
AcDbVertex
100
AcDb2dVertex
10
856.581430480691
20
1429.824719697170
30
0.0
0
VERTEX
5
59d
100
AcDbEntity
8
0-0
6
CONTINUOUS
62
  7
100
AcDbVertex
100
AcDb2dVertex
10
855.769525375512
20
1429.347580449726
30
0.0
0
VERTEX
5
59e
100
AcDbEntity
8
0-0
6
CONTINUOUS
62
  7
100
AcDbVertex
100
AcDb2dVertex
10
854.963195620403
20
1428.862811931627
30
0.0
0
VERTEX
5
59f
100
AcDbEntity
8
0-0
6
CONTINUOUS
62
  7
100
AcDbVertex
100
AcDb2dVertex
10
854.165969917937
20
1428.365585490560
30
0.0
0
VERTEX
5
5a0
100
AcDbEntity
8
0-0
6
CONTINUOUS
62
  7
100
AcDbVertex
100
AcDb2dVertex
10
853.381376970691
20
1427.851072474213
30
0.0
0
VERTEX
5
5a1
100
AcDbEntity
8
0-0
6
CONTINUOUS
62
  7
100
AcDbVertex
100
AcDb2dVertex
10
852.612945481240
20
1427.314444230271
30
0.0
0
VERTEX
5
5a2
100
AcDbEntity
8
0-0
6
CONTINUOUS
62
  7
100
AcDbVertex
100
AcDb2dVertex
10
852.176050889628
20
1426.991163911400
30
0.0
0
VERTEX
5
5a3
100
AcDbEntity
8
0-0
6
CONTINUOUS
62
  7
100
AcDbVertex
100
AcDb2dVertex
10
851.926322824233
20
1426.799551257802
30
0.0
0
VERTEX
5
5a4
100
AcDbEntity
8
0-0
6
CONTINUOUS
62
  7
100
AcDbVertex
100
AcDb2dVertex
10
851.500841262369
20
1426.462227609841
30
0.0
0
VERTEX
5
5a5
100
AcDbEntity
8
0-0
6
CONTINUOUS
62
  7
100
AcDbVertex
100
AcDb2dVertex
10
851.080777848314
20
1426.117489805715
30
0.0
0
VERTEX
5
5a6
100
AcDbEntity
8
0-0
6
CONTINUOUS
62
  7
100
AcDbVertex
100
AcDb2dVertex
10
850.664949580363
20
1425.766956656815
30
0.0
0
VERTEX
5
5a7
100
AcDbEntity
8
0-0
6
CONTINUOUS
62
  7
100
AcDbVertex
100
AcDb2dVertex
10
850.252173456810
20
1425.412246974531
30
0.0
0
VERTEX
5
5a8
100
AcDbEntity
8
0-0
6
CONTINUOUS
62
  7
100
AcDbVertex
100
AcDb2dVertex
10
849.841266475951
20
1425.054979570251
30
0.0
0
VERTEX
5
5a9
100
AcDbEntity
8
0-0
6
CONTINUOUS
62
  7
100
AcDbVertex
100
AcDb2dVertex
10
849.603330704048
20
1424.847230423417
30
0.0
0
SEQEND
5
5aa
100
AcDbEntity
8
0-0
0
LINE
5
5ab
100
AcDbEntity
8
0-0
6
CONTINUOUS
62
7
100
AcDbLine
10
839.524684787298
20
1424.817145547435
30
0.0
11
849.524684787298
21
1424.817145547435
31
0.0
0
POLYLINE
5
5ac
100
AcDbEntity
8
0-0
6
CONTINUOUS
62
  7
100
AcDb2dPolyline
66
1
10
0.0
20
0.0
30
0.0
70
0
0
VERTEX
5
5ad
100
AcDbEntity
8
0-0
6
CONTINUOUS
62
  7
100
AcDbVertex
100
AcDb2dVertex
10
831.915879428186
20
1430.046269131776
30
0.0
0
VERTEX
5
5ae
100
AcDbEntity
8
0-0
6
CONTINUOUS
62
  7
100
AcDbVertex
100
AcDb2dVertex
10
832.407444970605
20
1429.787582220622
30
0.0
0
VERTEX
5
5af
100
AcDbEntity
8
0-0
6
CONTINUOUS
62
  7
100
AcDbVertex
100
AcDb2dVertex
10
833.252283021980
20
1429.337827515621
30
0.0
0
VERTEX
5
5b0
100
AcDbEntity
8
0-0
6
CONTINUOUS
62
  7
100
AcDbVertex
100
AcDb2dVertex
10
834.089652334747
20
1428.877676173898
30
0.0
0
VERTEX
5
5b1
100
AcDbEntity
8
0-0
6
CONTINUOUS
62
  7
100
AcDbVertex
100
AcDb2dVertex
10
834.914825859154
20
1428.400548045631
30
0.0
0
VERTEX
5
5b2
100
AcDbEntity
8
0-0
6
CONTINUOUS
62
  7
100
AcDbVertex
100
AcDb2dVertex
10
835.723076545451
20
1427.899862980996
30
0.0
0
VERTEX
5
5b3
100
AcDbEntity
8
0-0
6
CONTINUOUS
62
  7
100
AcDbVertex
100
AcDb2dVertex
10
836.509677343883
20
1427.369040830170
30
0.0
0
VERTEX
5
5b4
100
AcDbEntity
8
0-0
6
CONTINUOUS
62
  7
100
AcDbVertex
100
AcDb2dVertex
10
836.954123124946
20
1427.044762248599
30
0.0
0
VERTEX
5
5b5
100
AcDbEntity
8
0-0
6
CONTINUOUS
62
  7
100
AcDbVertex
100
AcDb2dVertex
10
837.211820360958
20
1426.847301686484
30
0.0
0
VERTEX
5
5b6
100
AcDbEntity
8
0-0
6
CONTINUOUS
62
  7
100
AcDbVertex
100
AcDb2dVertex
10
837.649058462346
20
1426.497014367778
30
0.0
0
VERTEX
5
5b7
100
AcDbEntity
8
0-0
6
CONTINUOUS
62
  7
100
AcDbVertex
100
AcDb2dVertex
10
838.078764674078
20
1426.136242504803
30
0.0
0
VERTEX
5
5b8
100
AcDbEntity
8
0-0
6
CONTINUOUS
62
  7
100
AcDbVertex
100
AcDb2dVertex
10
838.502583513547
20
1425.767275299365
30
0.0
0
VERTEX
5
5b9
100
AcDbEntity
8
0-0
6
CONTINUOUS
62
  7
100
AcDbVertex
100
AcDb2dVertex
10
838.922159498145
20
1425.392401953268
30
0.0
0
VERTEX
5
5ba
100
AcDbEntity
8
0-0
6
CONTINUOUS
62
  7
100
AcDbVertex
100
AcDb2dVertex
10
839.339137145264
20
1425.013911668320
30
0.0
0
VERTEX
5
5bb
100
AcDbEntity
8
0-0
6
CONTINUOUS
62
  7
100
AcDbVertex
100
AcDb2dVertex
10
839.580441647726
20
1424.793632086217
30
0.0
0
SEQEND
5
5bc
100
AcDbEntity
8
0-0
0
LINE
5
5bd
100
AcDbEntity
8
0-0
6
CONTINUOUS
62
7
100
AcDbLine
10
848.524684787298
20
1424.839019300844
30
0.0
11
848.524684787298
21
1415.105925824683
31
0.0
0
LINE
5
5be
100
AcDbEntity
8
0-0
6
CONTINUOUS
62
7
100
AcDbLine
10
840.524684787297
20
1424.906277453214
30
0.0
11
840.524684787297
21
1415.105925824683
31
0.0
0
LINE
5
5bf
100
AcDbEntity
8
0-0
6
CONTINUOUS
62
7
100
AcDbLine
10
832.133415097990
20
1467.027962750580
30
0.0
11
832.133415097990
21
1437.834518344690
31
0.0
0
LINE
5
5c0
100
AcDbEntity
8
0-0
6
CONTINUOUS
62
7
100
AcDbLine
10
850.046663005339
20
1443.860739682932
30
0.0
11
850.239453249406
21
1444.194662180861
31
0.0
0
POLYLINE
5
5c1
100
AcDbEntity
8
0-0
6
CONTINUOUS
62
  7
100
AcDb2dPolyline
66
1
10
0.0
20
0.0
30
0.0
70
0
0
VERTEX
5
5c2
100
AcDbEntity
8
0-0
6
CONTINUOUS
62
  7
100
AcDbVertex
100
AcDb2dVertex
10
846.664728238513
20
1460.817932916848
30
0.0
0
VERTEX
5
5c3
100
AcDbEntity
8
0-0
6
CONTINUOUS
62
  7
100
AcDbVertex
100
AcDb2dVertex
10
851.071289294058
20
1460.317303679504
30
0.0
0
VERTEX
5
5c4
100
AcDbEntity
8
0-0
6
CONTINUOUS
62
  7
100
AcDbVertex
100
AcDb2dVertex
10
858.669458844968
20
1459.470040024705
30
0.0
0
VERTEX
5
5c5
100
AcDbEntity
8
0-0
6
CONTINUOUS
62
  7
100
AcDbVertex
100
AcDb2dVertex
10
866.269435311506
20
1458.666915821829
30
0.0
0
VERTEX
5
5c6
100
AcDbEntity
8
0-0
6
CONTINUOUS
62
  7
100
AcDbVertex
100
AcDb2dVertex
10
871.391944863358
20
1458.174368365360
30
0.0
0
SEQEND
5
5c7
100
AcDbEntity
8
0-0
0
POLYLINE
5
5c8
100
AcDbEntity
8
0-0
6
CONTINUOUS
62
  7
100
AcDb2dPolyline
66
1
10
0.0
20
0.0
30
0.0
70
0
0
VERTEX
5
5c9
100
AcDbEntity
8
0-0
6
CONTINUOUS
62
  7
100
AcDbVertex
100
AcDb2dVertex
10
846.377891870525
20
1444.833011795731
30
0.0
0
VERTEX
5
5ca
100
AcDbEntity
8
0-0
6
CONTINUOUS
62
  7
100
AcDbVertex
100
AcDb2dVertex
10
850.784452926071
20
1444.332382558387
30
0.0
0
VERTEX
5
5cb
100
AcDbEntity
8
0-0
6
CONTINUOUS
62
  7
100
AcDbVertex
100
AcDb2dVertex
10
858.382622476981
20
1443.485118903588
30
0.0
0
VERTEX
5
5cc
100
AcDbEntity
8
0-0
6
CONTINUOUS
62
  7
100
AcDbVertex
100
AcDb2dVertex
10
865.982598943519
20
1442.681994700713
30
0.0
0
VERTEX
5
5cd
100
AcDbEntity
8
0-0
6
CONTINUOUS
62
  7
100
AcDbVertex
100
AcDb2dVertex
10
872.538470390145
20
1442.051624415740
30
0.0
0
SEQEND
5
5ce
100
AcDbEntity
8
0-0
0
LINE
5
5cf
100
AcDbEntity
8
0-0
6
CONTINUOUS
62
7
100
AcDbLine
10
974.519411442077
20
1512.281815216781
30
0.0
11
1214.519411442077
21
1512.281815216781
31
0.0
0
LINE
5
5d0
100
AcDbEntity
8
0-0
6
CONTINUOUS
62
7
100
AcDbLine
10
964.519411442077
20
1502.281815216781
30
0.0
11
964.519411442077
21
1455.587815216781
31
0.0
0
LINE
5
5d1
100
AcDbEntity
8
0-0
6
CONTINUOUS
62
7
100
AcDbLine
10
1224.519411442077
20
1502.281815216781
30
0.0
11
1224.519411442077
21
1455.587815216781
31
0.0
0
LINE
5
5d2
100
AcDbEntity
8
0-0
6
CONTINUOUS
62
7
100
AcDbLine
10
1020.519411442078
20
1237.281815216781
30
0.0
11
1168.519411442077
21
1237.281815216781
31
0.0
0
LINE
5
5d3
100
AcDbEntity
8
0-0
6
CONTINUOUS
62
7
100
AcDbLine
10
1024.519411442077
20
1227.281815216781
30
0.0
11
1164.519411442077
21
1227.281815216781
31
0.0
0
LINE
5
5d4
100
AcDbEntity
8
0-0
6
CONTINUOUS
62
7
100
AcDbLine
10
1007.070411442077
20
1222.281815216781
30
0.0
11
1019.519411442077
21
1222.281815216781
31
0.0
0
LINE
5
5d5
100
AcDbEntity
8
0-0
6
CONTINUOUS
62
7
100
AcDbLine
10
1169.519411442077
20
1222.281815216781
30
0.0
11
1181.968411442078
21
1222.282815216780
31
0.0
0
LINE
5
5d6
100
AcDbEntity
8
0-0
6
CONTINUOUS
62
7
100
AcDbLine
10
1044.519411442077
20
1227.281815216781
30
0.0
11
1044.519411442077
21
1237.281815216781
31
0.0
0
LINE
5
5d7
100
AcDbEntity
8
0-0
6
CONTINUOUS
62
7
100
AcDbLine
10
1059.519411442077
20
1227.281815216781
30
0.0
11
1059.519411442077
21
1237.281815216781
31
0.0
0
LINE
5
5d8
100
AcDbEntity
8
0-0
6
CONTINUOUS
62
7
100
AcDbLine
10
1129.519411442077
20
1227.281815216781
30
0.0
11
1129.519411442077
21
1237.281815216781
31
0.0
0
LINE
5
5d9
100
AcDbEntity
8
0-0
6
CONTINUOUS
62
7
100
AcDbLine
10
1144.519411442077
20
1227.281815216781
30
0.0
11
1144.519411442077
21
1237.281815216781
31
0.0
0
ELLIPSE
  5
5da
100
AcDbEntity
8
0-0
6
CONTINUOUS
62
7
100
AcDbEllipse
10
1094.519411442077
20
1404.781815216781
30
0.0
11
165.000000000000
21
0.000000000000
31
0.0
210
0.0
220
0.0
230
1.0
40
0.500000000000
41
0.000000000000
42
6.283185307180
0
ARC
5
5db
100
AcDbEntity
8
0-0
6
CONTINUOUS
62
7
100
AcDbCircle
10
974.519411442077
20
1502.281815216781
30
0.0
40
10.000000000000
100
AcDbArc
50
90.000000000000
51
180.000000000000
0
ARC
5
5dc
100
AcDbEntity
8
0-0
6
CONTINUOUS
62
7
100
AcDbCircle
10
1214.519411442077
20
1502.281815216781
30
0.0
40
10.000000000000
100
AcDbArc
50
0.000000000000
51
90.000000000000
0
CIRCLE
5
5dd
100
AcDbEntity
8
0-0
6
CONTINUOUS
62
7
100
AcDbCircle
10
1094.519411442077
20
1417.281815216781
30
0.0
40
25.000000000000
0
CIRCLE
5
5de
100
AcDbEntity
8
0-0
6
CONTINUOUS
62
7
100
AcDbCircle
10
1094.519411442077
20
1417.281815216781
30
0.0
40
15.000000000000
0
ARC
5
5df
100
AcDbEntity
8
0-0
6
CONTINUOUS
62
7
100
AcDbCircle
10
944.312411442077
20
1226.401815216781
30
0.0
40
75.319000000000
100
AcDbArc
50
315.261000000000
51
356.864000000000
0
ARC
5
5e0
100
AcDbEntity
8
0-0
6
CONTINUOUS
62
7
100
AcDbCircle
10
1244.725411442078
20
1226.401815216781
30
0.0
40
75.319000000000
100
AcDbArc
50
183.136000000000
51
224.739000000000
0
ARC
5
5e1
100
AcDbEntity
8
0-0
6
CONTINUOUS
62
7
100
AcDbCircle
10
1024.519411442077
20
1222.281815216781
30
0.0
40
5.000000000000
100
AcDbArc
50
90.000000000000
51
180.000000000000
0
ARC
5
5e2
100
AcDbEntity
8
0-0
6
CONTINUOUS
62
7
100
AcDbCircle
10
1164.519411442077
20
1222.281815216781
30
0.0
40
5.000000000000
100
AcDbArc
50
0.000000000000
51
90.000000000000
0
ARC
5
5e3
100
AcDbEntity
8
0-0
6
CONTINUOUS
62
7
100
AcDbCircle
10
1177.019411442077
20
1217.281815216781
30
0.0
40
5.000000000000
100
AcDbArc
50
0.000000000000
51
90.000000000000
0
ARC
5
5e4
100
AcDbEntity
8
0-0
6
CONTINUOUS
62
7
100
AcDbCircle
10
1020.519411442078
20
1231.281815216780
30
0.0
40
6.000000000000
100
AcDbArc
50
90.000000000000
51
270.000000000000
0
ARC
5
5e5
100
AcDbEntity
8
0-0
6
CONTINUOUS
62
7
100
AcDbCircle
10
1168.519411442077
20
1231.281815216780
30
0.0
40
6.000000000000
100
AcDbArc
50
270.000000000000
51
450.000000000000
0
ELLIPSE
  5
5e6
100
AcDbEntity
8
0-0
6
CONTINUOUS
62
7
100
AcDbEllipse
10
1094.519411442077
20
1068.130815216781
30
0.0
11
0.000000000000
21
-150.849000000000
31
0.0
210
0.0
220
0.0
230
1.0
40
0.894934000000
41
0.759761706079
42
7.041875691922
0
ELLIPSE
  5
5e7
100
AcDbEntity
8
0-0
6
CONTINUOUS
62
7
100
AcDbEllipse
10
1094.519411442077
20
1408.692394714171
30
0.0
11
165.000000000000
21
0.000000000000
31
0.0
210
0.0
220
0.0
230
1.0
40
0.590909000000
41
3.141592653580
42
6.283185307159
0
ARC
5
5e8
100
AcDbEntity
8
0-0
6
CONTINUOUS
62
7
100
AcDbCircle
10
1020.769411442077
20
1256.818033613866
30
0.0
40
13.750000000000
100
AcDbArc
50
354.784000000000
51
545.216000000000
0
ARC
5
5e9
100
AcDbEntity
8
0-0
6
CONTINUOUS
62
7
100
AcDbCircle
10
1168.269411442077
20
1256.818033613866
30
0.0
40
13.750000000000
100
AcDbArc
50
354.784000000000
51
545.216000000000
0
LINE
5
5ea
100
AcDbEntity
8
0-0
6
CONTINUOUS
62
7
100
AcDbLine
10
1034.519411442077
20
1227.281815216781
30
0.0
11
1034.519411442077
21
1255.496928264418
31
0.0
0
LINE
5
5eb
100
AcDbEntity
8
0-0
6
CONTINUOUS
62
7
100
AcDbLine
10
1007.070411442077
20
1222.281815216781
30
0.0
11
1007.074576082125
21
1255.598935588876
31
0.0
0
LINE
5
5ec
100
AcDbEntity
8
0-0
6
CONTINUOUS
62
7
100
AcDbLine
10
1181.968411442078
20
1222.282815216780
30
0.0
11
1181.963416669922
21
1255.580463794860
31
0.0
0
LINE
5
5ed
100
AcDbEntity
8
0-0
6
CONTINUOUS
62
7
100
AcDbLine
10
1154.519411442077
20
1227.281815216781
30
0.0
11
1154.519411442077
21
1255.580520987894
31
0.0
0
ELLIPSE
  5
5ee
100
AcDbEntity
8
0-0
6
CONTINUOUS
62
7
100
AcDbEllipse
10
1094.519411442077
20
1082.862809291916
30
0.0
11
0.000000000000
21
-172.500000000000
31
0.0
210
0.0
220
0.0
230
1.0
40
0.898551000000
41
0.556185684313
42
2.368828926491
0
ELLIPSE
  5
5ef
100
AcDbEntity
8
0-0
6
CONTINUOUS
62
7
100
AcDbEllipse
10
1094.519411442077
20
1082.862809291916
30
0.0
11
0.000000000000
21
-172.500000000000
31
0.0
210
0.0
220
0.0
230
1.0
40
0.898551000000
41
3.916643237471
42
6.838256963098
0
ELLIPSE
  5
5f0
100
AcDbEntity
8
0-0
6
CONTINUOUS
62
7
100
AcDbEllipse
10
1094.519411442077
20
1076.211809291916
30
0.0
11
0.000000000000
21
-160.849000000000
31
0.0
210
0.0
220
0.0
230
1.0
40
0.901466000000
41
5.489702077326
42
8.734472456364
0
ELLIPSE
  5
5f1
100
AcDbEntity
8
0-0
6
CONTINUOUS
62
7
100
AcDbEllipse
10
1094.519411442077
20
1076.211809291916
30
0.0
11
0.000000000000
21
-160.849000000000
31
0.0
210
0.0
220
0.0
230
1.0
40
0.901466000000
41
3.834092733997
42
5.489242576134
0
POLYLINE
5
5f2
100
AcDbEntity
8
0-0
6
CONTINUOUS
62
  7
100
AcDb2dPolyline
66
1
10
0.0
20
0.0
30
0.0
70
0
0
VERTEX
5
5f3
100
AcDbEntity
8
0-0
6
CONTINUOUS
62
  7
100
AcDbVertex
100
AcDb2dVertex
10
986.100539142023
20
1205.970126807292
30
0.0
0
VERTEX
5
5f4
100
AcDbEntity
8
0-0
6
CONTINUOUS
62
  7
100
AcDbVertex
100
AcDb2dVertex
10
986.233201329924
20
1206.271805029520
30
0.0
0
VERTEX
5
5f5
100
AcDbEntity
8
0-0
6
CONTINUOUS
62
  7
100
AcDbVertex
100
AcDb2dVertex
10
986.461096635405
20
1206.792249655894
30
0.0
0
VERTEX
5
5f6
100
AcDbEntity
8
0-0
6
CONTINUOUS
62
  7
100
AcDbVertex
100
AcDb2dVertex
10
986.686679150069
20
1207.313554728002
30
0.0
0
VERTEX
5
5f7
100
AcDbEntity
8
0-0
6
CONTINUOUS
62
  7
100
AcDbVertex
100
AcDb2dVertex
10
986.908485082261
20
1207.836264831751
30
0.0
0
VERTEX
5
5f8
100
AcDbEntity
8
0-0
6
CONTINUOUS
62
  7
100
AcDbVertex
100
AcDb2dVertex
10
987.125050640327
20
1208.360924553051
30
0.0
0
VERTEX
5
5f9
100
AcDbEntity
8
0-0
6
CONTINUOUS
62
  7
100
AcDbVertex
100
AcDb2dVertex
10
987.334912032608
20
1208.888078477807
30
0.0
0
VERTEX
5
5fa
100
AcDbEntity
8
0-0
6
CONTINUOUS
62
  7
100
AcDbVertex
100
AcDb2dVertex
10
987.452982981340
20
1209.195185193356
30
0.0
0
VERTEX
5
5fb
100
AcDbEntity
8
0-0
6
CONTINUOUS
62
  7
100
AcDbVertex
100
AcDb2dVertex
10
987.701698304161
20
1209.872916976768
30
0.0
0
VERTEX
5
5fc
100
AcDbEntity
8
0-0
6
CONTINUOUS
62
  7
100
AcDbVertex
100
AcDb2dVertex
10
988.098948588018
20
1211.052867277974
30
0.0
0
VERTEX
5
5fd
100
AcDbEntity
8
0-0
6
CONTINUOUS
62
  7
100
AcDbVertex
100
AcDb2dVertex
10
988.460365791605
20
1212.245321826715
30
0.0
0
VERTEX
5
5fe
100
AcDbEntity
8
0-0
6
CONTINUOUS
62
  7
100
AcDbVertex
100
AcDb2dVertex
10
988.790749892605
20
1213.447971422513
30
0.0
0
VERTEX
5
5ff
100
AcDbEntity
8
0-0
6
CONTINUOUS
62
  7
100
AcDbVertex
100
AcDb2dVertex
10
989.094900868698
20
1214.658506864889
30
0.0
0
VERTEX
5
600
100
AcDbEntity
8
0-0
6
CONTINUOUS
62
  7
100
AcDbVertex
100
AcDb2dVertex
10
989.377618697567
20
1215.874618953364
30
0.0
0
VERTEX
5
601
100
AcDbEntity
8
0-0
6
CONTINUOUS
62
  7
100
AcDbVertex
100
AcDb2dVertex
10
989.533665811057
20
1216.581609238856
30
0.0
0
VERTEX
5
602
100
AcDbEntity
8
0-0
6
CONTINUOUS
62
  7
100
AcDbVertex
100
AcDb2dVertex
10
989.759192273873
20
1217.645107600668
30
0.0
0
VERTEX
5
603
100
AcDbEntity
8
0-0
6
CONTINUOUS
62
  7
100
AcDbVertex
100
AcDb2dVertex
10
990.124659834190
20
1219.482067921094
30
0.0
0
VERTEX
5
604
100
AcDbEntity
8
0-0
6
CONTINUOUS
62
  7
100
AcDbVertex
100
AcDb2dVertex
10
990.462545623569
20
1221.323114552733
30
0.0
0
VERTEX
5
605
100
AcDbEntity
8
0-0
6
CONTINUOUS
62
  7
100
AcDbVertex
100
AcDb2dVertex
10
990.775177533729
20
1223.168079303983
30
0.0
0
VERTEX
5
606
100
AcDbEntity
8
0-0
6
CONTINUOUS
62
  7
100
AcDbVertex
100
AcDb2dVertex
10
991.064883456390
20
1225.016793983242
30
0.0
0
VERTEX
5
607
100
AcDbEntity
8
0-0
6
CONTINUOUS
62
  7
100
AcDbVertex
100
AcDb2dVertex
10
991.333991283273
20
1226.869090398906
30
0.0
0
VERTEX
5
608
100
AcDbEntity
8
0-0
6
CONTINUOUS
62
  7
100
AcDbVertex
100
AcDb2dVertex
10
991.481553085767
20
1227.944997195375
30
0.0
0
VERTEX
5
609
100
AcDbEntity
8
0-0
6
CONTINUOUS
62
  7
100
AcDbVertex
100
AcDb2dVertex
10
991.551225982483
20
1228.469000100447
30
0.0
0
VERTEX
5
60a
100
AcDbEntity
8
0-0
6
CONTINUOUS
62
  7
100
AcDbVertex
100
AcDb2dVertex
10
991.667427259344
20
1229.373039304125
30
0.0
0
VERTEX
5
60b
100
AcDbEntity
8
0-0
6
CONTINUOUS
62
  7
100
AcDbVertex
100
AcDb2dVertex
10
991.777513869302
20
1230.277768007638
30
0.0
0
VERTEX
5
60c
100
AcDbEntity
8
0-0
6
CONTINUOUS
62
  7
100
AcDbVertex
100
AcDb2dVertex
10
991.880152018248
20
1231.183125548337
30
0.0
0
VERTEX
5
60d
100
AcDbEntity
8
0-0
6
CONTINUOUS
62
  7
100
AcDbVertex
100
AcDb2dVertex
10
991.974007912070
20
1232.089051263573
30
0.0
0
VERTEX
5
60e
100
AcDbEntity
8
0-0
6
CONTINUOUS
62
  7
100
AcDbVertex
100
AcDb2dVertex
10
992.057747756656
20
1232.995484490699
30
0.0
0
VERTEX
5
60f
100
AcDbEntity
8
0-0
6
CONTINUOUS
62
  7
100
AcDbVertex
100
AcDb2dVertex
10
992.101156108519
20
1233.521424400142
30
0.0
0
VERTEX
5
610
100
AcDbEntity
8
0-0
6
CONTINUOUS
62
  7
100
AcDbVertex
100
AcDb2dVertex
10
992.233412485031
20
1235.586854405362
30
0.0
0
VERTEX
5
611
100
AcDbEntity
8
0-0
6
CONTINUOUS
62
  7
100
AcDbVertex
100
AcDb2dVertex
10
992.338275400370
20
1239.152573722762
30
0.0
0
VERTEX
5
612
100
AcDbEntity
8
0-0
6
CONTINUOUS
62
  7
100
AcDbVertex
100
AcDb2dVertex
10
992.325892550943
20
1242.723589184579
30
0.0
0
VERTEX
5
613
100
AcDbEntity
8
0-0
6
CONTINUOUS
62
  7
100
AcDbVertex
100
AcDb2dVertex
10
992.241217080494
20
1246.299239696592
30
0.0
0
VERTEX
5
614
100
AcDbEntity
8
0-0
6
CONTINUOUS
62
  7
100
AcDbVertex
100
AcDb2dVertex
10
992.129202132769
20
1249.878864164579
30
0.0
0
VERTEX
5
615
100
AcDbEntity
8
0-0
6
CONTINUOUS
62
  7
100
AcDbVertex
100
AcDb2dVertex
10
992.034800851512
20
1253.461801494317
30
0.0
0
VERTEX
5
616
100
AcDbEntity
8
0-0
6
CONTINUOUS
62
  7
100
AcDbVertex
100
AcDb2dVertex
10
992.005832566556
20
1255.541162593320
30
0.0
0
VERTEX
5
617
100
AcDbEntity
8
0-0
6
CONTINUOUS
62
  7
100
AcDbVertex
100
AcDb2dVertex
10
992.006421694247
20
1258.017616794115
30
0.0
0
VERTEX
5
618
100
AcDbEntity
8
0-0
6
CONTINUOUS
62
  7
100
AcDbVertex
100
AcDb2dVertex
10
992.070576943095
20
1262.287799763010
30
0.0
0
VERTEX
5
619
100
AcDbEntity
8
0-0
6
CONTINUOUS
62
  7
100
AcDbVertex
100
AcDb2dVertex
10
992.160054908583
20
1266.555349016662
30
0.0
0
VERTEX
5
61a
100
AcDbEntity
8
0-0
6
CONTINUOUS
62
  7
100
AcDbVertex
100
AcDb2dVertex
10
992.211366386558
20
1270.816562786050
30
0.0
0
VERTEX
5
61b
100
AcDbEntity
8
0-0
6
CONTINUOUS
62
  7
100
AcDbVertex
100
AcDb2dVertex
10
992.161022172861
20
1275.067739302149
30
0.0
0
VERTEX
5
61c
100
AcDbEntity
8
0-0
6
CONTINUOUS
62
  7
100
AcDbVertex
100
AcDb2dVertex
10
991.945533063338
20
1279.305176795934
30
0.0
0
VERTEX
5
61d
100
AcDbEntity
8
0-0
6
CONTINUOUS
62
  7
100
AcDbVertex
100
AcDb2dVertex
10
991.719861940672
20
1281.755136632818
30
0.0
0
VERTEX
5
61e
100
AcDbEntity
8
0-0
6
CONTINUOUS
62
  7
100
AcDbVertex
100
AcDb2dVertex
10
991.610940695491
20
1282.690836222349
30
0.0
0
VERTEX
5
61f
100
AcDbEntity
8
0-0
6
CONTINUOUS
62
  7
100
AcDbVertex
100
AcDb2dVertex
10
991.396858015618
20
1284.302216649051
30
0.0
0
VERTEX
5
620
100
AcDbEntity
8
0-0
6
CONTINUOUS
62
  7
100
AcDbVertex
100
AcDb2dVertex
10
991.156170997854
20
1285.911758946779
30
0.0
0
VERTEX
5
621
100
AcDbEntity
8
0-0
6
CONTINUOUS
62
  7
100
AcDbVertex
100
AcDb2dVertex
10
990.896636490341
20
1287.520114581194
30
0.0
0
VERTEX
5
622
100
AcDbEntity
8
0-0
6
CONTINUOUS
62
  7
100
AcDbVertex
100
AcDb2dVertex
10
990.626011341219
20
1289.127935017957
30
0.0
0
VERTEX
5
623
100
AcDbEntity
8
0-0
6
CONTINUOUS
62
  7
100
AcDbVertex
100
AcDb2dVertex
10
990.352052398628
20
1290.735871722730
30
0.0
0
VERTEX
5
624
100
AcDbEntity
8
0-0
6
CONTINUOUS
62
  7
100
AcDbVertex
100
AcDb2dVertex
10
990.194685269283
20
1291.668784996847
30
0.0
0
VERTEX
5
625
100
AcDbEntity
8
0-0
6
CONTINUOUS
62
  7
100
AcDbVertex
100
AcDb2dVertex
10
990.020669913013
20
1292.718582661688
30
0.0
0
VERTEX
5
626
100
AcDbEntity
8
0-0
6
CONTINUOUS
62
  7
100
AcDbVertex
100
AcDb2dVertex
10
989.724341017836
20
1294.528666401481
30
0.0
0
VERTEX
5
627
100
AcDbEntity
8
0-0
6
CONTINUOUS
62
  7
100
AcDbVertex
100
AcDb2dVertex
10
989.424798312273
20
1296.337262485059
30
0.0
0
VERTEX
5
628
100
AcDbEntity
8
0-0
6
CONTINUOUS
62
  7
100
AcDbVertex
100
AcDb2dVertex
10
989.112862386034
20
1298.142511898094
30
0.0
0
VERTEX
5
629
100
AcDbEntity
8
0-0
6
CONTINUOUS
62
  7
100
AcDbVertex
100
AcDb2dVertex
10
988.779353828829
20
1299.942555626256
30
0.0
0
VERTEX
5
62a
100
AcDbEntity
8
0-0
6
CONTINUOUS
62
  7
100
AcDbVertex
100
AcDb2dVertex
10
988.415093230365
20
1301.735534655215
30
0.0
0
VERTEX
5
62b
100
AcDbEntity
8
0-0
6
CONTINUOUS
62
  7
100
AcDbVertex
100
AcDb2dVertex
10
988.186114332969
20
1302.771492898522
30
0.0
0
VERTEX
5
62c
100
AcDbEntity
8
0-0
6
CONTINUOUS
62
  7
100
AcDbVertex
100
AcDb2dVertex
10
987.901647149468
20
1303.970586140690
30
0.0
0
VERTEX
5
62d
100
AcDbEntity
8
0-0
6
CONTINUOUS
62
  7
100
AcDbVertex
100
AcDb2dVertex
10
987.367191068366
20
1306.027966583644
30
0.0
0
VERTEX
5
62e
100
AcDbEntity
8
0-0
6
CONTINUOUS
62
  7
100
AcDbVertex
100
AcDb2dVertex
10
986.783443651202
20
1308.073624652895
30
0.0
0
VERTEX
5
62f
100
AcDbEntity
8
0-0
6
CONTINUOUS
62
  7
100
AcDbVertex
100
AcDb2dVertex
10
986.157845675728
20
1310.108680488995
30
0.0
0
VERTEX
5
630
100
AcDbEntity
8
0-0
6
CONTINUOUS
62
  7
100
AcDbVertex
100
AcDb2dVertex
10
985.497837919698
20
1312.134254232498
30
0.0
0
VERTEX
5
631
100
AcDbEntity
8
0-0
6
CONTINUOUS
62
  7
100
AcDbVertex
100
AcDb2dVertex
10
984.810861160861
20
1314.151466023954
30
0.0
0
VERTEX
5
632
100
AcDbEntity
8
0-0
6
CONTINUOUS
62
  7
100
AcDbVertex
100
AcDb2dVertex
10
984.402989497005
20
1315.318058810197
30
0.0
0
VERTEX
5
633
100
AcDbEntity
8
0-0
6
CONTINUOUS
62
  7
100
AcDbVertex
100
AcDb2dVertex
10
984.017765185831
20
1316.403772169716
30
0.0
0
VERTEX
5
634
100
AcDbEntity
8
0-0
6
CONTINUOUS
62
  7
100
AcDbVertex
100
AcDb2dVertex
10
983.341854831427
20
1318.270644492023
30
0.0
0
VERTEX
5
635
100
AcDbEntity
8
0-0
6
CONTINUOUS
62
  7
100
AcDbVertex
100
AcDb2dVertex
10
982.649157954586
20
1320.130342549944
30
0.0
0
VERTEX
5
636
100
AcDbEntity
8
0-0
6
CONTINUOUS
62
  7
100
AcDbVertex
100
AcDb2dVertex
10
981.937421324257
20
1321.981953176286
30
0.0
0
VERTEX
5
637
100
AcDbEntity
8
0-0
6
CONTINUOUS
62
  7
100
AcDbVertex
100
AcDb2dVertex
10
981.204391709388
20
1323.824563203850
30
0.0
0
VERTEX
5
638
100
AcDbEntity
8
0-0
6
CONTINUOUS
62
  7
100
AcDbVertex
100
AcDb2dVertex
10
980.447815878927
20
1325.657259465442
30
0.0
0
VERTEX
5
639
100
AcDbEntity
8
0-0
6
CONTINUOUS
62
  7
100
AcDbVertex
100
AcDb2dVertex
10
979.997325131074
20
1326.715320974238
30
0.0
0
VERTEX
5
63a
100
AcDbEntity
8
0-0
6
CONTINUOUS
62
  7
100
AcDbVertex
100
AcDb2dVertex
10
979.429826791673
20
1328.014137081776
30
0.0
0
VERTEX
5
63b
100
AcDbEntity
8
0-0
6
CONTINUOUS
62
  7
100
AcDbVertex
100
AcDb2dVertex
10
978.421523712058
20
1330.240739003015
30
0.0
0
VERTEX
5
63c
100
AcDbEntity
8
0-0
6
CONTINUOUS
62
  7
100
AcDbVertex
100
AcDb2dVertex
10
977.379459355393
20
1332.452565861166
30
0.0
0
VERTEX
5
63d
100
AcDbEntity
8
0-0
6
CONTINUOUS
62
  7
100
AcDbVertex
100
AcDb2dVertex
10
976.308323533258
20
1334.651183589946
30
0.0
0
VERTEX
5
63e
100
AcDbEntity
8
0-0
6
CONTINUOUS
62
  7
100
AcDbVertex
100
AcDb2dVertex
10
975.212806057228
20
1336.838158123070
30
0.0
0
VERTEX
5
63f
100
AcDbEntity
8
0-0
6
CONTINUOUS
62
  7
100
AcDbVertex
100
AcDb2dVertex
10
974.097596738882
20
1339.015055394255
30
0.0
0
VERTEX
5
640
100
AcDbEntity
8
0-0
6
CONTINUOUS
62
  7
100
AcDbVertex
100
AcDb2dVertex
10
973.443600561724
20
1340.273655469434
30
0.0
0
VERTEX
5
641
100
AcDbEntity
8
0-0
6
CONTINUOUS
62
  7
100
AcDbVertex
100
AcDb2dVertex
10
973.280181419682
20
1340.586443305616
30
0.0
0
VERTEX
5
642
100
AcDbEntity
8
0-0
6
CONTINUOUS
62
  7
100
AcDbVertex
100
AcDb2dVertex
10
972.997893677776
20
1341.125404212220
30
0.0
0
VERTEX
5
643
100
AcDbEntity
8
0-0
6
CONTINUOUS
62
  7
100
AcDbVertex
100
AcDb2dVertex
10
972.715040469079
20
1341.664015068832
30
0.0
0
VERTEX
5
644
100
AcDbEntity
8
0-0
6
CONTINUOUS
62
  7
100
AcDbVertex
100
AcDb2dVertex
10
972.431745257956
20
1342.202352305579
30
0.0
0
VERTEX
5
645
100
AcDbEntity
8
0-0
6
CONTINUOUS
62
  7
100
AcDbVertex
100
AcDb2dVertex
10
972.148131508772
20
1342.740492352592
30
0.0
0
VERTEX
5
646
100
AcDbEntity
8
0-0
6
CONTINUOUS
62
  7
100
AcDbVertex
100
AcDb2dVertex
10
971.864322685892
20
1343.278511640002
30
0.0
0
VERTEX
5
647
100
AcDbEntity
8
0-0
6
CONTINUOUS
62
  7
100
AcDbVertex
100
AcDb2dVertex
10
971.699672837233
20
1343.590537612094
30
0.0
0
SEQEND
5
648
100
AcDbEntity
8
0-0
0
POLYLINE
5
649
100
AcDbEntity
8
0-0
6
CONTINUOUS
62
  7
100
AcDb2dPolyline
66
1
10
0.0
20
0.0
30
0.0
70
0
0
VERTEX
5
64a
100
AcDbEntity
8
0-0
6
CONTINUOUS
62
  7
100
AcDbVertex
100
AcDb2dVertex
10
1202.667194625654
20
1205.970126807292
30
0.0
0
VERTEX
5
64b
100
AcDbEntity
8
0-0
6
CONTINUOUS
62
  7
100
AcDbVertex
100
AcDb2dVertex
10
1202.534532437754
20
1206.271805029520
30
0.0
0
VERTEX
5
64c
100
AcDbEntity
8
0-0
6
CONTINUOUS
62
  7
100
AcDbVertex
100
AcDb2dVertex
10
1202.306637132272
20
1206.792249655894
30
0.0
0
VERTEX
5
64d
100
AcDbEntity
8
0-0
6
CONTINUOUS
62
  7
100
AcDbVertex
100
AcDb2dVertex
10
1202.081054617608
20
1207.313554728002
30
0.0
0
VERTEX
5
64e
100
AcDbEntity
8
0-0
6
CONTINUOUS
62
  7
100
AcDbVertex
100
AcDb2dVertex
10
1201.859248685416
20
1207.836264831751
30
0.0
0
VERTEX
5
64f
100
AcDbEntity
8
0-0
6
CONTINUOUS
62
  7
100
AcDbVertex
100
AcDb2dVertex
10
1201.642683127350
20
1208.360924553051
30
0.0
0
VERTEX
5
650
100
AcDbEntity
8
0-0
6
CONTINUOUS
62
  7
100
AcDbVertex
100
AcDb2dVertex
10
1201.432821735070
20
1208.888078477807
30
0.0
0
VERTEX
5
651
100
AcDbEntity
8
0-0
6
CONTINUOUS
62
  7
100
AcDbVertex
100
AcDb2dVertex
10
1201.314750786337
20
1209.195185193356
30
0.0
0
VERTEX
5
652
100
AcDbEntity
8
0-0
6
CONTINUOUS
62
  7
100
AcDbVertex
100
AcDb2dVertex
10
1201.066035463516
20
1209.872916976768
30
0.0
0
VERTEX
5
653
100
AcDbEntity
8
0-0
6
CONTINUOUS
62
  7
100
AcDbVertex
100
AcDb2dVertex
10
1200.668785179659
20
1211.052867277974
30
0.0
0
VERTEX
5
654
100
AcDbEntity
8
0-0
6
CONTINUOUS
62
  7
100
AcDbVertex
100
AcDb2dVertex
10
1200.307367976072
20
1212.245321826715
30
0.0
0
VERTEX
5
655
100
AcDbEntity
8
0-0
6
CONTINUOUS
62
  7
100
AcDbVertex
100
AcDb2dVertex
10
1199.976983875074
20
1213.447971422513
30
0.0
0
VERTEX
5
656
100
AcDbEntity
8
0-0
6
CONTINUOUS
62
  7
100
AcDbVertex
100
AcDb2dVertex
10
1199.672832898980
20
1214.658506864889
30
0.0
0
VERTEX
5
657
100
AcDbEntity
8
0-0
6
CONTINUOUS
62
  7
100
AcDbVertex
100
AcDb2dVertex
10
1199.390115070111
20
1215.874618953364
30
0.0
0
VERTEX
5
658
100
AcDbEntity
8
0-0
6
CONTINUOUS
62
  7
100
AcDbVertex
100
AcDb2dVertex
10
1199.234067956620
20
1216.581609238856
30
0.0
0
VERTEX
5
659
100
AcDbEntity
8
0-0
6
CONTINUOUS
62
  7
100
AcDbVertex
100
AcDb2dVertex
10
1199.008541493804
20
1217.645107600668
30
0.0
0
VERTEX
5
65a
100
AcDbEntity
8
0-0
6
CONTINUOUS
62
  7
100
AcDbVertex
100
AcDb2dVertex
10
1198.643073933487
20
1219.482067921094
30
0.0
0
VERTEX
5
65b
100
AcDbEntity
8
0-0
6
CONTINUOUS
62
  7
100
AcDbVertex
100
AcDb2dVertex
10
1198.305188144109
20
1221.323114552733
30
0.0
0
VERTEX
5
65c
100
AcDbEntity
8
0-0
6
CONTINUOUS
62
  7
100
AcDbVertex
100
AcDb2dVertex
10
1197.992556233949
20
1223.168079303983
30
0.0
0
VERTEX
5
65d
100
AcDbEntity
8
0-0
6
CONTINUOUS
62
  7
100
AcDbVertex
100
AcDb2dVertex
10
1197.702850311287
20
1225.016793983242
30
0.0
0
VERTEX
5
65e
100
AcDbEntity
8
0-0
6
CONTINUOUS
62
  7
100
AcDbVertex
100
AcDb2dVertex
10
1197.433742484405
20
1226.869090398906
30
0.0
0
VERTEX
5
65f
100
AcDbEntity
8
0-0
6
CONTINUOUS
62
  7
100
AcDbVertex
100
AcDb2dVertex
10
1197.286180681910
20
1227.944997195375
30
0.0
0
VERTEX
5
660
100
AcDbEntity
8
0-0
6
CONTINUOUS
62
  7
100
AcDbVertex
100
AcDb2dVertex
10
1197.216507785194
20
1228.469000100447
30
0.0
0
VERTEX
5
661
100
AcDbEntity
8
0-0
6
CONTINUOUS
62
  7
100
AcDbVertex
100
AcDb2dVertex
10
1197.100306508334
20
1229.373039304125
30
0.0
0
VERTEX
5
662
100
AcDbEntity
8
0-0
6
CONTINUOUS
62
  7
100
AcDbVertex
100
AcDb2dVertex
10
1196.990219898375
20
1230.277768007638
30
0.0
0
VERTEX
5
663
100
AcDbEntity
8
0-0
6
CONTINUOUS
62
  7
100
AcDbVertex
100
AcDb2dVertex
10
1196.887581749429
20
1231.183125548337
30
0.0
0
VERTEX
5
664
100
AcDbEntity
8
0-0
6
CONTINUOUS
62
  7
100
AcDbVertex
100
AcDb2dVertex
10
1196.793725855607
20
1232.089051263573
30
0.0
0
VERTEX
5
665
100
AcDbEntity
8
0-0
6
CONTINUOUS
62
  7
100
AcDbVertex
100
AcDb2dVertex
10
1196.709986011021
20
1232.995484490699
30
0.0
0
VERTEX
5
666
100
AcDbEntity
8
0-0
6
CONTINUOUS
62
  7
100
AcDbVertex
100
AcDb2dVertex
10
1196.666577659159
20
1233.521424400142
30
0.0
0
VERTEX
5
667
100
AcDbEntity
8
0-0
6
CONTINUOUS
62
  7
100
AcDbVertex
100
AcDb2dVertex
10
1196.534321282647
20
1235.586854405362
30
0.0
0
VERTEX
5
668
100
AcDbEntity
8
0-0
6
CONTINUOUS
62
  7
100
AcDbVertex
100
AcDb2dVertex
10
1196.429458367307
20
1239.152573722762
30
0.0
0
VERTEX
5
669
100
AcDbEntity
8
0-0
6
CONTINUOUS
62
  7
100
AcDbVertex
100
AcDb2dVertex
10
1196.441841216734
20
1242.723589184579
30
0.0
0
VERTEX
5
66a
100
AcDbEntity
8
0-0
6
CONTINUOUS
62
  7
100
AcDbVertex
100
AcDb2dVertex
10
1196.526516687183
20
1246.299239696592
30
0.0
0
VERTEX
5
66b
100
AcDbEntity
8
0-0
6
CONTINUOUS
62
  7
100
AcDbVertex
100
AcDb2dVertex
10
1196.638531634908
20
1249.878864164579
30
0.0
0
VERTEX
5
66c
100
AcDbEntity
8
0-0
6
CONTINUOUS
62
  7
100
AcDbVertex
100
AcDb2dVertex
10
1196.732932916166
20
1253.461801494317
30
0.0
0
VERTEX
5
66d
100
AcDbEntity
8
0-0
6
CONTINUOUS
62
  7
100
AcDbVertex
100
AcDb2dVertex
10
1196.761901201121
20
1255.541162593320
30
0.0
0
VERTEX
5
66e
100
AcDbEntity
8
0-0
6
CONTINUOUS
62
  7
100
AcDbVertex
100
AcDb2dVertex
10
1196.761312073430
20
1258.017616794115
30
0.0
0
VERTEX
5
66f
100
AcDbEntity
8
0-0
6
CONTINUOUS
62
  7
100
AcDbVertex
100
AcDb2dVertex
10
1196.697156824583
20
1262.287799763010
30
0.0
0
VERTEX
5
670
100
AcDbEntity
8
0-0
6
CONTINUOUS
62
  7
100
AcDbVertex
100
AcDb2dVertex
10
1196.607678859094
20
1266.555349016662
30
0.0
0
VERTEX
5
671
100
AcDbEntity
8
0-0
6
CONTINUOUS
62
  7
100
AcDbVertex
100
AcDb2dVertex
10
1196.556367381120
20
1270.816562786050
30
0.0
0
VERTEX
5
672
100
AcDbEntity
8
0-0
6
CONTINUOUS
62
  7
100
AcDbVertex
100
AcDb2dVertex
10
1196.606711594816
20
1275.067739302149
30
0.0
0
VERTEX
5
673
100
AcDbEntity
8
0-0
6
CONTINUOUS
62
  7
100
AcDbVertex
100
AcDb2dVertex
10
1196.822200704340
20
1279.305176795934
30
0.0
0
VERTEX
5
674
100
AcDbEntity
8
0-0
6
CONTINUOUS
62
  7
100
AcDbVertex
100
AcDb2dVertex
10
1197.047871827006
20
1281.755136632818
30
0.0
0
VERTEX
5
675
100
AcDbEntity
8
0-0
6
CONTINUOUS
62
  7
100
AcDbVertex
100
AcDb2dVertex
10
1197.156793072186
20
1282.690836222349
30
0.0
0
VERTEX
5
676
100
AcDbEntity
8
0-0
6
CONTINUOUS
62
  7
100
AcDbVertex
100
AcDb2dVertex
10
1197.370875752060
20
1284.302216649051
30
0.0
0
VERTEX
5
677
100
AcDbEntity
8
0-0
6
CONTINUOUS
62
  7
100
AcDbVertex
100
AcDb2dVertex
10
1197.611562769823
20
1285.911758946779
30
0.0
0
VERTEX
5
678
100
AcDbEntity
8
0-0
6
CONTINUOUS
62
  7
100
AcDbVertex
100
AcDb2dVertex
10
1197.871097277337
20
1287.520114581194
30
0.0
0
VERTEX
5
679
100
AcDbEntity
8
0-0
6
CONTINUOUS
62
  7
100
AcDbVertex
100
AcDb2dVertex
10
1198.141722426458
20
1289.127935017957
30
0.0
0
VERTEX
5
67a
100
AcDbEntity
8
0-0
6
CONTINUOUS
62
  7
100
AcDbVertex
100
AcDb2dVertex
10
1198.415681369049
20
1290.735871722730
30
0.0
0
VERTEX
5
67b
100
AcDbEntity
8
0-0
6
CONTINUOUS
62
  7
100
AcDbVertex
100
AcDb2dVertex
10
1198.573048498395
20
1291.668784996847
30
0.0
0
VERTEX
5
67c
100
AcDbEntity
8
0-0
6
CONTINUOUS
62
  7
100
AcDbVertex
100
AcDb2dVertex
10
1198.747063854664
20
1292.718582661688
30
0.0
0
VERTEX
5
67d
100
AcDbEntity
8
0-0
6
CONTINUOUS
62
  7
100
AcDbVertex
100
AcDb2dVertex
10
1199.043392749841
20
1294.528666401481
30
0.0
0
VERTEX
5
67e
100
AcDbEntity
8
0-0
6
CONTINUOUS
62
  7
100
AcDbVertex
100
AcDb2dVertex
10
1199.342935455405
20
1296.337262485059
30
0.0
0
VERTEX
5
67f
100
AcDbEntity
8
0-0
6
CONTINUOUS
62
  7
100
AcDbVertex
100
AcDb2dVertex
10
1199.654871381643
20
1298.142511898094
30
0.0
0
VERTEX
5
680
100
AcDbEntity
8
0-0
6
CONTINUOUS
62
  7
100
AcDbVertex
100
AcDb2dVertex
10
1199.988379938848
20
1299.942555626256
30
0.0
0
VERTEX
5
681
100
AcDbEntity
8
0-0
6
CONTINUOUS
62
  7
100
AcDbVertex
100
AcDb2dVertex
10
1200.352640537312
20
1301.735534655215
30
0.0
0
VERTEX
5
682
100
AcDbEntity
8
0-0
6
CONTINUOUS
62
  7
100
AcDbVertex
100
AcDb2dVertex
10
1200.581619434709
20
1302.771492898522
30
0.0
0
VERTEX
5
683
100
AcDbEntity
8
0-0
6
CONTINUOUS
62
  7
100
AcDbVertex
100
AcDb2dVertex
10
1200.866086618210
20
1303.970586140690
30
0.0
0
VERTEX
5
684
100
AcDbEntity
8
0-0
6
CONTINUOUS
62
  7
100
AcDbVertex
100
AcDb2dVertex
10
1201.400542699312
20
1306.027966583644
30
0.0
0
VERTEX
5
685
100
AcDbEntity
8
0-0
6
CONTINUOUS
62
  7
100
AcDbVertex
100
AcDb2dVertex
10
1201.984290116475
20
1308.073624652895
30
0.0
0
VERTEX
5
686
100
AcDbEntity
8
0-0
6
CONTINUOUS
62
  7
100
AcDbVertex
100
AcDb2dVertex
10
1202.609888091949
20
1310.108680488995
30
0.0
0
VERTEX
5
687
100
AcDbEntity
8
0-0
6
CONTINUOUS
62
  7
100
AcDbVertex
100
AcDb2dVertex
10
1203.269895847980
20
1312.134254232498
30
0.0
0
VERTEX
5
688
100
AcDbEntity
8
0-0
6
CONTINUOUS
62
  7
100
AcDbVertex
100
AcDb2dVertex
10
1203.956872606816
20
1314.151466023954
30
0.0
0
VERTEX
5
689
100
AcDbEntity
8
0-0
6
CONTINUOUS
62
  7
100
AcDbVertex
100
AcDb2dVertex
10
1204.364744270672
20
1315.318058810197
30
0.0
0
VERTEX
5
68a
100
AcDbEntity
8
0-0
6
CONTINUOUS
62
  7
100
AcDbVertex
100
AcDb2dVertex
10
1204.749968581848
20
1316.403772169716
30
0.0
0
VERTEX
5
68b
100
AcDbEntity
8
0-0
6
CONTINUOUS
62
  7
100
AcDbVertex
100
AcDb2dVertex
10
1205.425878936250
20
1318.270644492023
30
0.0
0
VERTEX
5
68c
100
AcDbEntity
8
0-0
6
CONTINUOUS
62
  7
100
AcDbVertex
100
AcDb2dVertex
10
1206.118575813091
20
1320.130342549944
30
0.0
0
VERTEX
5
68d
100
AcDbEntity
8
0-0
6
CONTINUOUS
62
  7
100
AcDbVertex
100
AcDb2dVertex
10
1206.830312443420
20
1321.981953176286
30
0.0
0
VERTEX
5
68e
100
AcDbEntity
8
0-0
6
CONTINUOUS
62
  7
100
AcDbVertex
100
AcDb2dVertex
10
1207.563342058289
20
1323.824563203850
30
0.0
0
VERTEX
5
68f
100
AcDbEntity
8
0-0
6
CONTINUOUS
62
  7
100
AcDbVertex
100
AcDb2dVertex
10
1208.319917888750
20
1325.657259465442
30
0.0
0
VERTEX
5
690
100
AcDbEntity
8
0-0
6
CONTINUOUS
62
  7
100
AcDbVertex
100
AcDb2dVertex
10
1208.770408636603
20
1326.715320974238
30
0.0
0
VERTEX
5
691
100
AcDbEntity
8
0-0
6
CONTINUOUS
62
  7
100
AcDbVertex
100
AcDb2dVertex
10
1209.337906976004
20
1328.014137081776
30
0.0
0
VERTEX
5
692
100
AcDbEntity
8
0-0
6
CONTINUOUS
62
  7
100
AcDbVertex
100
AcDb2dVertex
10
1210.346210055619
20
1330.240739003015
30
0.0
0
VERTEX
5
693
100
AcDbEntity
8
0-0
6
CONTINUOUS
62
  7
100
AcDbVertex
100
AcDb2dVertex
10
1211.388274412283
20
1332.452565861166
30
0.0
0
VERTEX
5
694
100
AcDbEntity
8
0-0
6
CONTINUOUS
62
  7
100
AcDbVertex
100
AcDb2dVertex
10
1212.459410234420
20
1334.651183589946
30
0.0
0
VERTEX
5
695
100
AcDbEntity
8
0-0
6
CONTINUOUS
62
  7
100
AcDbVertex
100
AcDb2dVertex
10
1213.554927710449
20
1336.838158123070
30
0.0
0
VERTEX
5
696
100
AcDbEntity
8
0-0
6
CONTINUOUS
62
  7
100
AcDbVertex
100
AcDb2dVertex
10
1214.670137028796
20
1339.015055394255
30
0.0
0
VERTEX
5
697
100
AcDbEntity
8
0-0
6
CONTINUOUS
62
  7
100
AcDbVertex
100
AcDb2dVertex
10
1215.324133205952
20
1340.273655469434
30
0.0
0
VERTEX
5
698
100
AcDbEntity
8
0-0
6
CONTINUOUS
62
  7
100
AcDbVertex
100
AcDb2dVertex
10
1215.487552347996
20
1340.586443305616
30
0.0
0
VERTEX
5
699
100
AcDbEntity
8
0-0
6
CONTINUOUS
62
  7
100
AcDbVertex
100
AcDb2dVertex
10
1215.769840089902
20
1341.125404212220
30
0.0
0
VERTEX
5
69a
100
AcDbEntity
8
0-0
6
CONTINUOUS
62
  7
100
AcDbVertex
100
AcDb2dVertex
10
1216.052693298598
20
1341.664015068832
30
0.0
0
VERTEX
5
69b
100
AcDbEntity
8
0-0
6
CONTINUOUS
62
  7
100
AcDbVertex
100
AcDb2dVertex
10
1216.335988509722
20
1342.202352305579
30
0.0
0
VERTEX
5
69c
100
AcDbEntity
8
0-0
6
CONTINUOUS
62
  7
100
AcDbVertex
100
AcDb2dVertex
10
1216.619602258906
20
1342.740492352592
30
0.0
0
VERTEX
5
69d
100
AcDbEntity
8
0-0
6
CONTINUOUS
62
  7
100
AcDbVertex
100
AcDb2dVertex
10
1216.903411081785
20
1343.278511640002
30
0.0
0
VERTEX
5
69e
100
AcDbEntity
8
0-0
6
CONTINUOUS
62
  7
100
AcDbVertex
100
AcDb2dVertex
10
1217.068060930445
20
1343.590537612094
30
0.0
0
SEQEND
5
69f
100
AcDbEntity
8
0-0
0
POLYLINE
5
6a0
100
AcDbEntity
8
0-0
6
CONTINUOUS
62
  7
100
AcDb2dPolyline
66
1
10
0.0
20
0.0
30
0.0
70
0
0
VERTEX
5
6a1
100
AcDbEntity
8
0-0
6
CONTINUOUS
62
  7
100
AcDbVertex
100
AcDb2dVertex
10
1002.031756883469
20
1200.063373380945
30
0.0
0
VERTEX
5
6a2
100
AcDbEntity
8
0-0
6
CONTINUOUS
62
  7
100
AcDbVertex
100
AcDb2dVertex
10
1002.446835828485
20
1201.132890888849
30
0.0
0
VERTEX
5
6a3
100
AcDbEntity
8
0-0
6
CONTINUOUS
62
  7
100
AcDbVertex
100
AcDb2dVertex
10
1003.155064098105
20
1202.978882568385
30
0.0
0
VERTEX
5
6a4
100
AcDbEntity
8
0-0
6
CONTINUOUS
62
  7
100
AcDbVertex
100
AcDb2dVertex
10
1003.842667134795
20
1204.830418626401
30
0.0
0
VERTEX
5
6a5
100
AcDbEntity
8
0-0
6
CONTINUOUS
62
  7
100
AcDbVertex
100
AcDb2dVertex
10
1004.496590993665
20
1206.691008163203
30
0.0
0
VERTEX
5
6a6
100
AcDbEntity
8
0-0
6
CONTINUOUS
62
  7
100
AcDbVertex
100
AcDb2dVertex
10
1005.103781729823
20
1208.564160279092
30
0.0
0
VERTEX
5
6a7
100
AcDbEntity
8
0-0
6
CONTINUOUS
62
  7
100
AcDbVertex
100
AcDb2dVertex
10
1005.651185398376
20
1210.453384074375
30
0.0
0
VERTEX
5
6a8
100
AcDbEntity
8
0-0
6
CONTINUOUS
62
  7
100
AcDbVertex
100
AcDb2dVertex
10
1005.936141158668
20
1211.557880687130
30
0.0
0
VERTEX
5
6a9
100
AcDbEntity
8
0-0
6
CONTINUOUS
62
  7
100
AcDbVertex
100
AcDb2dVertex
10
1006.059705263127
20
1212.074266290149
30
0.0
0
VERTEX
5
6aa
100
AcDbEntity
8
0-0
6
CONTINUOUS
62
  7
100
AcDbVertex
100
AcDb2dVertex
10
1006.258791314554
20
1212.968210809733
30
0.0
0
VERTEX
5
6ab
100
AcDbEntity
8
0-0
6
CONTINUOUS
62
  7
100
AcDbVertex
100
AcDb2dVertex
10
1006.439910209824
20
1213.866632565247
30
0.0
0
VERTEX
5
6ac
100
AcDbEntity
8
0-0
6
CONTINUOUS
62
  7
100
AcDbVertex
100
AcDb2dVertex
10
1006.602710837104
20
1214.769402769531
30
0.0
0
VERTEX
5
6ad
100
AcDbEntity
8
0-0
6
CONTINUOUS
62
  7
100
AcDbVertex
100
AcDb2dVertex
10
1006.746842084559
20
1215.676392635427
30
0.0
0
VERTEX
5
6ae
100
AcDbEntity
8
0-0
6
CONTINUOUS
62
  7
100
AcDbVertex
100
AcDb2dVertex
10
1006.871952840356
20
1216.587473375775
30
0.0
0
VERTEX
5
6af
100
AcDbEntity
8
0-0
6
CONTINUOUS
62
  7
100
AcDbVertex
100
AcDb2dVertex
10
1006.935663533120
20
1217.117723895013
30
0.0
0
VERTEX
5
6b0
100
AcDbEntity
8
0-0
6
CONTINUOUS
62
  7
100
AcDbVertex
100
AcDb2dVertex
10
1006.951771762160
20
1217.260602939325
30
0.0
0
VERTEX
5
6b1
100
AcDbEntity
8
0-0
6
CONTINUOUS
62
  7
100
AcDbVertex
100
AcDb2dVertex
10
1006.979944590143
20
1217.506829237695
30
0.0
0
VERTEX
5
6b2
100
AcDbEntity
8
0-0
6
CONTINUOUS
62
  7
100
AcDbVertex
100
AcDb2dVertex
10
1007.010921364488
20
1217.752394700786
30
0.0
0
VERTEX
5
6b3
100
AcDbEntity
8
0-0
6
CONTINUOUS
62
  7
100
AcDbVertex
100
AcDb2dVertex
10
1007.047373704761
20
1217.996702951805
30
0.0
0
VERTEX
5
6b4
100
AcDbEntity
8
0-0
6
CONTINUOUS
62
  7
100
AcDbVertex
100
AcDb2dVertex
10
1007.091973230525
20
1218.239157613959
30
0.0
0
VERTEX
5
6b5
100
AcDbEntity
8
0-0
6
CONTINUOUS
62
  7
100
AcDbVertex
100
AcDb2dVertex
10
1007.147391561346
20
1218.479162310455
30
0.0
0
VERTEX
5
6b6
100
AcDbEntity
8
0-0
6
CONTINUOUS
62
  7
100
AcDbVertex
100
AcDb2dVertex
10
1007.185544126732
20
1218.617007456690
30
0.0
0
VERTEX
5
6b7
100
AcDbEntity
8
0-0
6
CONTINUOUS
62
  7
100
AcDbVertex
100
AcDb2dVertex
10
1007.238481805680
20
1218.782753036742
30
0.0
0
VERTEX
5
6b8
100
AcDbEntity
8
0-0
6
CONTINUOUS
62
  7
100
AcDbVertex
100
AcDb2dVertex
10
1007.346247425785
20
1219.063833904225
30
0.0
0
VERTEX
5
6b9
100
AcDbEntity
8
0-0
6
CONTINUOUS
62
  7
100
AcDbVertex
100
AcDb2dVertex
10
1007.473367967723
20
1219.337862544239
30
0.0
0
VERTEX
5
6ba
100
AcDbEntity
8
0-0
6
CONTINUOUS
62
  7
100
AcDbVertex
100
AcDb2dVertex
10
1007.618072204525
20
1219.603537976928
30
0.0
0
VERTEX
5
6bb
100
AcDbEntity
8
0-0
6
CONTINUOUS
62
  7
100
AcDbVertex
100
AcDb2dVertex
10
1007.778588909222
20
1219.859559222436
30
0.0
0
VERTEX
5
6bc
100
AcDbEntity
8
0-0
6
CONTINUOUS
62
  7
100
AcDbVertex
100
AcDb2dVertex
10
1007.953146854849
20
1220.104625300909
30
0.0
0
VERTEX
5
6bd
100
AcDbEntity
8
0-0
6
CONTINUOUS
62
  7
100
AcDbVertex
100
AcDb2dVertex
10
1008.060126204377
20
1220.241231315172
30
0.0
0
VERTEX
5
6be
100
AcDbEntity
8
0-0
6
CONTINUOUS
62
  7
100
AcDbVertex
100
AcDb2dVertex
10
1008.144693603299
20
1220.343019677486
30
0.0
0
VERTEX
5
6bf
100
AcDbEntity
8
0-0
6
CONTINUOUS
62
  7
100
AcDbVertex
100
AcDb2dVertex
10
1008.295536284614
20
1220.513214697349
30
0.0
0
VERTEX
5
6c0
100
AcDbEntity
8
0-0
6
CONTINUOUS
62
  7
100
AcDbVertex
100
AcDb2dVertex
10
1008.452485345460
20
1220.677806246765
30
0.0
0
VERTEX
5
6c1
100
AcDbEntity
8
0-0
6
CONTINUOUS
62
  7
100
AcDbVertex
100
AcDb2dVertex
10
1008.615227595849
20
1220.838082837490
30
0.0
0
VERTEX
5
6c2
100
AcDbEntity
8
0-0
6
CONTINUOUS
62
  7
100
AcDbVertex
100
AcDb2dVertex
10
1008.783449845794
20
1220.995332981281
30
0.0
0
VERTEX
5
6c3
100
AcDbEntity
8
0-0
6
CONTINUOUS
62
  7
100
AcDbVertex
100
AcDb2dVertex
10
1008.956838905306
20
1221.150845189893
30
0.0
0
VERTEX
5
6c4
100
AcDbEntity
8
0-0
6
CONTINUOUS
62
  7
100
AcDbVertex
100
AcDb2dVertex
10
1009.059648578828
20
1221.240753689623
30
0.0
0
VERTEX
5
6c5
100
AcDbEntity
8
0-0
6
CONTINUOUS
62
  7
100
AcDbVertex
100
AcDb2dVertex
10
1009.202552972500
20
1221.363270489625
30
0.0
0
VERTEX
5
6c6
100
AcDbEntity
8
0-0
6
CONTINUOUS
62
  7
100
AcDbVertex
100
AcDb2dVertex
10
1009.456101858596
20
1221.569439843313
30
0.0
0
VERTEX
5
6c7
100
AcDbEntity
8
0-0
6
CONTINUOUS
62
  7
100
AcDbVertex
100
AcDb2dVertex
10
1009.719147321031
20
1221.760872530740
30
0.0
0
VERTEX
5
6c8
100
AcDbEntity
8
0-0
6
CONTINUOUS
62
  7
100
AcDbVertex
100
AcDb2dVertex
10
1009.992190235359
20
1221.927890221079
30
0.0
0
VERTEX
5
6c9
100
AcDbEntity
8
0-0
6
CONTINUOUS
62
  7
100
AcDbVertex
100
AcDb2dVertex
10
1010.275731477134
20
1222.060814583504
30
0.0
0
VERTEX
5
6ca
100
AcDbEntity
8
0-0
6
CONTINUOUS
62
  7
100
AcDbVertex
100
AcDb2dVertex
10
1010.570271921913
20
1222.149967287188
30
0.0
0
VERTEX
5
6cb
100
AcDbEntity
8
0-0
6
CONTINUOUS
62
  7
100
AcDbVertex
100
AcDb2dVertex
10
1010.746342585713
20
1222.177805915670
30
0.0
0
VERTEX
5
6cc
100
AcDbEntity
8
0-0
6
CONTINUOUS
62
  7
100
AcDbVertex
100
AcDb2dVertex
10
1010.792584882163
20
1222.181879235651
30
0.0
0
VERTEX
5
6cd
100
AcDbEntity
8
0-0
6
CONTINUOUS
62
  7
100
AcDbVertex
100
AcDb2dVertex
10
1010.872864818354
20
1222.186137835537
30
0.0
0
VERTEX
5
6ce
100
AcDbEntity
8
0-0
6
CONTINUOUS
62
  7
100
AcDbVertex
100
AcDb2dVertex
10
1010.953732855344
20
1222.187450420337
30
0.0
0
VERTEX
5
6cf
100
AcDbEntity
8
0-0
6
CONTINUOUS
62
  7
100
AcDbVertex
100
AcDb2dVertex
10
1011.035060586846
20
1222.186460224786
30
0.0
0
VERTEX
5
6d0
100
AcDbEntity
8
0-0
6
CONTINUOUS
62
  7
100
AcDbVertex
100
AcDb2dVertex
10
1011.116719606569
20
1222.183810483619
30
0.0
0
VERTEX
5
6d1
100
AcDbEntity
8
0-0
6
CONTINUOUS
62
  7
100
AcDbVertex
100
AcDb2dVertex
10
1011.198581508229
20
1222.180144431570
30
0.0
0
VERTEX
5
6d2
100
AcDbEntity
8
0-0
6
CONTINUOUS
62
  7
100
AcDbVertex
100
AcDb2dVertex
10
1011.246103772939
20
1222.177805915670
30
0.0
0
SEQEND
5
6d3
100
AcDbEntity
8
0-0
0
POLYLINE
5
6d4
100
AcDbEntity
8
0-0
6
CONTINUOUS
62
  7
100
AcDb2dPolyline
66
1
10
0.0
20
0.0
30
0.0
70
0
0
VERTEX
5
6d5
100
AcDbEntity
8
0-0
6
CONTINUOUS
62
  7
100
AcDbVertex
100
AcDb2dVertex
10
1186.966271269461
20
1200.063373380945
30
0.0
0
VERTEX
5
6d6
100
AcDbEntity
8
0-0
6
CONTINUOUS
62
  7
100
AcDbVertex
100
AcDb2dVertex
10
1186.551192324446
20
1201.132890888849
30
0.0
0
VERTEX
5
6d7
100
AcDbEntity
8
0-0
6
CONTINUOUS
62
  7
100
AcDbVertex
100
AcDb2dVertex
10
1185.842964054827
20
1202.978882568385
30
0.0
0
VERTEX
5
6d8
100
AcDbEntity
8
0-0
6
CONTINUOUS
62
  7
100
AcDbVertex
100
AcDb2dVertex
10
1185.155361018135
20
1204.830418626401
30
0.0
0
VERTEX
5
6d9
100
AcDbEntity
8
0-0
6
CONTINUOUS
62
  7
100
AcDbVertex
100
AcDb2dVertex
10
1184.501437159266
20
1206.691008163203
30
0.0
0
VERTEX
5
6da
100
AcDbEntity
8
0-0
6
CONTINUOUS
62
  7
100
AcDbVertex
100
AcDb2dVertex
10
1183.894246423108
20
1208.564160279092
30
0.0
0
VERTEX
5
6db
100
AcDbEntity
8
0-0
6
CONTINUOUS
62
  7
100
AcDbVertex
100
AcDb2dVertex
10
1183.346842754555
20
1210.453384074375
30
0.0
0
VERTEX
5
6dc
100
AcDbEntity
8
0-0
6
CONTINUOUS
62
  7
100
AcDbVertex
100
AcDb2dVertex
10
1183.061886994263
20
1211.557880687130
30
0.0
0
VERTEX
5
6dd
100
AcDbEntity
8
0-0
6
CONTINUOUS
62
  7
100
AcDbVertex
100
AcDb2dVertex
10
1182.938322889805
20
1212.074266290149
30
0.0
0
VERTEX
5
6de
100
AcDbEntity
8
0-0
6
CONTINUOUS
62
  7
100
AcDbVertex
100
AcDb2dVertex
10
1182.739236838377
20
1212.968210809733
30
0.0
0
VERTEX
5
6df
100
AcDbEntity
8
0-0
6
CONTINUOUS
62
  7
100
AcDbVertex
100
AcDb2dVertex
10
1182.558117943107
20
1213.866632565247
30
0.0
0
VERTEX
5
6e0
100
AcDbEntity
8
0-0
6
CONTINUOUS
62
  7
100
AcDbVertex
100
AcDb2dVertex
10
1182.395317315827
20
1214.769402769531
30
0.0
0
VERTEX
5
6e1
100
AcDbEntity
8
0-0
6
CONTINUOUS
62
  7
100
AcDbVertex
100
AcDb2dVertex
10
1182.251186068372
20
1215.676392635427
30
0.0
0
VERTEX
5
6e2
100
AcDbEntity
8
0-0
6
CONTINUOUS
62
  7
100
AcDbVertex
100
AcDb2dVertex
10
1182.126075312574
20
1216.587473375775
30
0.0
0
VERTEX
5
6e3
100
AcDbEntity
8
0-0
6
CONTINUOUS
62
  7
100
AcDbVertex
100
AcDb2dVertex
10
1182.062364619812
20
1217.117723895013
30
0.0
0
VERTEX
5
6e4
100
AcDbEntity
8
0-0
6
CONTINUOUS
62
  7
100
AcDbVertex
100
AcDb2dVertex
10
1182.046256390772
20
1217.260602939325
30
0.0
0
VERTEX
5
6e5
100
AcDbEntity
8
0-0
6
CONTINUOUS
62
  7
100
AcDbVertex
100
AcDb2dVertex
10
1182.018083562787
20
1217.506829237695
30
0.0
0
VERTEX
5
6e6
100
AcDbEntity
8
0-0
6
CONTINUOUS
62
  7
100
AcDbVertex
100
AcDb2dVertex
10
1181.987106788442
20
1217.752394700786
30
0.0
0
VERTEX
5
6e7
100
AcDbEntity
8
0-0
6
CONTINUOUS
62
  7
100
AcDbVertex
100
AcDb2dVertex
10
1181.950654448170
20
1217.996702951805
30
0.0
0
VERTEX
5
6e8
100
AcDbEntity
8
0-0
6
CONTINUOUS
62
  7
100
AcDbVertex
100
AcDb2dVertex
10
1181.906054922406
20
1218.239157613959
30
0.0
0
VERTEX
5
6e9
100
AcDbEntity
8
0-0
6
CONTINUOUS
62
  7
100
AcDbVertex
100
AcDb2dVertex
10
1181.850636591585
20
1218.479162310455
30
0.0
0
VERTEX
5
6ea
100
AcDbEntity
8
0-0
6
CONTINUOUS
62
  7
100
AcDbVertex
100
AcDb2dVertex
10
1181.812484026198
20
1218.617007456690
30
0.0
0
VERTEX
5
6eb
100
AcDbEntity
8
0-0
6
CONTINUOUS
62
  7
100
AcDbVertex
100
AcDb2dVertex
10
1181.759546347251
20
1218.782753036742
30
0.0
0
VERTEX
5
6ec
100
AcDbEntity
8
0-0
6
CONTINUOUS
62
  7
100
AcDbVertex
100
AcDb2dVertex
10
1181.651780727145
20
1219.063833904225
30
0.0
0
VERTEX
5
6ed
100
AcDbEntity
8
0-0
6
CONTINUOUS
62
  7
100
AcDbVertex
100
AcDb2dVertex
10
1181.524660185208
20
1219.337862544239
30
0.0
0
VERTEX
5
6ee
100
AcDbEntity
8
0-0
6
CONTINUOUS
62
  7
100
AcDbVertex
100
AcDb2dVertex
10
1181.379955948406
20
1219.603537976928
30
0.0
0
VERTEX
5
6ef
100
AcDbEntity
8
0-0
6
CONTINUOUS
62
  7
100
AcDbVertex
100
AcDb2dVertex
10
1181.219439243708
20
1219.859559222436
30
0.0
0
VERTEX
5
6f0
100
AcDbEntity
8
0-0
6
CONTINUOUS
62
  7
100
AcDbVertex
100
AcDb2dVertex
10
1181.044881298082
20
1220.104625300909
30
0.0
0
VERTEX
5
6f1
100
AcDbEntity
8
0-0
6
CONTINUOUS
62
  7
100
AcDbVertex
100
AcDb2dVertex
10
1180.937901948555
20
1220.241231315172
30
0.0
0
VERTEX
5
6f2
100
AcDbEntity
8
0-0
6
CONTINUOUS
62
  7
100
AcDbVertex
100
AcDb2dVertex
10
1180.853334549633
20
1220.343019677486
30
0.0
0
VERTEX
5
6f3
100
AcDbEntity
8
0-0
6
CONTINUOUS
62
  7
100
AcDbVertex
100
AcDb2dVertex
10
1180.702491868316
20
1220.513214697349
30
0.0
0
VERTEX
5
6f4
100
AcDbEntity
8
0-0
6
CONTINUOUS
62
  7
100
AcDbVertex
100
AcDb2dVertex
10
1180.545542807470
20
1220.677806246765
30
0.0
0
VERTEX
5
6f5
100
AcDbEntity
8
0-0
6
CONTINUOUS
62
  7
100
AcDbVertex
100
AcDb2dVertex
10
1180.382800557082
20
1220.838082837490
30
0.0
0
VERTEX
5
6f6
100
AcDbEntity
8
0-0
6
CONTINUOUS
62
  7
100
AcDbVertex
100
AcDb2dVertex
10
1180.214578307137
20
1220.995332981281
30
0.0
0
VERTEX
5
6f7
100
AcDbEntity
8
0-0
6
CONTINUOUS
62
  7
100
AcDbVertex
100
AcDb2dVertex
10
1180.041189247624
20
1221.150845189893
30
0.0
0
VERTEX
5
6f8
100
AcDbEntity
8
0-0
6
CONTINUOUS
62
  7
100
AcDbVertex
100
AcDb2dVertex
10
1179.938379574103
20
1221.240753689623
30
0.0
0
VERTEX
5
6f9
100
AcDbEntity
8
0-0
6
CONTINUOUS
62
  7
100
AcDbVertex
100
AcDb2dVertex
10
1179.795475180431
20
1221.363270489625
30
0.0
0
VERTEX
5
6fa
100
AcDbEntity
8
0-0
6
CONTINUOUS
62
  7
100
AcDbVertex
100
AcDb2dVertex
10
1179.541926294334
20
1221.569439843313
30
0.0
0
VERTEX
5
6fb
100
AcDbEntity
8
0-0
6
CONTINUOUS
62
  7
100
AcDbVertex
100
AcDb2dVertex
10
1179.278880831899
20
1221.760872530740
30
0.0
0
VERTEX
5
6fc
100
AcDbEntity
8
0-0
6
CONTINUOUS
62
  7
100
AcDbVertex
100
AcDb2dVertex
10
1179.005837917571
20
1221.927890221079
30
0.0
0
VERTEX
5
6fd
100
AcDbEntity
8
0-0
6
CONTINUOUS
62
  7
100
AcDbVertex
100
AcDb2dVertex
10
1178.722296675797
20
1222.060814583504
30
0.0
0
VERTEX
5
6fe
100
AcDbEntity
8
0-0
6
CONTINUOUS
62
  7
100
AcDbVertex
100
AcDb2dVertex
10
1178.427756231019
20
1222.149967287188
30
0.0
0
VERTEX
5
6ff
100
AcDbEntity
8
0-0
6
CONTINUOUS
62
  7
100
AcDbVertex
100
AcDb2dVertex
10
1178.251685567218
20
1222.177805915670
30
0.0
0
VERTEX
5
700
100
AcDbEntity
8
0-0
6
CONTINUOUS
62
  7
100
AcDbVertex
100
AcDb2dVertex
10
1178.205443270768
20
1222.181879235651
30
0.0
0
VERTEX
5
701
100
AcDbEntity
8
0-0
6
CONTINUOUS
62
  7
100
AcDbVertex
100
AcDb2dVertex
10
1178.125163334576
20
1222.186137835537
30
0.0
0
VERTEX
5
702
100
AcDbEntity
8
0-0
6
CONTINUOUS
62
  7
100
AcDbVertex
100
AcDb2dVertex
10
1178.044295297586
20
1222.187450420337
30
0.0
0
VERTEX
5
703
100
AcDbEntity
8
0-0
6
CONTINUOUS
62
  7
100
AcDbVertex
100
AcDb2dVertex
10
1177.962967566086
20
1222.186460224786
30
0.0
0
VERTEX
5
704
100
AcDbEntity
8
0-0
6
CONTINUOUS
62
  7
100
AcDbVertex
100
AcDb2dVertex
10
1177.881308546361
20
1222.183810483619
30
0.0
0
VERTEX
5
705
100
AcDbEntity
8
0-0
6
CONTINUOUS
62
  7
100
AcDbVertex
100
AcDb2dVertex
10
1177.799446644702
20
1222.180144431570
30
0.0
0
VERTEX
5
706
100
AcDbEntity
8
0-0
6
CONTINUOUS
62
  7
100
AcDbVertex
100
AcDb2dVertex
10
1177.751924379993
20
1222.177805915670
30
0.0
0
SEQEND
5
707
100
AcDbEntity
8
0-0
0
LINE
5
708
100
AcDbEntity
8
0-0
6
CONTINUOUS
62
7
100
AcDbLine
10
871.480164130450
20
1458.184325240214
30
0.0
11
963.992789148781
21
1472.819090779837
31
0.0
0
LINE
5
709
100
AcDbEntity
8
0-0
6
CONTINUOUS
62
7
100
AcDbLine
10
872.351281126857
20
1443.201112902028
30
0.0
11
963.644342350219
21
1458.184325240214
31
0.0
0
LINE
5
70a
100
AcDbEntity
8
0-0
6
CONTINUOUS
62
7
100
AcDbLine
10
2122.780637600878
20
2502.298896254237
30
0.0
11
2122.780637600878
21
2512.099247882768
31
0.0
0
LINE
5
70b
100
AcDbEntity
8
0-0
6
CONTINUOUS
62
7
100
AcDbLine
10
2147.830169766402
20
2413.782410358442
30
0.0
11
2092.224481781540
21
2413.782410358442
31
0.0
0
LINE
5
70c
100
AcDbEntity
8
0-0
6
CONTINUOUS
62
7
100
AcDbLine
10
2131.320869585738
20
2489.382675644798
30
0.0
11
2106.320869585738
21
2489.382675644798
31
0.0
0
LINE
5
70d
100
AcDbEntity
8
0-0
6
CONTINUOUS
62
7
100
AcDbLine
10
2134.780637600878
20
2425.574917443442
30
0.0
11
2102.780637600878
21
2425.574917443442
31
0.0
0
ARC
5
70e
100
AcDbEntity
8
0-0
6
CONTINUOUS
62
7
100
AcDbCircle
10
2102.780637600878
20
2413.574917443443
30
0.0
40
12.000000000000
100
AcDbArc
50
90.000000000000
51
180.000000000000
0
ARC
5
70f
100
AcDbEntity
8
0-0
6
CONTINUOUS
62
7
100
AcDbCircle
10
2134.780637600878
20
2413.574917443443
30
0.0
40
12.000000000000
100
AcDbArc
50
0.000000000000
51
90.000000000000
0
LINE
5
710
100
AcDbEntity
8
0-0
6
CONTINUOUS
62
7
100
AcDbLine
10
2106.320869585738
20
2460.090209861668
30
0.0
11
2131.320869585738
21
2460.090209861668
31
0.0
0
LINE
5
711
100
AcDbEntity
8
0-0
6
CONTINUOUS
62
7
100
AcDbLine
10
2131.320869585738
20
2452.090209861668
30
0.0
11
2106.320869585738
21
2452.090209861668
31
0.0
0
ARC
5
712
100
AcDbEntity
8
0-0
6
CONTINUOUS
62
7
100
AcDbCircle
10
2118.771609838811
20
2456.129887788755
30
0.0
40
13.134414676531
100
AcDbArc
50
342.276763383114
51
377.297564485525
0
ARC
5
713
100
AcDbEntity
8
0-0
6
CONTINUOUS
62
7
100
AcDbCircle
10
2118.771609838811
20
2456.129887788755
30
0.0
40
13.134414676531
100
AcDbArc
50
162.521885466274
51
198.017609214690
0
CIRCLE
5
714
100
AcDbEntity
8
0-0
6
CONTINUOUS
62
7
100
AcDbCircle
10
2118.788068046105
20
2456.117170083119
30
0.0
40
3.389457447208
0
ARC
5
715
100
AcDbEntity
8
0-0
6
CONTINUOUS
62
7
100
AcDbCircle
10
2106.119474158569
20
2456.113906542385
30
0.0
40
3.389457447208
100
AcDbArc
50
269.971509582607
51
449.978070214998
0
ARC
5
716
100
AcDbEntity
8
0-0
6
CONTINUOUS
62
7
100
AcDbCircle
10
2131.428835001347
20
2456.127670795039
30
0.0
40
3.389457447208
100
AcDbArc
50
90.339830380176
51
269.767752220994
0
LINE
5
717
100
AcDbEntity
8
0-0
6
CONTINUOUS
62
7
100
AcDbLine
10
2110.780637600878
20
2426.052210958459
30
0.0
11
2110.780637600878
21
2451.951788521277
31
0.0
0
LINE
5
718
100
AcDbEntity
8
0-0
6
CONTINUOUS
62
7
100
AcDbLine
10
2126.780637600878
20
2425.803981577803
30
0.0
11
2126.780637600878
21
2452.017668185429
31
0.0
0
ARC
5
719
100
AcDbEntity
8
0-0
6
CONTINUOUS
62
7
100
AcDbCircle
10
2123.100637600878
20
2521.056379344190
30
0.0
40
3.240000000000
100
AcDbArc
50
0.000000000000
51
90.000000000000
0
ARC
5
71a
100
AcDbEntity
8
0-0
6
CONTINUOUS
62
7
100
AcDbCircle
10
2114.460637600879
20
2521.056379344190
30
0.0
40
3.240000000000
100
AcDbArc
50
90.000000000000
51
180.000000000000
0
LINE
5
71b
100
AcDbEntity
8
0-0
6
CONTINUOUS
62
7
100
AcDbLine
10
2123.100637600878
20
2524.296379344192
30
0.0
11
2114.460637600879
21
2524.296379344192
31
0.0
0
ARC
5
71c
100
AcDbEntity
8
0-0
6
CONTINUOUS
62
7
100
AcDbCircle
10
2096.889684514348
20
2515.027014145279
30
0.0
40
3.000000000000
100
AcDbArc
50
180.000000000000
51
270.000000000000
0
LINE
5
71d
100
AcDbEntity
8
0-0
6
CONTINUOUS
62
7
100
AcDbLine
10
2093.889684514348
20
2518.027014145279
30
0.0
11
2093.889684514348
21
2515.027014145279
31
0.0
0
ARC
5
71e
100
AcDbEntity
8
0-0
6
CONTINUOUS
62
7
100
AcDbCircle
10
2096.889684514348
20
2518.027014145279
30
0.0
40
3.000000000000
100
AcDbArc
50
90.000000000000
51
180.000000000000
0
LINE
5
71f
100
AcDbEntity
8
0-0
6
CONTINUOUS
62
7
100
AcDbLine
10
2140.889684514348
20
2512.027014145279
30
0.0
11
2096.889684514348
21
2512.027014145279
31
0.0
0
ARC
5
720
100
AcDbEntity
8
0-0
6
CONTINUOUS
62
7
100
AcDbCircle
10
2140.889684514348
20
2515.027014145279
30
0.0
40
3.000000000000
100
AcDbArc
50
270.000000000000
51
360.000000000000
0
LINE
5
721
100
AcDbEntity
8
0-0
6
CONTINUOUS
62
7
100
AcDbLine
10
2143.889684514348
20
2518.027014145279
30
0.0
11
2143.889684514348
21
2515.027014145279
31
0.0
0
LINE
5
722
100
AcDbEntity
8
0-0
6
CONTINUOUS
62
7
100
AcDbLine
10
2140.889684514348
20
2521.027014145279
30
0.0
11
2096.889684514348
21
2521.027014145279
31
0.0
0
ARC
5
723
100
AcDbEntity
8
0-0
6
CONTINUOUS
62
7
100
AcDbCircle
10
2140.889684514348
20
2518.027014145279
30
0.0
40
3.000000000000
100
AcDbArc
50
0.000000000000
51
90.000000000000
0
LINE
5
724
100
AcDbEntity
8
0-0
6
CONTINUOUS
62
7
100
AcDbLine
10
2153.787024553937
20
2464.446623522694
30
0.0
11
2153.787024553938
21
2484.446623522694
31
0.0
0
LINE
5
725
100
AcDbEntity
8
0-0
6
CONTINUOUS
62
7
100
AcDbLine
10
2139.787024553937
20
2465.561552835953
30
0.0
11
2139.787024553937
21
2483.331694209432
31
0.0
0
LINE
5
726
100
AcDbEntity
8
0-0
6
CONTINUOUS
62
7
100
AcDbLine
10
2141.787024553937
20
2464.446623522694
30
0.0
11
2141.787024553937
21
2484.446623522694
31
0.0
0
ARC
5
727
100
AcDbEntity
8
0-0
6
CONTINUOUS
62
7
100
AcDbCircle
10
2147.787024553937
20
2456.919437805234
30
0.0
40
9.625929816131
100
AcDbArc
50
51.441277284353
51
128.558722715647
0
ARC
5
728
100
AcDbEntity
8
0-0
6
CONTINUOUS
62
7
100
AcDbCircle
10
2147.787024553937
20
2472.104406449445
30
0.0
40
6.440961171922
100
AcDbArc
50
21.324157753203
51
158.675842246797
0
ARC
5
729
100
AcDbEntity
8
0-0
6
CONTINUOUS
62
7
100
AcDbCircle
10
2147.787024553937
20
2476.788840595938
30
0.0
40
6.440961171922
100
AcDbArc
50
201.324157753203
51
338.675842246797
0
ARC
5
72a
100
AcDbEntity
8
0-0
6
CONTINUOUS
62
7
100
AcDbCircle
10
2147.787024553937
20
2471.973809240149
30
0.0
40
9.625929816131
100
AcDbArc
50
231.441277284353
51
308.558722715647
0
ARC
5
72b
100
AcDbEntity
8
0-0
6
CONTINUOUS
62
7
100
AcDbCircle
10
2147.787024553937
20
2491.973809240149
30
0.0
40
9.625929816131
100
AcDbArc
50
231.441277284353
51
308.558722715647
0
ARC
5
72c
100
AcDbEntity
8
0-0
6
CONTINUOUS
62
7
100
AcDbCircle
10
2147.787024553937
20
2476.919437805234
30
0.0
40
9.625929816131
100
AcDbArc
50
51.441277284353
51
128.558722715647
0
POLYLINE
5
72d
100
AcDbEntity
8
0-0
6
CONTINUOUS
62
  7
100
AcDb2dPolyline
66
1
10
0.0
20
0.0
30
0.0
70
0
0
VERTEX
5
72e
100
AcDbEntity
8
0-0
6
CONTINUOUS
62
  7
100
AcDbVertex
100
AcDb2dVertex
10
2131.235200340139
20
2460.124751928267
30
0.0
0
VERTEX
5
72f
100
AcDbEntity
8
0-0
6
CONTINUOUS
62
  7
100
AcDbVertex
100
AcDb2dVertex
10
2131.387975777945
20
2460.274094675481
30
0.0
0
VERTEX
5
730
100
AcDbEntity
8
0-0
6
CONTINUOUS
62
  7
100
AcDbVertex
100
AcDb2dVertex
10
2131.651473876946
20
2460.531300098322
30
0.0
0
VERTEX
5
731
100
AcDbEntity
8
0-0
6
CONTINUOUS
62
  7
100
AcDbVertex
100
AcDb2dVertex
10
2131.915228008591
20
2460.787721986848
30
0.0
0
VERTEX
5
732
100
AcDbEntity
8
0-0
6
CONTINUOUS
62
  7
100
AcDbVertex
100
AcDb2dVertex
10
2132.179400218856
20
2461.042864433261
30
0.0
0
VERTEX
5
733
100
AcDbEntity
8
0-0
6
CONTINUOUS
62
  7
100
AcDbVertex
100
AcDb2dVertex
10
2132.444152553717
20
2461.296231529767
30
0.0
0
VERTEX
5
734
100
AcDbEntity
8
0-0
6
CONTINUOUS
62
  7
100
AcDbVertex
100
AcDb2dVertex
10
2132.709647059153
20
2461.547327368570
30
0.0
0
VERTEX
5
735
100
AcDbEntity
8
0-0
6
CONTINUOUS
62
  7
100
AcDbVertex
100
AcDb2dVertex
10
2132.976045781138
20
2461.795656041876
30
0.0
0
VERTEX
5
736
100
AcDbEntity
8
0-0
6
CONTINUOUS
62
  7
100
AcDbVertex
100
AcDb2dVertex
10
2133.243510765651
20
2462.040721641887
30
0.0
0
VERTEX
5
737
100
AcDbEntity
8
0-0
6
CONTINUOUS
62
  7
100
AcDbVertex
100
AcDb2dVertex
10
2133.512204058667
20
2462.282028260810
30
0.0
0
VERTEX
5
738
100
AcDbEntity
8
0-0
6
CONTINUOUS
62
  7
100
AcDbVertex
100
AcDb2dVertex
10
2133.782287706163
20
2462.519079990849
30
0.0
0
VERTEX
5
739
100
AcDbEntity
8
0-0
6
CONTINUOUS
62
  7
100
AcDbVertex
100
AcDb2dVertex
10
2134.053923754118
20
2462.751380924209
30
0.0
0
VERTEX
5
73a
100
AcDbEntity
8
0-0
6
CONTINUOUS
62
  7
100
AcDbVertex
100
AcDb2dVertex
10
2134.327274248506
20
2462.978435153093
30
0.0
0
VERTEX
5
73b
100
AcDbEntity
8
0-0
6
CONTINUOUS
62
  7
100
AcDbVertex
100
AcDb2dVertex
10
2134.602501235304
20
2463.199746769708
30
0.0
0
VERTEX
5
73c
100
AcDbEntity
8
0-0
6
CONTINUOUS
62
  7
100
AcDbVertex
100
AcDb2dVertex
10
2134.879766760491
20
2463.414819866257
30
0.0
0
VERTEX
5
73d
100
AcDbEntity
8
0-0
6
CONTINUOUS
62
  7
100
AcDbVertex
100
AcDb2dVertex
10
2135.159232870041
20
2463.623158534945
30
0.0
0
VERTEX
5
73e
100
AcDbEntity
8
0-0
6
CONTINUOUS
62
  7
100
AcDbVertex
100
AcDb2dVertex
10
2135.441061609933
20
2463.824266867977
30
0.0
0
VERTEX
5
73f
100
AcDbEntity
8
0-0
6
CONTINUOUS
62
  7
100
AcDbVertex
100
AcDb2dVertex
10
2135.725415026143
20
2464.017648957557
30
0.0
0
VERTEX
5
740
100
AcDbEntity
8
0-0
6
CONTINUOUS
62
  7
100
AcDbVertex
100
AcDb2dVertex
10
2136.012455164646
20
2464.202808895891
30
0.0
0
VERTEX
5
741
100
AcDbEntity
8
0-0
6
CONTINUOUS
62
  7
100
AcDbVertex
100
AcDb2dVertex
10
2136.302344071422
20
2464.379250775182
30
0.0
0
VERTEX
5
742
100
AcDbEntity
8
0-0
6
CONTINUOUS
62
  7
100
AcDbVertex
100
AcDb2dVertex
10
2136.595243792445
20
2464.546478687636
30
0.0
0
VERTEX
5
743
100
AcDbEntity
8
0-0
6
CONTINUOUS
62
  7
100
AcDbVertex
100
AcDb2dVertex
10
2136.891316373694
20
2464.703996725456
30
0.0
0
VERTEX
5
744
100
AcDbEntity
8
0-0
6
CONTINUOUS
62
  7
100
AcDbVertex
100
AcDb2dVertex
10
2137.190723861143
20
2464.851308980848
30
0.0
0
VERTEX
5
745
100
AcDbEntity
8
0-0
6
CONTINUOUS
62
  7
100
AcDbVertex
100
AcDb2dVertex
10
2137.493628300771
20
2464.987919546017
30
0.0
0
VERTEX
5
746
100
AcDbEntity
8
0-0
6
CONTINUOUS
62
  7
100
AcDbVertex
100
AcDb2dVertex
10
2137.800191738554
20
2465.113332513166
30
0.0
0
VERTEX
5
747
100
AcDbEntity
8
0-0
6
CONTINUOUS
62
  7
100
AcDbVertex
100
AcDb2dVertex
10
2138.110576220469
20
2465.227051974502
30
0.0
0
VERTEX
5
748
100
AcDbEntity
8
0-0
6
CONTINUOUS
62
  7
100
AcDbVertex
100
AcDb2dVertex
10
2138.424943792493
20
2465.328582022227
30
0.0
0
VERTEX
5
749
100
AcDbEntity
8
0-0
6
CONTINUOUS
62
  7
100
AcDbVertex
100
AcDb2dVertex
10
2138.743456500602
20
2465.417426748548
30
0.0
0
VERTEX
5
74a
100
AcDbEntity
8
0-0
6
CONTINUOUS
62
  7
100
AcDbVertex
100
AcDb2dVertex
10
2139.066276390772
20
2465.493090245668
30
0.0
0
VERTEX
5
74b
100
AcDbEntity
8
0-0
6
CONTINUOUS
62
  7
100
AcDbVertex
100
AcDb2dVertex
10
2139.393565508982
20
2465.555076605792
30
0.0
0
VERTEX
5
74c
100
AcDbEntity
8
0-0
6
CONTINUOUS
62
  7
100
AcDbVertex
100
AcDb2dVertex
10
2139.585504852372
20
2465.584566417034
30
0.0
0
VERTEX
5
74d
100
AcDbEntity
8
0-0
6
CONTINUOUS
62
  7
100
AcDbVertex
100
AcDb2dVertex
10
2139.624885168731
20
2465.589993049563
30
0.0
0
VERTEX
5
74e
100
AcDbEntity
8
0-0
6
CONTINUOUS
62
  7
100
AcDbVertex
100
AcDb2dVertex
10
2139.692934017642
20
2465.598884908101
30
0.0
0
VERTEX
5
74f
100
AcDbEntity
8
0-0
6
CONTINUOUS
62
  7
100
AcDbVertex
100
AcDb2dVertex
10
2139.761169148712
20
2465.607206689081
30
0.0
0
VERTEX
5
750
100
AcDbEntity
8
0-0
6
CONTINUOUS
62
  7
100
AcDbVertex
100
AcDb2dVertex
10
2139.829583807693
20
2465.614979062465
30
0.0
0
VERTEX
5
751
100
AcDbEntity
8
0-0
6
CONTINUOUS
62
  7
100
AcDbVertex
100
AcDb2dVertex
10
2139.898171240337
20
2465.622222698215
30
0.0
0
VERTEX
5
752
100
AcDbEntity
8
0-0
6
CONTINUOUS
62
  7
100
AcDbVertex
100
AcDb2dVertex
10
2139.966924692396
20
2465.628958266294
30
0.0
0
VERTEX
5
753
100
AcDbEntity
8
0-0
6
CONTINUOUS
62
  7
100
AcDbVertex
100
AcDb2dVertex
10
2140.035837409623
20
2465.635206436663
30
0.0
0
VERTEX
5
754
100
AcDbEntity
8
0-0
6
CONTINUOUS
62
  7
100
AcDbVertex
100
AcDb2dVertex
10
2140.104902637768
20
2465.640987879285
30
0.0
0
VERTEX
5
755
100
AcDbEntity
8
0-0
6
CONTINUOUS
62
  7
100
AcDbVertex
100
AcDb2dVertex
10
2140.174113622584
20
2465.646323264122
30
0.0
0
VERTEX
5
756
100
AcDbEntity
8
0-0
6
CONTINUOUS
62
  7
100
AcDbVertex
100
AcDb2dVertex
10
2140.243463609823
20
2465.651233261137
30
0.0
0
VERTEX
5
757
100
AcDbEntity
8
0-0
6
CONTINUOUS
62
  7
100
AcDbVertex
100
AcDb2dVertex
10
2140.312945845238
20
2465.655738540292
30
0.0
0
VERTEX
5
758
100
AcDbEntity
8
0-0
6
CONTINUOUS
62
  7
100
AcDbVertex
100
AcDb2dVertex
10
2140.382553574580
20
2465.659859771549
30
0.0
0
VERTEX
5
759
100
AcDbEntity
8
0-0
6
CONTINUOUS
62
  7
100
AcDbVertex
100
AcDb2dVertex
10
2140.452280043601
20
2465.663617624869
30
0.0
0
VERTEX
5
75a
100
AcDbEntity
8
0-0
6
CONTINUOUS
62
  7
100
AcDbVertex
100
AcDb2dVertex
10
2140.522118498053
20
2465.667032770216
30
0.0
0
VERTEX
5
75b
100
AcDbEntity
8
0-0
6
CONTINUOUS
62
  7
100
AcDbVertex
100
AcDb2dVertex
10
2140.592062183689
20
2465.670125877552
30
0.0
0
VERTEX
5
75c
100
AcDbEntity
8
0-0
6
CONTINUOUS
62
  7
100
AcDbVertex
100
AcDb2dVertex
10
2140.662104346260
20
2465.672917616837
30
0.0
0
VERTEX
5
75d
100
AcDbEntity
8
0-0
6
CONTINUOUS
62
  7
100
AcDbVertex
100
AcDb2dVertex
10
2140.732238231518
20
2465.675428658037
30
0.0
0
VERTEX
5
75e
100
AcDbEntity
8
0-0
6
CONTINUOUS
62
  7
100
AcDbVertex
100
AcDb2dVertex
10
2140.802457085215
20
2465.677679671112
30
0.0
0
VERTEX
5
75f
100
AcDbEntity
8
0-0
6
CONTINUOUS
62
  7
100
AcDbVertex
100
AcDb2dVertex
10
2140.872754153105
20
2465.679691326023
30
0.0
0
VERTEX
5
760
100
AcDbEntity
8
0-0
6
CONTINUOUS
62
  7
100
AcDbVertex
100
AcDb2dVertex
10
2140.943122680937
20
2465.681484292735
30
0.0
0
VERTEX
5
761
100
AcDbEntity
8
0-0
6
CONTINUOUS
62
  7
100
AcDbVertex
100
AcDb2dVertex
10
2141.013555914466
20
2465.683079241208
30
0.0
0
VERTEX
5
762
100
AcDbEntity
8
0-0
6
CONTINUOUS
62
  7
100
AcDbVertex
100
AcDb2dVertex
10
2141.084047099441
20
2465.684496841406
30
0.0
0
VERTEX
5
763
100
AcDbEntity
8
0-0
6
CONTINUOUS
62
  7
100
AcDbVertex
100
AcDb2dVertex
10
2141.154589481617
20
2465.685757763290
30
0.0
0
VERTEX
5
764
100
AcDbEntity
8
0-0
6
CONTINUOUS
62
  7
100
AcDbVertex
100
AcDb2dVertex
10
2141.225176306744
20
2465.686882676822
30
0.0
0
VERTEX
5
765
100
AcDbEntity
8
0-0
6
CONTINUOUS
62
  7
100
AcDbVertex
100
AcDb2dVertex
10
2141.295800820574
20
2465.687892251965
30
0.0
0
VERTEX
5
766
100
AcDbEntity
8
0-0
6
CONTINUOUS
62
  7
100
AcDbVertex
100
AcDb2dVertex
10
2141.366456268861
20
2465.688807158681
30
0.0
0
VERTEX
5
767
100
AcDbEntity
8
0-0
6
CONTINUOUS
62
  7
100
AcDbVertex
100
AcDb2dVertex
10
2141.437135897354
20
2465.689648066933
30
0.0
0
VERTEX
5
768
100
AcDbEntity
8
0-0
6
CONTINUOUS
62
  7
100
AcDbVertex
100
AcDb2dVertex
10
2141.507832951808
20
2465.690435646682
30
0.0
0
VERTEX
5
769
100
AcDbEntity
8
0-0
6
CONTINUOUS
62
  7
100
AcDbVertex
100
AcDb2dVertex
10
2141.578540677974
20
2465.691190567891
30
0.0
0
VERTEX
5
76a
100
AcDbEntity
8
0-0
6
CONTINUOUS
62
  7
100
AcDbVertex
100
AcDb2dVertex
10
2141.619553387403
20
2465.691621603089
30
0.0
0
SEQEND
5
76b
100
AcDbEntity
8
0-0
0
ARC
5
76c
100
AcDbEntity
8
0-0
6
CONTINUOUS
62
7
100
AcDbCircle
10
2118.771609838812
20
2493.422353571885
30
0.0
40
13.134414676531
100
AcDbArc
50
342.276763383114
51
377.297564485525
0
ARC
5
76d
100
AcDbEntity
8
0-0
6
CONTINUOUS
62
7
100
AcDbCircle
10
2118.771609838812
20
2493.422353571885
30
0.0
40
13.134414676531
100
AcDbArc
50
162.521885466274
51
198.017609214690
0
CIRCLE
5
76e
100
AcDbEntity
8
0-0
6
CONTINUOUS
62
7
100
AcDbCircle
10
2118.788068046105
20
2493.409635866249
30
0.0
40
3.389457447208
0
ARC
5
76f
100
AcDbEntity
8
0-0
6
CONTINUOUS
62
7
100
AcDbCircle
10
2106.119474158569
20
2493.406372325515
30
0.0
40
3.389457447208
100
AcDbArc
50
269.971509582607
51
449.978070214998
0
ARC
5
770
100
AcDbEntity
8
0-0
6
CONTINUOUS
62
7
100
AcDbCircle
10
2131.428835001347
20
2493.420136578169
30
0.0
40
3.389457447208
100
AcDbArc
50
90.339830380176
51
269.767752220994
0
LINE
5
771
100
AcDbEntity
8
0-0
6
CONTINUOUS
62
7
100
AcDbLine
10
2106.423456035351
20
2497.109059437319
30
0.0
11
2131.291331633735
21
2497.109059437319
31
0.0
0
LINE
5
772
100
AcDbEntity
8
0-0
6
CONTINUOUS
62
7
100
AcDbLine
10
2106.580612008496
20
2460.156996529418
30
0.0
11
2106.580612008496
21
2489.306073739901
31
0.0
0
POLYLINE
5
773
100
AcDbEntity
8
0-0
6
CONTINUOUS
62
  7
100
AcDb2dPolyline
66
1
10
0.0
20
0.0
30
0.0
70
0
0
VERTEX
5
774
100
AcDbEntity
8
0-0
6
CONTINUOUS
62
  7
100
AcDbVertex
100
AcDb2dVertex
10
2141.698417902946
20
2483.182424214528
30
0.0
0
VERTEX
5
775
100
AcDbEntity
8
0-0
6
CONTINUOUS
62
  7
100
AcDbVertex
100
AcDb2dVertex
10
2141.013012426733
20
2483.404257475845
30
0.0
0
VERTEX
5
776
100
AcDbEntity
8
0-0
6
CONTINUOUS
62
  7
100
AcDbVertex
100
AcDb2dVertex
10
2139.837304509247
20
2483.796025783384
30
0.0
0
VERTEX
5
777
100
AcDbEntity
8
0-0
6
CONTINUOUS
62
  7
100
AcDbVertex
100
AcDb2dVertex
10
2138.678334542297
20
2484.213619555750
30
0.0
0
VERTEX
5
778
100
AcDbEntity
8
0-0
6
CONTINUOUS
62
  7
100
AcDbVertex
100
AcDb2dVertex
10
2137.546696165466
20
2484.673384023846
30
0.0
0
VERTEX
5
779
100
AcDbEntity
8
0-0
6
CONTINUOUS
62
  7
100
AcDbVertex
100
AcDb2dVertex
10
2136.452983018333
20
2485.191664418575
30
0.0
0
VERTEX
5
77a
100
AcDbEntity
8
0-0
6
CONTINUOUS
62
  7
100
AcDbVertex
100
AcDb2dVertex
10
2135.407788740477
20
2485.784805970840
30
0.0
0
VERTEX
5
77b
100
AcDbEntity
8
0-0
6
CONTINUOUS
62
  7
100
AcDbVertex
100
AcDb2dVertex
10
2134.827981850089
20
2486.169570324465
30
0.0
0
VERTEX
5
77c
100
AcDbEntity
8
0-0
6
CONTINUOUS
62
  7
100
AcDbVertex
100
AcDb2dVertex
10
2134.478672614037
20
2486.424985094596
30
0.0
0
VERTEX
5
77d
100
AcDbEntity
8
0-0
6
CONTINUOUS
62
  7
100
AcDbVertex
100
AcDb2dVertex
10
2133.893967539713
20
2486.892437226715
30
0.0
0
VERTEX
5
77e
100
AcDbEntity
8
0-0
6
CONTINUOUS
62
  7
100
AcDbVertex
100
AcDb2dVertex
10
2133.327968070794
20
2487.388750774895
30
0.0
0
VERTEX
5
77f
100
AcDbEntity
8
0-0
6
CONTINUOUS
62
  7
100
AcDbVertex
100
AcDb2dVertex
10
2132.776590013959
20
2487.907624119910
30
0.0
0
VERTEX
5
780
100
AcDbEntity
8
0-0
6
CONTINUOUS
62
  7
100
AcDbVertex
100
AcDb2dVertex
10
2132.235749175891
20
2488.442755642531
30
0.0
0
VERTEX
5
781
100
AcDbEntity
8
0-0
6
CONTINUOUS
62
  7
100
AcDbVertex
100
AcDb2dVertex
10
2131.701361363269
20
2488.987843723531
30
0.0
0
VERTEX
5
782
100
AcDbEntity
8
0-0
6
CONTINUOUS
62
  7
100
AcDbVertex
100
AcDb2dVertex
10
2131.392763823660
20
2489.306073739901
30
0.0
0
SEQEND
5
783
100
AcDbEntity
8
0-0
0
POLYLINE
5
784
100
AcDbEntity
8
0-0
6
CONTINUOUS
62
  7
100
AcDb2dPolyline
66
1
10
0.0
20
0.0
30
0.0
70
0
0
VERTEX
5
785
100
AcDbEntity
8
0-0
6
CONTINUOUS
62
  7
100
AcDbVertex
100
AcDb2dVertex
10
2106.251822813387
20
2497.105306238475
30
0.0
0
VERTEX
5
786
100
AcDbEntity
8
0-0
6
CONTINUOUS
62
  7
100
AcDbVertex
100
AcDb2dVertex
10
2106.723891907485
20
2497.380454010280
30
0.0
0
VERTEX
5
787
100
AcDbEntity
8
0-0
6
CONTINUOUS
62
  7
100
AcDbVertex
100
AcDb2dVertex
10
2107.535797012664
20
2497.857593257725
30
0.0
0
VERTEX
5
788
100
AcDbEntity
8
0-0
6
CONTINUOUS
62
  7
100
AcDbVertex
100
AcDb2dVertex
10
2108.342126767774
20
2498.342361775824
30
0.0
0
VERTEX
5
789
100
AcDbEntity
8
0-0
6
CONTINUOUS
62
  7
100
AcDbVertex
100
AcDb2dVertex
10
2109.139352470239
20
2498.839588216891
30
0.0
0
VERTEX
5
78a
100
AcDbEntity
8
0-0
6
CONTINUOUS
62
  7
100
AcDbVertex
100
AcDb2dVertex
10
2109.923945417485
20
2499.354101233238
30
0.0
0
VERTEX
5
78b
100
AcDbEntity
8
0-0
6
CONTINUOUS
62
  7
100
AcDbVertex
100
AcDb2dVertex
10
2110.692376906936
20
2499.890729477180
30
0.0
0
VERTEX
5
78c
100
AcDbEntity
8
0-0
6
CONTINUOUS
62
  7
100
AcDbVertex
100
AcDb2dVertex
10
2111.129271498548
20
2500.214009796051
30
0.0
0
VERTEX
5
78d
100
AcDbEntity
8
0-0
6
CONTINUOUS
62
  7
100
AcDbVertex
100
AcDb2dVertex
10
2111.378999563944
20
2500.405622449649
30
0.0
0
VERTEX
5
78e
100
AcDbEntity
8
0-0
6
CONTINUOUS
62
  7
100
AcDbVertex
100
AcDb2dVertex
10
2111.804481125807
20
2500.742946097611
30
0.0
0
VERTEX
5
78f
100
AcDbEntity
8
0-0
6
CONTINUOUS
62
  7
100
AcDbVertex
100
AcDb2dVertex
10
2112.224544539862
20
2501.087683901736
30
0.0
0
VERTEX
5
790
100
AcDbEntity
8
0-0
6
CONTINUOUS
62
  7
100
AcDbVertex
100
AcDb2dVertex
10
2112.640372807814
20
2501.438217050635
30
0.0
0
VERTEX
5
791
100
AcDbEntity
8
0-0
6
CONTINUOUS
62
  7
100
AcDbVertex
100
AcDb2dVertex
10
2113.053148931366
20
2501.792926732920
30
0.0
0
VERTEX
5
792
100
AcDbEntity
8
0-0
6
CONTINUOUS
62
  7
100
AcDbVertex
100
AcDb2dVertex
10
2113.464055912225
20
2502.150194137199
30
0.0
0
VERTEX
5
793
100
AcDbEntity
8
0-0
6
CONTINUOUS
62
  7
100
AcDbVertex
100
AcDb2dVertex
10
2113.701991684128
20
2502.357943284034
30
0.0
0
SEQEND
5
794
100
AcDbEntity
8
0-0
0
LINE
5
795
100
AcDbEntity
8
0-0
6
CONTINUOUS
62
7
100
AcDbLine
10
2123.780637600878
20
2502.388028160016
30
0.0
11
2113.780637600878
21
2502.388028160016
31
0.0
0
POLYLINE
5
796
100
AcDbEntity
8
0-0
6
CONTINUOUS
62
  7
100
AcDb2dPolyline
66
1
10
0.0
20
0.0
30
0.0
70
0
0
VERTEX
5
797
100
AcDbEntity
8
0-0
6
CONTINUOUS
62
  7
100
AcDbVertex
100
AcDb2dVertex
10
2131.389442959990
20
2497.158904575675
30
0.0
0
VERTEX
5
798
100
AcDbEntity
8
0-0
6
CONTINUOUS
62
  7
100
AcDbVertex
100
AcDb2dVertex
10
2130.897877417571
20
2497.417591486829
30
0.0
0
VERTEX
5
799
100
AcDbEntity
8
0-0
6
CONTINUOUS
62
  7
100
AcDbVertex
100
AcDb2dVertex
10
2130.053039366197
20
2497.867346191830
30
0.0
0
VERTEX
5
79a
100
AcDbEntity
8
0-0
6
CONTINUOUS
62
  7
100
AcDbVertex
100
AcDb2dVertex
10
2129.215670053429
20
2498.327497533553
30
0.0
0
VERTEX
5
79b
100
AcDbEntity
8
0-0
6
CONTINUOUS
62
  7
100
AcDbVertex
100
AcDb2dVertex
10
2128.390496529022
20
2498.804625661820
30
0.0
0
VERTEX
5
79c
100
AcDbEntity
8
0-0
6
CONTINUOUS
62
  7
100
AcDbVertex
100
AcDb2dVertex
10
2127.582245842726
20
2499.305310726455
30
0.0
0
VERTEX
5
79d
100
AcDbEntity
8
0-0
6
CONTINUOUS
62
  7
100
AcDbVertex
100
AcDb2dVertex
10
2126.795645044293
20
2499.836132877281
30
0.0
0
VERTEX
5
79e
100
AcDbEntity
8
0-0
6
CONTINUOUS
62
  7
100
AcDbVertex
100
AcDb2dVertex
10
2126.351199263230
20
2500.160411458851
30
0.0
0
VERTEX
5
79f
100
AcDbEntity
8
0-0
6
CONTINUOUS
62
  7
100
AcDbVertex
100
AcDb2dVertex
10
2126.093502027218
20
2500.357872020967
30
0.0
0
VERTEX
5
7a0
100
AcDbEntity
8
0-0
6
CONTINUOUS
62
  7
100
AcDbVertex
100
AcDb2dVertex
10
2125.656263925830
20
2500.708159339673
30
0.0
0
VERTEX
5
7a1
100
AcDbEntity
8
0-0
6
CONTINUOUS
62
  7
100
AcDbVertex
100
AcDb2dVertex
10
2125.226557714099
20
2501.068931202648
30
0.0
0
VERTEX
5
7a2
100
AcDbEntity
8
0-0
6
CONTINUOUS
62
  7
100
AcDbVertex
100
AcDb2dVertex
10
2124.802738874630
20
2501.437898408086
30
0.0
0
VERTEX
5
7a3
100
AcDbEntity
8
0-0
6
CONTINUOUS
62
  7
100
AcDbVertex
100
AcDb2dVertex
10
2124.383162890032
20
2501.812771754182
30
0.0
0
VERTEX
5
7a4
100
AcDbEntity
8
0-0
6
CONTINUOUS
62
  7
100
AcDbVertex
100
AcDb2dVertex
10
2123.966185242913
20
2502.191262039131
30
0.0
0
VERTEX
5
7a5
100
AcDbEntity
8
0-0
6
CONTINUOUS
62
  7
100
AcDbVertex
100
AcDb2dVertex
10
2123.724880740450
20
2502.411541621234
30
0.0
0
SEQEND
5
7a6
100
AcDbEntity
8
0-0
0
LINE
5
7a7
100
AcDbEntity
8
0-0
6
CONTINUOUS
62
7
100
AcDbLine
10
2114.780637600878
20
2502.366154406606
30
0.0
11
2114.780637600878
21
2512.099247882768
31
0.0
0
POLYLINE
5
7a8
100
AcDbEntity
8
0-0
6
CONTINUOUS
62
  7
100
AcDb2dPolyline
66
1
10
0.0
20
0.0
30
0.0
70
0
0
VERTEX
5
7a9
100
AcDbEntity
8
0-0
6
CONTINUOUS
62
  7
100
AcDbVertex
100
AcDb2dVertex
10
2154.128649894578
20
2481.970576395084
30
0.0
0
VERTEX
5
7aa
100
AcDbEntity
8
0-0
6
CONTINUOUS
62
  7
100
AcDbVertex
100
AcDb2dVertex
10
2156.095226543292
20
2482.525561156030
30
0.0
0
VERTEX
5
7ab
100
AcDbEntity
8
0-0
6
CONTINUOUS
62
  7
100
AcDbVertex
100
AcDb2dVertex
10
2159.489190907594
20
2483.477442280992
30
0.0
0
VERTEX
5
7ac
100
AcDbEntity
8
0-0
6
CONTINUOUS
62
  7
100
AcDbVertex
100
AcDb2dVertex
10
2162.892363521811
20
2484.415464648934
30
0.0
0
VERTEX
5
7ad
100
AcDbEntity
8
0-0
6
CONTINUOUS
62
  7
100
AcDbVertex
100
AcDb2dVertex
10
2166.310572392215
20
2485.330856894651
30
0.0
0
VERTEX
5
7ae
100
AcDbEntity
8
0-0
6
CONTINUOUS
62
  7
100
AcDbVertex
100
AcDb2dVertex
10
2169.749645525082
20
2486.214847652938
30
0.0
0
VERTEX
5
7af
100
AcDbEntity
8
0-0
6
CONTINUOUS
62
  7
100
AcDbVertex
100
AcDb2dVertex
10
2173.215410926686
20
2487.058665558593
30
0.0
0
VERTEX
5
7b0
100
AcDbEntity
8
0-0
6
CONTINUOUS
62
  7
100
AcDbVertex
100
AcDb2dVertex
10
2175.240081794680
20
2487.526216368796
30
0.0
0
VERTEX
5
7b1
100
AcDbEntity
8
0-0
6
CONTINUOUS
62
  7
100
AcDbVertex
100
AcDb2dVertex
10
2176.484141722522
20
2487.804574284565
30
0.0
0
VERTEX
5
7b2
100
AcDbEntity
8
0-0
6
CONTINUOUS
62
  7
100
AcDbVertex
100
AcDb2dVertex
10
2178.629882129320
20
2488.287381619808
30
0.0
0
VERTEX
5
7b3
100
AcDbEntity
8
0-0
6
CONTINUOUS
62
  7
100
AcDbVertex
100
AcDb2dVertex
10
2180.761818470271
20
2488.802348520761
30
0.0
0
VERTEX
5
7b4
100
AcDbEntity
8
0-0
6
CONTINUOUS
62
  7
100
AcDbVertex
100
AcDb2dVertex
10
2182.862708018344
20
2489.382630952463
30
0.0
0
VERTEX
5
7b5
100
AcDbEntity
8
0-0
6
CONTINUOUS
62
  7
100
AcDbVertex
100
AcDb2dVertex
10
2184.915308046507
20
2490.061384879955
30
0.0
0
VERTEX
5
7b6
100
AcDbEntity
8
0-0
6
CONTINUOUS
62
  7
100
AcDbVertex
100
AcDb2dVertex
10
2186.902375827728
20
2490.871766268278
30
0.0
0
VERTEX
5
7b7
100
AcDbEntity
8
0-0
6
CONTINUOUS
62
  7
100
AcDbVertex
100
AcDb2dVertex
10
2188.018053734216
20
2491.415164350393
30
0.0
0
VERTEX
5
7b8
100
AcDbEntity
8
0-0
6
CONTINUOUS
62
  7
100
AcDbVertex
100
AcDb2dVertex
10
2188.923180595617
20
2491.912802717032
30
0.0
0
VERTEX
5
7b9
100
AcDbEntity
8
0-0
6
CONTINUOUS
62
  7
100
AcDbVertex
100
AcDb2dVertex
10
2190.438611442165
20
2492.859513137953
30
0.0
0
VERTEX
5
7ba
100
AcDbEntity
8
0-0
6
CONTINUOUS
62
  7
100
AcDbVertex
100
AcDb2dVertex
10
2191.905362574103
20
2493.900542391531
30
0.0
0
VERTEX
5
7bb
100
AcDbEntity
8
0-0
6
CONTINUOUS
62
  7
100
AcDbVertex
100
AcDb2dVertex
10
2193.333259915848
20
2495.014987682269
30
0.0
0
VERTEX
5
7bc
100
AcDbEntity
8
0-0
6
CONTINUOUS
62
  7
100
AcDbVertex
100
AcDb2dVertex
10
2194.732129391820
20
2496.181946214666
30
0.0
0
VERTEX
5
7bd
100
AcDbEntity
8
0-0
6
CONTINUOUS
62
  7
100
AcDbVertex
100
AcDb2dVertex
10
2196.111796926437
20
2497.380515193224
30
0.0
0
VERTEX
5
7be
100
AcDbEntity
8
0-0
6
CONTINUOUS
62
  7
100
AcDbVertex
100
AcDb2dVertex
10
2196.907077692154
20
2498.081932318847
30
0.0
0
VERTEX
5
7bf
100
AcDbEntity
8
0-0
6
CONTINUOUS
62
  7
100
AcDbVertex
100
AcDb2dVertex
10
2197.804509477970
20
2498.876098876117
30
0.0
0
VERTEX
5
7c0
100
AcDbEntity
8
0-0
6
CONTINUOUS
62
  7
100
AcDbVertex
100
AcDb2dVertex
10
2199.339816968422
20
2500.251072825631
30
0.0
0
VERTEX
5
7c1
100
AcDbEntity
8
0-0
6
CONTINUOUS
62
  7
100
AcDbVertex
100
AcDb2dVertex
10
2200.847444231724
20
2501.644104038625
30
0.0
0
VERTEX
5
7c2
100
AcDbEntity
8
0-0
6
CONTINUOUS
62
  7
100
AcDbVertex
100
AcDb2dVertex
10
2202.312850956639
20
2503.067768278398
30
0.0
0
VERTEX
5
7c3
100
AcDbEntity
8
0-0
6
CONTINUOUS
62
  7
100
AcDbVertex
100
AcDb2dVertex
10
2203.721496831930
20
2504.534641308249
30
0.0
0
VERTEX
5
7c4
100
AcDbEntity
8
0-0
6
CONTINUOUS
62
  7
100
AcDbVertex
100
AcDb2dVertex
10
2205.058841546356
20
2506.057298891476
30
0.0
0
VERTEX
5
7c5
100
AcDbEntity
8
0-0
6
CONTINUOUS
62
  7
100
AcDbVertex
100
AcDb2dVertex
10
2205.796101650091
20
2506.970956276784
30
0.0
0
VERTEX
5
7c6
100
AcDbEntity
8
0-0
6
CONTINUOUS
62
  7
100
AcDbVertex
100
AcDb2dVertex
10
2206.455740600971
20
2507.844932906706
30
0.0
0
VERTEX
5
7c7
100
AcDbEntity
8
0-0
6
CONTINUOUS
62
  7
100
AcDbVertex
100
AcDb2dVertex
10
2207.535884007561
20
2509.397663387299
30
0.0
0
VERTEX
5
7c8
100
AcDbEntity
8
0-0
6
CONTINUOUS
62
  7
100
AcDbVertex
100
AcDb2dVertex
10
2208.555105901519
20
2510.999282535347
30
0.0
0
VERTEX
5
7c9
100
AcDbEntity
8
0-0
6
CONTINUOUS
62
  7
100
AcDbVertex
100
AcDb2dVertex
10
2209.526707923155
20
2512.639115969310
30
0.0
0
VERTEX
5
7ca
100
AcDbEntity
8
0-0
6
CONTINUOUS
62
  7
100
AcDbVertex
100
AcDb2dVertex
10
2210.463991712783
20
2514.306489307647
30
0.0
0
VERTEX
5
7cb
100
AcDbEntity
8
0-0
6
CONTINUOUS
62
  7
100
AcDbVertex
100
AcDb2dVertex
10
2211.380258910718
20
2515.990728168818
30
0.0
0
VERTEX
5
7cc
100
AcDbEntity
8
0-0
6
CONTINUOUS
62
  7
100
AcDbVertex
100
AcDb2dVertex
10
2211.907305621174
20
2516.971108229464
30
0.0
0
SEQEND
5
7cd
100
AcDbEntity
8
0-0
0
POLYLINE
5
7ce
100
AcDbEntity
8
0-0
6
CONTINUOUS
62
  7
100
AcDb2dPolyline
66
1
10
0.0
20
0.0
30
0.0
70
0
0
VERTEX
5
7cf
100
AcDbEntity
8
0-0
6
CONTINUOUS
62
  7
100
AcDbVertex
100
AcDb2dVertex
10
2154.128649894578
20
2466.242666504702
30
0.0
0
VERTEX
5
7d0
100
AcDbEntity
8
0-0
6
CONTINUOUS
62
  7
100
AcDbVertex
100
AcDb2dVertex
10
2156.095226543292
20
2466.797651265647
30
0.0
0
VERTEX
5
7d1
100
AcDbEntity
8
0-0
6
CONTINUOUS
62
  7
100
AcDbVertex
100
AcDb2dVertex
10
2159.489190907594
20
2467.749532390611
30
0.0
0
VERTEX
5
7d2
100
AcDbEntity
8
0-0
6
CONTINUOUS
62
  7
100
AcDbVertex
100
AcDb2dVertex
10
2162.892363521811
20
2468.687554758552
30
0.0
0
VERTEX
5
7d3
100
AcDbEntity
8
0-0
6
CONTINUOUS
62
  7
100
AcDbVertex
100
AcDb2dVertex
10
2166.310572392215
20
2469.602947004269
30
0.0
0
VERTEX
5
7d4
100
AcDbEntity
8
0-0
6
CONTINUOUS
62
  7
100
AcDbVertex
100
AcDb2dVertex
10
2169.749645525082
20
2470.486937762556
30
0.0
0
VERTEX
5
7d5
100
AcDbEntity
8
0-0
6
CONTINUOUS
62
  7
100
AcDbVertex
100
AcDb2dVertex
10
2173.215410926686
20
2471.330755668211
30
0.0
0
VERTEX
5
7d6
100
AcDbEntity
8
0-0
6
CONTINUOUS
62
  7
100
AcDbVertex
100
AcDb2dVertex
10
2175.240081794680
20
2471.798306478414
30
0.0
0
VERTEX
5
7d7
100
AcDbEntity
8
0-0
6
CONTINUOUS
62
  7
100
AcDbVertex
100
AcDb2dVertex
10
2176.484141722522
20
2472.076664394182
30
0.0
0
VERTEX
5
7d8
100
AcDbEntity
8
0-0
6
CONTINUOUS
62
  7
100
AcDbVertex
100
AcDb2dVertex
10
2178.629882129320
20
2472.559471729426
30
0.0
0
VERTEX
5
7d9
100
AcDbEntity
8
0-0
6
CONTINUOUS
62
  7
100
AcDbVertex
100
AcDb2dVertex
10
2180.761818470271
20
2473.074438630378
30
0.0
0
VERTEX
5
7da
100
AcDbEntity
8
0-0
6
CONTINUOUS
62
  7
100
AcDbVertex
100
AcDb2dVertex
10
2182.862708018344
20
2473.654721062080
30
0.0
0
VERTEX
5
7db
100
AcDbEntity
8
0-0
6
CONTINUOUS
62
  7
100
AcDbVertex
100
AcDb2dVertex
10
2184.915308046507
20
2474.333474989573
30
0.0
0
VERTEX
5
7dc
100
AcDbEntity
8
0-0
6
CONTINUOUS
62
  7
100
AcDbVertex
100
AcDb2dVertex
10
2186.902375827728
20
2475.143856377895
30
0.0
0
VERTEX
5
7dd
100
AcDbEntity
8
0-0
6
CONTINUOUS
62
  7
100
AcDbVertex
100
AcDb2dVertex
10
2188.018053734216
20
2475.687254460011
30
0.0
0
VERTEX
5
7de
100
AcDbEntity
8
0-0
6
CONTINUOUS
62
  7
100
AcDbVertex
100
AcDb2dVertex
10
2188.923180595617
20
2476.184892826650
30
0.0
0
VERTEX
5
7df
100
AcDbEntity
8
0-0
6
CONTINUOUS
62
  7
100
AcDbVertex
100
AcDb2dVertex
10
2190.438611442165
20
2477.131603247571
30
0.0
0
VERTEX
5
7e0
100
AcDbEntity
8
0-0
6
CONTINUOUS
62
  7
100
AcDbVertex
100
AcDb2dVertex
10
2191.059671509065
20
2477.572401746917
30
0.0
0
SEQEND
5
7e1
100
AcDbEntity
8
0-0
0
POLYLINE
5
7e2
100
AcDbEntity
8
0-0
6
CONTINUOUS
62
  7
100
AcDb2dPolyline
66
1
10
0.0
20
0.0
30
0.0
70
0
0
VERTEX
5
7e3
100
AcDbEntity
8
0-0
6
CONTINUOUS
62
  7
100
AcDbVertex
100
AcDb2dVertex
10
2191.091897492632
20
2477.623883522741
30
0.0
0
VERTEX
5
7e4
100
AcDbEntity
8
0-0
6
CONTINUOUS
62
  7
100
AcDbVertex
100
AcDb2dVertex
10
2192.463948234698
20
2478.605755398407
30
0.0
0
VERTEX
5
7e5
100
AcDbEntity
8
0-0
6
CONTINUOUS
62
  7
100
AcDbVertex
100
AcDb2dVertex
10
2194.831914039949
20
2480.297543092113
30
0.0
0
VERTEX
5
7e6
100
AcDbEntity
8
0-0
6
CONTINUOUS
62
  7
100
AcDbVertex
100
AcDb2dVertex
10
2197.206438393956
20
2481.986289534308
30
0.0
0
VERTEX
5
7e7
100
AcDbEntity
8
0-0
6
CONTINUOUS
62
  7
100
AcDbVertex
100
AcDb2dVertex
10
2199.591672276944
20
2483.670069882260
30
0.0
0
VERTEX
5
7e8
100
AcDbEntity
8
0-0
6
CONTINUOUS
62
  7
100
AcDbVertex
100
AcDb2dVertex
10
2201.991766669139
20
2485.346959293242
30
0.0
0
VERTEX
5
7e9
100
AcDbEntity
8
0-0
6
CONTINUOUS
62
  7
100
AcDbVertex
100
AcDb2dVertex
10
2204.410872550765
20
2487.015032924524
30
0.0
0
VERTEX
5
7ea
100
AcDbEntity
8
0-0
6
CONTINUOUS
62
  7
100
AcDbVertex
100
AcDb2dVertex
10
2205.824300728625
20
2487.977717752282
30
0.0
0
VERTEX
5
7eb
100
AcDbEntity
8
0-0
6
CONTINUOUS
62
  7
100
AcDbVertex
100
AcDb2dVertex
10
2206.639479685089
20
2488.529622063486
30
0.0
0
VERTEX
5
7ec
100
AcDbEntity
8
0-0
6
CONTINUOUS
62
  7
100
AcDbVertex
100
AcDb2dVertex
10
2208.040285652742
20
2489.488756789641
30
0.0
0
VERTEX
5
7ed
100
AcDbEntity
8
0-0
6
CONTINUOUS
62
  7
100
AcDbVertex
100
AcDb2dVertex
10
2209.418025138462
20
2490.473609121942
30
0.0
0
VERTEX
5
7ee
100
AcDbEntity
8
0-0
6
CONTINUOUS
62
  7
100
AcDbVertex
100
AcDb2dVertex
10
2210.752757711048
20
2491.502932872491
30
0.0
0
VERTEX
5
7ef
100
AcDbEntity
8
0-0
6
CONTINUOUS
62
  7
100
AcDbVertex
100
AcDb2dVertex
10
2212.024542939297
20
2492.595481853398
30
0.0
0
VERTEX
5
7f0
100
AcDbEntity
8
0-0
6
CONTINUOUS
62
  7
100
AcDbVertex
100
AcDb2dVertex
10
2213.213440392008
20
2493.770009876766
30
0.0
0
VERTEX
5
7f1
100
AcDbEntity
8
0-0
6
CONTINUOUS
62
  7
100
AcDbVertex
100
AcDb2dVertex
10
2213.857164169032
20
2494.496188904745
30
0.0
0
VERTEX
5
7f2
100
AcDbEntity
8
0-0
6
CONTINUOUS
62
  7
100
AcDbVertex
100
AcDb2dVertex
10
2213.933316266836
20
2494.587466533712
30
0.0
0
VERTEX
5
7f3
100
AcDbEntity
8
0-0
6
CONTINUOUS
62
  7
100
AcDbVertex
100
AcDb2dVertex
10
2214.063419987152
20
2494.746005726310
30
0.0
0
VERTEX
5
7f4
100
AcDbEntity
8
0-0
6
CONTINUOUS
62
  7
100
AcDbVertex
100
AcDb2dVertex
10
2214.192252314093
20
2494.905785374908
30
0.0
0
VERTEX
5
7f5
100
AcDbEntity
8
0-0
6
CONTINUOUS
62
  7
100
AcDbVertex
100
AcDb2dVertex
10
2214.320090844467
20
2495.066534637584
30
0.0
0
VERTEX
5
7f6
100
AcDbEntity
8
0-0
6
CONTINUOUS
62
  7
100
AcDbVertex
100
AcDb2dVertex
10
2214.447213175079
20
2495.227982672416
30
0.0
0
VERTEX
5
7f7
100
AcDbEntity
8
0-0
6
CONTINUOUS
62
  7
100
AcDbVertex
100
AcDb2dVertex
10
2214.573896902738
20
2495.389858637484
30
0.0
0
VERTEX
5
7f8
100
AcDbEntity
8
0-0
6
CONTINUOUS
62
  7
100
AcDbVertex
100
AcDb2dVertex
10
2214.647281884482
20
2495.483836049057
30
0.0
0
SEQEND
5
7f9
100
AcDbEntity
8
0-0
0
ARC
5
7fa
100
AcDbEntity
8
0-0
6
CONTINUOUS
62
7
100
AcDbCircle
10
2317.464288115139
20
2644.657943822774
30
0.0
40
108.106000000000
100
AcDbArc
50
153.130922332474
51
228.640131777358
0
ARC
5
7fb
100
AcDbEntity
8
0-0
6
CONTINUOUS
62
7
100
AcDbCircle
10
2216.265288115139
20
2546.895943822774
30
0.0
40
34.090000000000
100
AcDbArc
50
3.582179239578
51
29.179016858602
0
ARC
5
7fc
100
AcDbEntity
8
0-0
6
CONTINUOUS
62
7
100
AcDbCircle
10
-4813.887711884863
20
2703.248943822774
30
0.0
40
7065.860000000002
100
AcDbArc
50
357.649955146337
51
358.749338130972
0
LINE
5
7fd
100
AcDbEntity
8
0-0
6
CONTINUOUS
62
7
100
AcDbLine
10
2191.030288115139
20
2973.515943822774
30
0.0
11
2521.030288115139
21
2973.515943822774
31
0.0
0
LINE
5
7fe
100
AcDbEntity
8
0-0
6
CONTINUOUS
62
7
100
AcDbLine
10
2196.030288115139
20
3013.515943822774
30
0.0
11
2516.030288115139
21
3013.515943822774
31
0.0
0
LINE
5
7ff
100
AcDbEntity
8
0-0
6
CONTINUOUS
62
7
100
AcDbLine
10
2521.030288115139
20
3008.515943822774
30
0.0
11
2521.030288115139
21
2733.515943822774
31
0.0
0
LINE
5
800
100
AcDbEntity
8
0-0
6
CONTINUOUS
62
7
100
AcDbLine
10
2191.030288115139
20
3008.515943822774
30
0.0
11
2191.030288115139
21
2733.515943822774
31
0.0
0
LINE
5
801
100
AcDbEntity
8
0-0
6
CONTINUOUS
62
7
100
AcDbLine
10
2491.030288115139
20
2733.515943822774
30
0.0
11
2221.030288115139
21
2733.515943822774
31
0.0
0
LINE
5
802
100
AcDbEntity
8
0-0
6
CONTINUOUS
62
7
100
AcDbLine
10
2491.030288115139
20
2693.515943822774
30
0.0
11
2221.030288115139
21
2693.515943822774
31
0.0
0
POLYLINE
5
803
100
AcDbEntity
8
0-0
6
CONTINUOUS
62
  7
100
AcDb2dPolyline
66
1
10
0.0
20
0.0
30
0.0
70
0
0
VERTEX
5
804
100
AcDbEntity
8
0-0
6
CONTINUOUS
62
  7
100
AcDbVertex
100
AcDb2dVertex
10
2331.030288115139
20
3013.515943822774
30
0.0
0
VERTEX
5
805
100
AcDbEntity
8
0-0
6
CONTINUOUS
62
  7
100
AcDbVertex
100
AcDb2dVertex
10
2331.030288115139
20
3016.515943822774
30
0.0
0
VERTEX
5
806
100
AcDbEntity
8
0-0
6
CONTINUOUS
62
  7
100
AcDbVertex
100
AcDb2dVertex
10
2381.030288115139
20
3016.515943822774
30
0.0
0
VERTEX
5
807
100
AcDbEntity
8
0-0
6
CONTINUOUS
62
  7
100
AcDbVertex
100
AcDb2dVertex
10
2381.030288115139
20
3013.515943822774
30
0.0
0
SEQEND
5
808
100
AcDbEntity
8
0-0
0
POLYLINE
5
809
100
AcDbEntity
8
0-0
6
CONTINUOUS
62
  7
100
AcDb2dPolyline
66
1
10
0.0
20
0.0
30
0.0
70
0
0
VERTEX
5
80a
100
AcDbEntity
8
0-0
6
CONTINUOUS
62
  7
100
AcDbVertex
100
AcDb2dVertex
10
2341.030288115139
20
3016.515943822774
30
0.0
0
VERTEX
5
80b
100
AcDbEntity
8
0-0
6
CONTINUOUS
62
  7
100
AcDbVertex
100
AcDb2dVertex
10
2341.030288115139
20
3018.515943822774
30
0.0
0
VERTEX
5
80c
100
AcDbEntity
8
0-0
6
CONTINUOUS
62
  7
100
AcDbVertex
100
AcDb2dVertex
10
2371.030288115139
20
3018.515943822774
30
0.0
0
VERTEX
5
80d
100
AcDbEntity
8
0-0
6
CONTINUOUS
62
  7
100
AcDbVertex
100
AcDb2dVertex
10
2371.030288115139
20
3016.515943822774
30
0.0
0
SEQEND
5
80e
100
AcDbEntity
8
0-0
0
LINE
5
80f
100
AcDbEntity
8
0-0
6
CONTINUOUS
62
7
100
AcDbLine
10
2211.030288115139
20
2743.515943822774
30
0.0
11
2211.030288115139
21
2735.515943822774
31
0.0
0
LINE
5
810
100
AcDbEntity
8
0-0
6
CONTINUOUS
62
7
100
AcDbLine
10
2221.030288115139
20
2763.515943822774
30
0.0
11
2221.030288115139
21
2758.515943822774
31
0.0
0
LINE
5
811
100
AcDbEntity
8
0-0
6
CONTINUOUS
62
7
100
AcDbLine
10
2491.030288115139
20
2763.515943822774
30
0.0
11
2491.030288115139
21
2758.515943822774
31
0.0
0
LINE
5
812
100
AcDbEntity
8
0-0
6
CONTINUOUS
62
7
100
AcDbLine
10
2501.030288115139
20
2743.515943822774
30
0.0
11
2501.030288115139
21
2735.515943822774
31
0.0
0
LINE
5
813
100
AcDbEntity
8
0-0
6
CONTINUOUS
62
7
100
AcDbLine
10
2476.030288115139
20
2778.515943822774
30
0.0
11
2236.030288115139
21
2778.515943822774
31
0.0
0
LINE
5
814
100
AcDbEntity
8
0-0
6
CONTINUOUS
62
7
100
AcDbLine
10
2491.030288115139
20
2758.515943822774
30
0.0
11
2221.030288115139
21
2758.515943822774
31
0.0
0
LINE
5
815
100
AcDbEntity
8
0-0
6
CONTINUOUS
62
7
100
AcDbLine
10
2501.030288115139
20
2735.515943822774
30
0.0
11
2211.030288115139
21
2735.515943822774
31
0.0
0
LINE
5
816
100
AcDbEntity
8
0-0
6
CONTINUOUS
62
7
100
AcDbLine
10
2483.530288115139
20
2735.515943822774
30
0.0
11
2483.530288115139
21
2733.515943822774
31
0.0
0
LINE
5
817
100
AcDbEntity
8
0-0
6
CONTINUOUS
62
7
100
AcDbLine
10
2473.530288115139
20
2735.515943822774
30
0.0
11
2473.530288115139
21
2733.515943822774
31
0.0
0
LINE
5
818
100
AcDbEntity
8
0-0
6
CONTINUOUS
62
7
100
AcDbLine
10
2248.530288115139
20
2735.515943822774
30
0.0
11
2248.530288115139
21
2733.515943822774
31
0.0
0
LINE
5
819
100
AcDbEntity
8
0-0
6
CONTINUOUS
62
7
100
AcDbLine
10
2238.530288115139
20
2735.515943822774
30
0.0
11
2238.530288115139
21
2733.515943822774
31
0.0
0
ARC
5
81a
100
AcDbEntity
8
0-0
6
CONTINUOUS
62
7
100
AcDbCircle
10
2196.030288115139
20
3008.515943822774
30
0.0
40
5.000000000000
100
AcDbArc
50
90.000000000000
51
180.000000000000
0
ARC
5
81b
100
AcDbEntity
8
0-0
6
CONTINUOUS
62
7
100
AcDbCircle
10
2516.030288115139
20
3008.515943822774
30
0.0
40
5.000000000000
100
AcDbArc
50
0.000000000000
51
90.000000000000
0
ARC
5
81c
100
AcDbEntity
8
0-0
6
CONTINUOUS
62
7
100
AcDbCircle
10
2221.030288115139
20
2713.515943822774
30
0.0
40
20.000000000000
100
AcDbArc
50
90.000000000000
51
270.000000000000
0
ARC
5
81d
100
AcDbEntity
8
0-0
6
CONTINUOUS
62
7
100
AcDbCircle
10
2491.030288115139
20
2713.515943822774
30
0.0
40
20.000000000000
100
AcDbArc
50
270.000000000000
51
450.000000000000
0
ARC
5
81e
100
AcDbEntity
8
0-0
6
CONTINUOUS
62
7
100
AcDbCircle
10
2394.595288115138
20
2644.657943822774
30
0.0
40
108.106000000000
100
AcDbArc
50
311.359868222642
51
386.869077667526
0
ARC
5
81f
100
AcDbEntity
8
0-0
6
CONTINUOUS
62
7
100
AcDbCircle
10
2495.794288115139
20
2546.895943822774
30
0.0
40
34.090000000000
100
AcDbArc
50
150.820979501805
51
176.417817120829
0
ARC
5
820
100
AcDbEntity
8
0-0
6
CONTINUOUS
62
7
100
AcDbCircle
10
9525.947288115140
20
2703.248943822774
30
0.0
40
7065.860000000002
100
AcDbArc
50
181.250662291428
51
182.350045276063
0
ARC
5
821
100
AcDbEntity
8
0-0
6
CONTINUOUS
62
7
100
AcDbCircle
10
2356.030288115139
20
3109.155943822775
30
0.0
40
555.650000000000
100
AcDbArc
50
259.107000000000
51
280.893000000000
0
ARC
5
822
100
AcDbEntity
8
0-0
6
CONTINUOUS
62
7
100
AcDbCircle
10
2226.030288115139
20
2743.515943822774
30
0.0
40
15.000000000000
100
AcDbArc
50
90.000000000000
51
180.000000000000
0
ARC
5
823
100
AcDbEntity
8
0-0
6
CONTINUOUS
62
7
100
AcDbCircle
10
2486.030288115139
20
2743.515943822774
30
0.0
40
15.000000000000
100
AcDbArc
50
0.000000000000
51
90.000000000000
0
ARC
5
824
100
AcDbEntity
8
0-0
6
CONTINUOUS
62
7
100
AcDbCircle
10
2236.030288115139
20
2763.515943822774
30
0.0
40
15.000000000000
100
AcDbArc
50
90.000000000000
51
180.000000000000
0
ARC
5
825
100
AcDbEntity
8
0-0
6
CONTINUOUS
62
7
100
AcDbCircle
10
2476.030288115139
20
2763.515943822774
30
0.0
40
15.000000000000
100
AcDbArc
50
0.000000000000
51
90.000000000000
0
POLYLINE
5
826
100
AcDbEntity
8
0-0
6
CONTINUOUS
62
  7
100
AcDb2dPolyline
66
1
10
0.0
20
0.0
30
0.0
70
0
0
VERTEX
5
827
100
AcDbEntity
8
0-0
6
CONTINUOUS
62
  7
100
AcDbVertex
100
AcDb2dVertex
10
2215.657107070819
20
2413.479599832045
30
0.0
0
VERTEX
5
828
100
AcDbEntity
8
0-0
6
CONTINUOUS
62
  7
100
AcDbVertex
100
AcDb2dVertex
10
2215.815419165991
20
2419.859213298487
30
0.0
0
VERTEX
5
829
100
AcDbEntity
8
0-0
6
CONTINUOUS
62
  7
100
AcDbVertex
100
AcDb2dVertex
10
2216.058026153237
20
2430.856711024995
30
0.0
0
VERTEX
5
82a
100
AcDbEntity
8
0-0
6
CONTINUOUS
62
  7
100
AcDbVertex
100
AcDb2dVertex
10
2216.216341748873
20
2441.849109206158
30
0.0
0
VERTEX
5
82b
100
AcDbEntity
8
0-0
6
CONTINUOUS
62
  7
100
AcDbVertex
100
AcDb2dVertex
10
2216.237016970867
20
2452.833180281632
30
0.0
0
VERTEX
5
82c
100
AcDbEntity
8
0-0
6
CONTINUOUS
62
  7
100
AcDbVertex
100
AcDb2dVertex
10
2216.066702837186
20
2463.805696691073
30
0.0
0
VERTEX
5
82d
100
AcDbEntity
8
0-0
6
CONTINUOUS
62
  7
100
AcDbVertex
100
AcDb2dVertex
10
2215.652050365799
20
2474.763430874137
30
0.0
0
VERTEX
5
82e
100
AcDbEntity
8
0-0
6
CONTINUOUS
62
  7
100
AcDbVertex
100
AcDb2dVertex
10
2215.278573832989
20
2481.110871657578
30
0.0
0
VERTEX
5
82f
100
AcDbEntity
8
0-0
6
CONTINUOUS
62
  7
100
AcDbVertex
100
AcDb2dVertex
10
2214.884323745686
20
2486.413602247960
30
0.0
0
VERTEX
5
830
100
AcDbEntity
8
0-0
6
CONTINUOUS
62
  7
100
AcDbVertex
100
AcDb2dVertex
10
2214.048734600621
20
2495.546900204491
30
0.0
0
VERTEX
5
831
100
AcDbEntity
8
0-0
6
CONTINUOUS
62
  7
100
AcDbVertex
100
AcDb2dVertex
10
2213.054699506831
20
2504.670855764543
30
0.0
0
VERTEX
5
832
100
AcDbEntity
8
0-0
6
CONTINUOUS
62
  7
100
AcDbVertex
100
AcDb2dVertex
10
2211.947369061515
20
2513.788354561300
30
0.0
0
VERTEX
5
833
100
AcDbEntity
8
0-0
6
CONTINUOUS
62
  7
100
AcDbVertex
100
AcDb2dVertex
10
2210.771893861879
20
2522.902282227945
30
0.0
0
VERTEX
5
834
100
AcDbEntity
8
0-0
6
CONTINUOUS
62
  7
100
AcDbVertex
100
AcDb2dVertex
10
2209.573424505119
20
2532.015524397661
30
0.0
0
VERTEX
5
835
100
AcDbEntity
8
0-0
6
CONTINUOUS
62
  7
100
AcDbVertex
100
AcDb2dVertex
10
2208.885568038535
20
2537.302027850932
30
0.0
0
VERTEX
5
836
100
AcDbEntity
8
0-0
6
CONTINUOUS
62
  7
100
AcDbVertex
100
AcDb2dVertex
10
2206.597424138243
20
2555.818285968069
30
0.0
0
VERTEX
5
837
100
AcDbEntity
8
0-0
6
CONTINUOUS
62
  7
100
AcDbVertex
100
AcDb2dVertex
10
2203.065682157276
20
2587.775989494651
30
0.0
0
VERTEX
5
838
100
AcDbEntity
8
0-0
6
CONTINUOUS
62
  7
100
AcDbVertex
100
AcDb2dVertex
10
2199.974434495953
20
2619.768989975878
30
0.0
0
VERTEX
5
839
100
AcDbEntity
8
0-0
6
CONTINUOUS
62
  7
100
AcDbVertex
100
AcDb2dVertex
10
2197.227503355226
20
2651.789580653093
30
0.0
0
VERTEX
5
83a
100
AcDbEntity
8
0-0
6
CONTINUOUS
62
  7
100
AcDbVertex
100
AcDb2dVertex
10
2194.728710936045
20
2683.830054767641
30
0.0
0
VERTEX
5
83b
100
AcDbEntity
8
0-0
6
CONTINUOUS
62
  7
100
AcDbVertex
100
AcDb2dVertex
10
2192.381879439361
20
2715.882705560865
30
0.0
0
VERTEX
5
83c
100
AcDbEntity
8
0-0
6
CONTINUOUS
62
  7
100
AcDbVertex
100
AcDb2dVertex
10
2191.052446611903
20
2734.475785511443
30
0.0
0
SEQEND
5
83d
100
AcDbEntity
8
0-0
0
POLYLINE
5
83e
100
AcDbEntity
8
0-0
6
CONTINUOUS
62
  7
100
AcDb2dPolyline
66
1
10
0.0
20
0.0
30
0.0
70
0
0
VERTEX
5
83f
100
AcDbEntity
8
0-0
6
CONTINUOUS
62
  7
100
AcDbVertex
100
AcDb2dVertex
10
2496.403469159458
20
2413.479599832045
30
0.0
0
VERTEX
5
840
100
AcDbEntity
8
0-0
6
CONTINUOUS
62
  7
100
AcDbVertex
100
AcDb2dVertex
10
2496.245157064287
20
2419.859213298487
30
0.0
0
VERTEX
5
841
100
AcDbEntity
8
0-0
6
CONTINUOUS
62
  7
100
AcDbVertex
100
AcDb2dVertex
10
2496.002550077040
20
2430.856711024995
30
0.0
0
VERTEX
5
842
100
AcDbEntity
8
0-0
6
CONTINUOUS
62
  7
100
AcDbVertex
100
AcDb2dVertex
10
2495.844234481404
20
2441.849109206158
30
0.0
0
VERTEX
5
843
100
AcDbEntity
8
0-0
6
CONTINUOUS
62
  7
100
AcDbVertex
100
AcDb2dVertex
10
2495.823559259411
20
2452.833180281632
30
0.0
0
VERTEX
5
844
100
AcDbEntity
8
0-0
6
CONTINUOUS
62
  7
100
AcDbVertex
100
AcDb2dVertex
10
2495.993873393091
20
2463.805696691073
30
0.0
0
VERTEX
5
845
100
AcDbEntity
8
0-0
6
CONTINUOUS
62
  7
100
AcDbVertex
100
AcDb2dVertex
10
2496.408525864478
20
2474.763430874137
30
0.0
0
VERTEX
5
846
100
AcDbEntity
8
0-0
6
CONTINUOUS
62
  7
100
AcDbVertex
100
AcDb2dVertex
10
2496.782002397288
20
2481.110871657578
30
0.0
0
VERTEX
5
847
100
AcDbEntity
8
0-0
6
CONTINUOUS
62
  7
100
AcDbVertex
100
AcDb2dVertex
10
2497.176252484591
20
2486.413602247960
30
0.0
0
VERTEX
5
848
100
AcDbEntity
8
0-0
6
CONTINUOUS
62
  7
100
AcDbVertex
100
AcDb2dVertex
10
2498.011841629656
20
2495.546900204491
30
0.0
0
VERTEX
5
849
100
AcDbEntity
8
0-0
6
CONTINUOUS
62
  7
100
AcDbVertex
100
AcDb2dVertex
10
2499.005876723448
20
2504.670855764543
30
0.0
0
VERTEX
5
84a
100
AcDbEntity
8
0-0
6
CONTINUOUS
62
  7
100
AcDbVertex
100
AcDb2dVertex
10
2500.113207168763
20
2513.788354561300
30
0.0
0
VERTEX
5
84b
100
AcDbEntity
8
0-0
6
CONTINUOUS
62
  7
100
AcDbVertex
100
AcDb2dVertex
10
2501.288682368400
20
2522.902282227945
30
0.0
0
VERTEX
5
84c
100
AcDbEntity
8
0-0
6
CONTINUOUS
62
  7
100
AcDbVertex
100
AcDb2dVertex
10
2502.487151725158
20
2532.015524397661
30
0.0
0
VERTEX
5
84d
100
AcDbEntity
8
0-0
6
CONTINUOUS
62
  7
100
AcDbVertex
100
AcDb2dVertex
10
2503.175008191742
20
2537.302027850932
30
0.0
0
VERTEX
5
84e
100
AcDbEntity
8
0-0
6
CONTINUOUS
62
  7
100
AcDbVertex
100
AcDb2dVertex
10
2505.463152092034
20
2555.818285968069
30
0.0
0
VERTEX
5
84f
100
AcDbEntity
8
0-0
6
CONTINUOUS
62
  7
100
AcDbVertex
100
AcDb2dVertex
10
2508.994894073001
20
2587.775989494651
30
0.0
0
VERTEX
5
850
100
AcDbEntity
8
0-0
6
CONTINUOUS
62
  7
100
AcDbVertex
100
AcDb2dVertex
10
2512.086141734324
20
2619.768989975878
30
0.0
0
VERTEX
5
851
100
AcDbEntity
8
0-0
6
CONTINUOUS
62
  7
100
AcDbVertex
100
AcDb2dVertex
10
2514.833072875052
20
2651.789580653093
30
0.0
0
VERTEX
5
852
100
AcDbEntity
8
0-0
6
CONTINUOUS
62
  7
100
AcDbVertex
100
AcDb2dVertex
10
2517.331865294232
20
2683.830054767641
30
0.0
0
VERTEX
5
853
100
AcDbEntity
8
0-0
6
CONTINUOUS
62
  7
100
AcDbVertex
100
AcDb2dVertex
10
2519.678696790916
20
2715.882705560865
30
0.0
0
VERTEX
5
854
100
AcDbEntity
8
0-0
6
CONTINUOUS
62
  7
100
AcDbVertex
100
AcDb2dVertex
10
2521.008129618374
20
2734.475785511443
30
0.0
0
SEQEND
5
855
100
AcDbEntity
8
0-0
0
LINE
5
856
100
AcDbEntity
8
0-0
6
CONTINUOUS
62
7
100
AcDbLine
10
2215.932555646200
20
2413.706321837306
30
0.0
11
2496.407751161639
21
2413.706321837306
31
0.0
0
ARC
5
857
100
AcDbEntity
8
0-0
6
CONTINUOUS
62
7
100
AcDbCircle
10
2315.194304070117
20
1132.554839101275
30
0.0
40
108.106000000000
100
AcDbArc
50
153.130922332474
51
228.640131777358
0
ARC
5
858
100
AcDbEntity
8
0-0
6
CONTINUOUS
62
7
100
AcDbCircle
10
2213.995304070117
20
1034.792839101275
30
0.0
40
34.090000000000
100
AcDbArc
50
3.582179239578
51
29.179016858602
0
ARC
5
859
100
AcDbEntity
8
0-0
6
CONTINUOUS
62
7
100
AcDbCircle
10
-4816.157695929883
20
1191.145839101275
30
0.0
40
7065.860000000002
100
AcDbArc
50
357.649955146337
51
358.749338130972
0
LINE
5
85a
100
AcDbEntity
8
0-0
6
DASHED
62
7
100
AcDbLine
10
2095.131453487633
20
1035.942618367085
30
0.0
11
2095.025601265802
21
1037.292563521063
31
0.0
0
ARC
5
85b
100
AcDbEntity
8
0-0
6
CONTINUOUS
62
7
100
AcDbCircle
10
2101.384669284479
20
1029.847343890006
30
0.0
40
9.625929816131
100
AcDbArc
50
141.441277284353
51
218.558722715647
0
ARC
5
85c
100
AcDbEntity
8
0-0
6
CONTINUOUS
62
7
100
AcDbCircle
10
2121.384669284479
20
1029.847343890006
30
0.0
40
9.625929816131
100
AcDbArc
50
141.441277284353
51
218.558722715647
0
ARC
5
85d
100
AcDbEntity
8
0-0
6
CONTINUOUS
62
7
100
AcDbCircle
10
2106.330297849567
20
1029.847343890006
30
0.0
40
9.625929816131
100
AcDbArc
50
321.441277284353
51
398.558722715647
0
ARC
5
85e
100
AcDbEntity
8
0-0
6
CONTINUOUS
62
7
100
AcDbCircle
10
2086.330297849567
20
1029.847343890006
30
0.0
40
9.625929816131
100
AcDbArc
50
321.441277284353
51
398.558722715647
0
ARC
5
85f
100
AcDbEntity
8
0-0
6
CONTINUOUS
62
7
100
AcDbCircle
10
2106.199700640271
20
1029.847343890006
30
0.0
40
6.440961171922
100
AcDbArc
50
111.324157753203
51
217.825680452866
0
ARC
5
860
100
AcDbEntity
8
0-0
6
CONTINUOUS
62
7
100
AcDbCircle
10
2101.515266493775
20
1029.847343890006
30
0.0
40
6.440961171922
100
AcDbArc
50
322.174319547135
51
428.675842246797
0
CIRCLE
5
861
100
AcDbEntity
8
0-0
6
CONTINUOUS
62
7
100
AcDbCircle
10
2103.857483567023
20
1000.847343890006
30
0.0
40
5.560000000000
0
LINE
5
862
100
AcDbEntity
8
0-0
6
CONTINUOUS
62
7
100
AcDbLine
10
2093.857483567023
20
1035.847343890006
30
0.0
11
2113.857483567023
21
1035.847343890006
31
0.0
0
ELLIPSE
  5
863
100
AcDbEntity
8
0-0
6
CONTINUOUS
62
7
100
AcDbEllipse
10
2103.574225187425
20
1000.885074636548
30
0.0
11
0.000000000000
21
24.534999686935
31
0.0
210
0.0
220
0.0
230
1.0
40
0.500000000000
41
0.000000000000
42
6.283185307180
0
LINE
5
864
100
AcDbEntity
8
0-0
6
CONTINUOUS
62
7
100
AcDbLine
10
2093.765206078695
20
1023.814050694517
30
0.0
11
2099.095118251589
21
1023.814050694517
31
0.0
0
LINE
5
865
100
AcDbEntity
8
0-0
6
CONTINUOUS
62
7
100
AcDbLine
10
2107.978305206412
20
1023.814050694517
30
0.0
11
2113.752376727047
21
1023.814050694517
31
0.0
0
LINE
5
866
100
AcDbEntity
8
0-0
6
CONTINUOUS
62
7
100
AcDbLine
10
2094.114639499193
20
1023.763530199987
30
0.0
11
2094.114639499193
21
1016.788895260734
31
0.0
0
LINE
5
867
100
AcDbEntity
8
0-0
6
CONTINUOUS
62
7
100
AcDbLine
10
2113.663264188085
20
1023.763530199987
30
0.0
11
2113.663264188085
21
1014.824209362353
31
0.0
0
LINE
5
868
100
AcDbEntity
8
0-0
6
CONTINUOUS
62
7
100
AcDbLine
10
2188.760304070117
20
1461.412839101275
30
0.0
11
2518.760304070117
21
1461.412839101275
31
0.0
0
LINE
5
869
100
AcDbEntity
8
0-0
6
CONTINUOUS
62
7
100
AcDbLine
10
2193.760304070117
20
1501.412839101275
30
0.0
11
2513.760304070117
21
1501.412839101275
31
0.0
0
LINE
5
86a
100
AcDbEntity
8
0-0
6
CONTINUOUS
62
7
100
AcDbLine
10
2518.760304070117
20
1496.412839101275
30
0.0
11
2518.760304070117
21
1221.412839101275
31
0.0
0
LINE
5
86b
100
AcDbEntity
8
0-0
6
CONTINUOUS
62
7
100
AcDbLine
10
2188.760304070117
20
1496.412839101275
30
0.0
11
2188.760304070117
21
1221.412839101275
31
0.0
0
LINE
5
86c
100
AcDbEntity
8
0-0
6
CONTINUOUS
62
7
100
AcDbLine
10
2488.760304070117
20
1221.412839101275
30
0.0
11
2218.760304070117
21
1221.412839101275
31
0.0
0
LINE
5
86d
100
AcDbEntity
8
0-0
6
CONTINUOUS
62
7
100
AcDbLine
10
2488.760304070117
20
1181.412839101275
30
0.0
11
2218.760304070117
21
1181.412839101275
31
0.0
0
POLYLINE
5
86e
100
AcDbEntity
8
0-0
6
CONTINUOUS
62
  7
100
AcDb2dPolyline
66
1
10
0.0
20
0.0
30
0.0
70
0
0
VERTEX
5
86f
100
AcDbEntity
8
0-0
6
CONTINUOUS
62
  7
100
AcDbVertex
100
AcDb2dVertex
10
2328.760304070117
20
1501.412839101275
30
0.0
0
VERTEX
5
870
100
AcDbEntity
8
0-0
6
CONTINUOUS
62
  7
100
AcDbVertex
100
AcDb2dVertex
10
2328.760304070117
20
1504.412839101275
30
0.0
0
VERTEX
5
871
100
AcDbEntity
8
0-0
6
CONTINUOUS
62
  7
100
AcDbVertex
100
AcDb2dVertex
10
2378.760304070117
20
1504.412839101275
30
0.0
0
VERTEX
5
872
100
AcDbEntity
8
0-0
6
CONTINUOUS
62
  7
100
AcDbVertex
100
AcDb2dVertex
10
2378.760304070117
20
1501.412839101275
30
0.0
0
SEQEND
5
873
100
AcDbEntity
8
0-0
0
POLYLINE
5
874
100
AcDbEntity
8
0-0
6
CONTINUOUS
62
  7
100
AcDb2dPolyline
66
1
10
0.0
20
0.0
30
0.0
70
0
0
VERTEX
5
875
100
AcDbEntity
8
0-0
6
CONTINUOUS
62
  7
100
AcDbVertex
100
AcDb2dVertex
10
2338.760304070117
20
1504.412839101275
30
0.0
0
VERTEX
5
876
100
AcDbEntity
8
0-0
6
CONTINUOUS
62
  7
100
AcDbVertex
100
AcDb2dVertex
10
2338.760304070117
20
1506.412839101275
30
0.0
0
VERTEX
5
877
100
AcDbEntity
8
0-0
6
CONTINUOUS
62
  7
100
AcDbVertex
100
AcDb2dVertex
10
2368.760304070117
20
1506.412839101275
30
0.0
0
VERTEX
5
878
100
AcDbEntity
8
0-0
6
CONTINUOUS
62
  7
100
AcDbVertex
100
AcDb2dVertex
10
2368.760304070117
20
1504.412839101275
30
0.0
0
SEQEND
5
879
100
AcDbEntity
8
0-0
0
LINE
5
87a
100
AcDbEntity
8
0-0
6
CONTINUOUS
62
7
100
AcDbLine
10
2208.760304070117
20
1231.412839101275
30
0.0
11
2208.760304070117
21
1223.412839101275
31
0.0
0
LINE
5
87b
100
AcDbEntity
8
0-0
6
CONTINUOUS
62
7
100
AcDbLine
10
2218.760304070117
20
1251.412839101275
30
0.0
11
2218.760304070117
21
1246.412839101275
31
0.0
0
LINE
5
87c
100
AcDbEntity
8
0-0
6
CONTINUOUS
62
7
100
AcDbLine
10
2488.760304070117
20
1251.412839101275
30
0.0
11
2488.760304070117
21
1246.412839101275
31
0.0
0
LINE
5
87d
100
AcDbEntity
8
0-0
6
CONTINUOUS
62
7
100
AcDbLine
10
2498.760304070117
20
1231.412839101275
30
0.0
11
2498.760304070117
21
1223.412839101275
31
0.0
0
LINE
5
87e
100
AcDbEntity
8
0-0
6
CONTINUOUS
62
7
100
AcDbLine
10
2473.760304070117
20
1266.412839101275
30
0.0
11
2233.760304070117
21
1266.412839101275
31
0.0
0
LINE
5
87f
100
AcDbEntity
8
0-0
6
CONTINUOUS
62
7
100
AcDbLine
10
2488.760304070117
20
1246.412839101275
30
0.0
11
2218.760304070117
21
1246.412839101275
31
0.0
0
LINE
5
880
100
AcDbEntity
8
0-0
6
CONTINUOUS
62
7
100
AcDbLine
10
2498.760304070117
20
1223.412839101275
30
0.0
11
2208.760304070117
21
1223.412839101275
31
0.0
0
LINE
5
881
100
AcDbEntity
8
0-0
6
CONTINUOUS
62
7
100
AcDbLine
10
2481.260304070117
20
1223.412839101275
30
0.0
11
2481.260304070117
21
1221.412839101275
31
0.0
0
LINE
5
882
100
AcDbEntity
8
0-0
6
CONTINUOUS
62
7
100
AcDbLine
10
2471.260304070117
20
1223.412839101275
30
0.0
11
2471.260304070117
21
1221.412839101275
31
0.0
0
LINE
5
883
100
AcDbEntity
8
0-0
6
CONTINUOUS
62
7
100
AcDbLine
10
2246.260304070117
20
1223.412839101275
30
0.0
11
2246.260304070117
21
1221.412839101275
31
0.0
0
LINE
5
884
100
AcDbEntity
8
0-0
6
CONTINUOUS
62
7
100
AcDbLine
10
2236.260304070117
20
1223.412839101275
30
0.0
11
2236.260304070117
21
1221.412839101275
31
0.0
0
ARC
5
885
100
AcDbEntity
8
0-0
6
CONTINUOUS
62
7
100
AcDbCircle
10
2193.760304070117
20
1496.412839101275
30
0.0
40
5.000000000000
100
AcDbArc
50
90.000000000000
51
180.000000000000
0
ARC
5
886
100
AcDbEntity
8
0-0
6
CONTINUOUS
62
7
100
AcDbCircle
10
2513.760304070117
20
1496.412839101275
30
0.0
40
5.000000000000
100
AcDbArc
50
0.000000000000
51
90.000000000000
0
ARC
5
887
100
AcDbEntity
8
0-0
6
CONTINUOUS
62
7
100
AcDbCircle
10
2218.760304070117
20
1201.412839101275
30
0.0
40
20.000000000000
100
AcDbArc
50
90.000000000000
51
270.000000000000
0
ARC
5
888
100
AcDbEntity
8
0-0
6
CONTINUOUS
62
7
100
AcDbCircle
10
2488.760304070117
20
1201.412839101275
30
0.0
40
20.000000000000
100
AcDbArc
50
270.000000000000
51
450.000000000000
0
ARC
5
889
100
AcDbEntity
8
0-0
6
CONTINUOUS
62
7
100
AcDbCircle
10
2392.325304070117
20
1132.554839101275
30
0.0
40
108.106000000000
100
AcDbArc
50
311.359868222642
51
386.869077667526
0
ARC
5
88a
100
AcDbEntity
8
0-0
6
CONTINUOUS
62
7
100
AcDbCircle
10
2493.524304070117
20
1034.792839101275
30
0.0
40
34.090000000000
100
AcDbArc
50
150.820979501805
51
176.417817120829
0
ARC
5
88b
100
AcDbEntity
8
0-0
6
CONTINUOUS
62
7
100
AcDbCircle
10
9523.677304070117
20
1191.145839101275
30
0.0
40
7065.860000000002
100
AcDbArc
50
181.250662291428
51
182.350045276063
0
ARC
5
88c
100
AcDbEntity
8
0-0
6
CONTINUOUS
62
7
100
AcDbCircle
10
2353.760304070117
20
1597.052839101275
30
0.0
40
555.650000000000
100
AcDbArc
50
259.107000000000
51
280.893000000000
0
ARC
5
88d
100
AcDbEntity
8
0-0
6
CONTINUOUS
62
7
100
AcDbCircle
10
2223.760304070117
20
1231.412839101275
30
0.0
40
15.000000000000
100
AcDbArc
50
90.000000000000
51
180.000000000000
0
ARC
5
88e
100
AcDbEntity
8
0-0
6
CONTINUOUS
62
7
100
AcDbCircle
10
2483.760304070117
20
1231.412839101275
30
0.0
40
15.000000000000
100
AcDbArc
50
0.000000000000
51
90.000000000000
0
ARC
5
88f
100
AcDbEntity
8
0-0
6
CONTINUOUS
62
7
100
AcDbCircle
10
2233.760304070117
20
1251.412839101275
30
0.0
40
15.000000000000
100
AcDbArc
50
90.000000000000
51
180.000000000000
0
ARC
5
890
100
AcDbEntity
8
0-0
6
CONTINUOUS
62
7
100
AcDbCircle
10
2473.760304070117
20
1251.412839101275
30
0.0
40
15.000000000000
100
AcDbArc
50
0.000000000000
51
90.000000000000
0
POLYLINE
5
891
100
AcDbEntity
8
0-0
6
CONTINUOUS
62
  7
100
AcDb2dPolyline
66
1
10
0.0
20
0.0
30
0.0
70
0
0
VERTEX
5
892
100
AcDbEntity
8
0-0
6
CONTINUOUS
62
  7
100
AcDbVertex
100
AcDb2dVertex
10
2213.387123025797
20
901.376495110546
30
0.0
0
VERTEX
5
893
100
AcDbEntity
8
0-0
6
CONTINUOUS
62
  7
100
AcDbVertex
100
AcDb2dVertex
10
2213.545435120969
20
907.756108576988
30
0.0
0
VERTEX
5
894
100
AcDbEntity
8
0-0
6
CONTINUOUS
62
  7
100
AcDbVertex
100
AcDb2dVertex
10
2213.788042108215
20
918.753606303496
30
0.0
0
VERTEX
5
895
100
AcDbEntity
8
0-0
6
CONTINUOUS
62
  7
100
AcDbVertex
100
AcDb2dVertex
10
2213.946357703851
20
929.746004484659
30
0.0
0
VERTEX
5
896
100
AcDbEntity
8
0-0
6
CONTINUOUS
62
  7
100
AcDbVertex
100
AcDb2dVertex
10
2213.967032925845
20
940.730075560133
30
0.0
0
VERTEX
5
897
100
AcDbEntity
8
0-0
6
CONTINUOUS
62
  7
100
AcDbVertex
100
AcDb2dVertex
10
2213.796718792165
20
951.702591969574
30
0.0
0
VERTEX
5
898
100
AcDbEntity
8
0-0
6
CONTINUOUS
62
  7
100
AcDbVertex
100
AcDb2dVertex
10
2213.382066320778
20
962.660326152638
30
0.0
0
VERTEX
5
899
100
AcDbEntity
8
0-0
6
CONTINUOUS
62
  7
100
AcDbVertex
100
AcDb2dVertex
10
2213.008589787967
20
969.007766936079
30
0.0
0
VERTEX
5
89a
100
AcDbEntity
8
0-0
6
CONTINUOUS
62
  7
100
AcDbVertex
100
AcDb2dVertex
10
2212.614339700665
20
974.310497526461
30
0.0
0
VERTEX
5
89b
100
AcDbEntity
8
0-0
6
CONTINUOUS
62
  7
100
AcDbVertex
100
AcDb2dVertex
10
2211.778750555599
20
983.443795482992
30
0.0
0
VERTEX
5
89c
100
AcDbEntity
8
0-0
6
CONTINUOUS
62
  7
100
AcDbVertex
100
AcDb2dVertex
10
2210.784715461809
20
992.567751043044
30
0.0
0
VERTEX
5
89d
100
AcDbEntity
8
0-0
6
CONTINUOUS
62
  7
100
AcDbVertex
100
AcDb2dVertex
10
2209.677385016493
20
1001.685249839801
30
0.0
0
VERTEX
5
89e
100
AcDbEntity
8
0-0
6
CONTINUOUS
62
  7
100
AcDbVertex
100
AcDb2dVertex
10
2208.501909816857
20
1010.799177506446
30
0.0
0
VERTEX
5
89f
100
AcDbEntity
8
0-0
6
CONTINUOUS
62
  7
100
AcDbVertex
100
AcDb2dVertex
10
2207.303440460098
20
1019.912419676162
30
0.0
0
VERTEX
5
8a0
100
AcDbEntity
8
0-0
6
CONTINUOUS
62
  7
100
AcDbVertex
100
AcDb2dVertex
10
2206.615583993514
20
1025.198923129433
30
0.0
0
VERTEX
5
8a1
100
AcDbEntity
8
0-0
6
CONTINUOUS
62
  7
100
AcDbVertex
100
AcDb2dVertex
10
2204.327440093221
20
1043.715181246570
30
0.0
0
VERTEX
5
8a2
100
AcDbEntity
8
0-0
6
CONTINUOUS
62
  7
100
AcDbVertex
100
AcDb2dVertex
10
2200.795698112254
20
1075.672884773152
30
0.0
0
VERTEX
5
8a3
100
AcDbEntity
8
0-0
6
CONTINUOUS
62
  7
100
AcDbVertex
100
AcDb2dVertex
10
2197.704450450931
20
1107.665885254379
30
0.0
0
VERTEX
5
8a4
100
AcDbEntity
8
0-0
6
CONTINUOUS
62
  7
100
AcDbVertex
100
AcDb2dVertex
10
2194.957519310204
20
1139.686475931594
30
0.0
0
VERTEX
5
8a5
100
AcDbEntity
8
0-0
6
CONTINUOUS
62
  7
100
AcDbVertex
100
AcDb2dVertex
10
2192.458726891023
20
1171.726950046142
30
0.0
0
VERTEX
5
8a6
100
AcDbEntity
8
0-0
6
CONTINUOUS
62
  7
100
AcDbVertex
100
AcDb2dVertex
10
2190.111895394339
20
1203.779600839366
30
0.0
0
VERTEX
5
8a7
100
AcDbEntity
8
0-0
6
CONTINUOUS
62
  7
100
AcDbVertex
100
AcDb2dVertex
10
2188.782462566881
20
1222.372680789943
30
0.0
0
SEQEND
5
8a8
100
AcDbEntity
8
0-0
0
POLYLINE
5
8a9
100
AcDbEntity
8
0-0
6
CONTINUOUS
62
  7
100
AcDb2dPolyline
66
1
10
0.0
20
0.0
30
0.0
70
0
0
VERTEX
5
8aa
100
AcDbEntity
8
0-0
6
CONTINUOUS
62
  7
100
AcDbVertex
100
AcDb2dVertex
10
2494.133485114437
20
901.376495110546
30
0.0
0
VERTEX
5
8ab
100
AcDbEntity
8
0-0
6
CONTINUOUS
62
  7
100
AcDbVertex
100
AcDb2dVertex
10
2493.975173019265
20
907.756108576988
30
0.0
0
VERTEX
5
8ac
100
AcDbEntity
8
0-0
6
CONTINUOUS
62
  7
100
AcDbVertex
100
AcDb2dVertex
10
2493.732566032018
20
918.753606303496
30
0.0
0
VERTEX
5
8ad
100
AcDbEntity
8
0-0
6
CONTINUOUS
62
  7
100
AcDbVertex
100
AcDb2dVertex
10
2493.574250436382
20
929.746004484659
30
0.0
0
VERTEX
5
8ae
100
AcDbEntity
8
0-0
6
CONTINUOUS
62
  7
100
AcDbVertex
100
AcDb2dVertex
10
2493.553575214389
20
940.730075560133
30
0.0
0
VERTEX
5
8af
100
AcDbEntity
8
0-0
6
CONTINUOUS
62
  7
100
AcDbVertex
100
AcDb2dVertex
10
2493.723889348069
20
951.702591969574
30
0.0
0
VERTEX
5
8b0
100
AcDbEntity
8
0-0
6
CONTINUOUS
62
  7
100
AcDbVertex
100
AcDb2dVertex
10
2494.138541819456
20
962.660326152638
30
0.0
0
VERTEX
5
8b1
100
AcDbEntity
8
0-0
6
CONTINUOUS
62
  7
100
AcDbVertex
100
AcDb2dVertex
10
2494.512018352266
20
969.007766936079
30
0.0
0
VERTEX
5
8b2
100
AcDbEntity
8
0-0
6
CONTINUOUS
62
  7
100
AcDbVertex
100
AcDb2dVertex
10
2494.906268439569
20
974.310497526461
30
0.0
0
VERTEX
5
8b3
100
AcDbEntity
8
0-0
6
CONTINUOUS
62
  7
100
AcDbVertex
100
AcDb2dVertex
10
2495.741857584635
20
983.443795482992
30
0.0
0
VERTEX
5
8b4
100
AcDbEntity
8
0-0
6
CONTINUOUS
62
  7
100
AcDbVertex
100
AcDb2dVertex
10
2496.735892678426
20
992.567751043044
30
0.0
0
VERTEX
5
8b5
100
AcDbEntity
8
0-0
6
CONTINUOUS
62
  7
100
AcDbVertex
100
AcDb2dVertex
10
2497.843223123741
20
1001.685249839801
30
0.0
0
VERTEX
5
8b6
100
AcDbEntity
8
0-0
6
CONTINUOUS
62
  7
100
AcDbVertex
100
AcDb2dVertex
10
2499.018698323378
20
1010.799177506446
30
0.0
0
VERTEX
5
8b7
100
AcDbEntity
8
0-0
6
CONTINUOUS
62
  7
100
AcDbVertex
100
AcDb2dVertex
10
2500.217167680136
20
1019.912419676162
30
0.0
0
VERTEX
5
8b8
100
AcDbEntity
8
0-0
6
CONTINUOUS
62
  7
100
AcDbVertex
100
AcDb2dVertex
10
2500.905024146720
20
1025.198923129433
30
0.0
0
VERTEX
5
8b9
100
AcDbEntity
8
0-0
6
CONTINUOUS
62
  7
100
AcDbVertex
100
AcDb2dVertex
10
2503.193168047013
20
1043.715181246570
30
0.0
0
VERTEX
5
8ba
100
AcDbEntity
8
0-0
6
CONTINUOUS
62
  7
100
AcDbVertex
100
AcDb2dVertex
10
2506.724910027979
20
1075.672884773152
30
0.0
0
VERTEX
5
8bb
100
AcDbEntity
8
0-0
6
CONTINUOUS
62
  7
100
AcDbVertex
100
AcDb2dVertex
10
2509.816157689302
20
1107.665885254379
30
0.0
0
VERTEX
5
8bc
100
AcDbEntity
8
0-0
6
CONTINUOUS
62
  7
100
AcDbVertex
100
AcDb2dVertex
10
2512.563088830030
20
1139.686475931594
30
0.0
0
VERTEX
5
8bd
100
AcDbEntity
8
0-0
6
CONTINUOUS
62
  7
100
AcDbVertex
100
AcDb2dVertex
10
2515.061881249210
20
1171.726950046142
30
0.0
0
VERTEX
5
8be
100
AcDbEntity
8
0-0
6
CONTINUOUS
62
  7
100
AcDbVertex
100
AcDb2dVertex
10
2517.408712745894
20
1203.779600839366
30
0.0
0
VERTEX
5
8bf
100
AcDbEntity
8
0-0
6
CONTINUOUS
62
  7
100
AcDbVertex
100
AcDb2dVertex
10
2518.738145573353
20
1222.372680789943
30
0.0
0
SEQEND
5
8c0
100
AcDbEntity
8
0-0
0
LINE
5
8c1
100
AcDbEntity
8
0-0
6
CONTINUOUS
62
7
100
AcDbLine
10
2213.662571601179
20
901.603217115807
30
0.0
11
2494.137767116617
21
901.603217115807
31
0.0
0
POLYLINE
5
8c2
100
AcDbEntity
8
0-0
6
CONTINUOUS
62
  7
100
AcDb2dPolyline
66
1
10
0.0
20
0.0
30
0.0
70
0
0
VERTEX
5
8c3
100
AcDbEntity
8
0-0
6
CONTINUOUS
62
  7
100
AcDbVertex
100
AcDb2dVertex
10
2095.156098293175
20
1037.373657088271
30
0.0
0
VERTEX
5
8c4
100
AcDbEntity
8
0-0
6
CONTINUOUS
62
  7
100
AcDbVertex
100
AcDb2dVertex
10
2095.035849242925
20
1040.797834095248
30
0.0
0
VERTEX
5
8c5
100
AcDbEntity
8
0-0
6
CONTINUOUS
62
  7
100
AcDbVertex
100
AcDb2dVertex
10
2094.898678058520
20
1046.679271096521
30
0.0
0
VERTEX
5
8c6
100
AcDbEntity
8
0-0
6
CONTINUOUS
62
  7
100
AcDbVertex
100
AcDb2dVertex
10
2094.956381219397
20
1052.498717933816
30
0.0
0
VERTEX
5
8c7
100
AcDbEntity
8
0-0
6
CONTINUOUS
62
  7
100
AcDbVertex
100
AcDb2dVertex
10
2095.332296918774
20
1058.216940326134
30
0.0
0
VERTEX
5
8c8
100
AcDbEntity
8
0-0
6
CONTINUOUS
62
  7
100
AcDbVertex
100
AcDb2dVertex
10
2096.149763349867
20
1063.794703992477
30
0.0
0
VERTEX
5
8c9
100
AcDbEntity
8
0-0
6
CONTINUOUS
62
  7
100
AcDbVertex
100
AcDb2dVertex
10
2097.532118705894
20
1069.192774651844
30
0.0
0
VERTEX
5
8ca
100
AcDbEntity
8
0-0
6
CONTINUOUS
62
  7
100
AcDbVertex
100
AcDb2dVertex
10
2098.641318579507
20
1072.225859951586
30
0.0
0
VERTEX
5
8cb
100
AcDbEntity
8
0-0
6
CONTINUOUS
62
  7
100
AcDbVertex
100
AcDb2dVertex
10
2099.458154257047
20
1074.075593385681
30
0.0
0
VERTEX
5
8cc
100
AcDbEntity
8
0-0
6
CONTINUOUS
62
  7
100
AcDbVertex
100
AcDb2dVertex
10
2101.079626233569
20
1077.189698894633
30
0.0
0
VERTEX
5
8cd
100
AcDbEntity
8
0-0
6
CONTINUOUS
62
  7
100
AcDbVertex
100
AcDb2dVertex
10
2102.940727650032
20
1080.207324008971
30
0.0
0
VERTEX
5
8ce
100
AcDbEntity
8
0-0
6
CONTINUOUS
62
  7
100
AcDbVertex
100
AcDb2dVertex
10
2105.006387349682
20
1083.126806313810
30
0.0
0
VERTEX
5
8cf
100
AcDbEntity
8
0-0
6
CONTINUOUS
62
  7
100
AcDbVertex
100
AcDb2dVertex
10
2107.241534175764
20
1085.946483394265
30
0.0
0
VERTEX
5
8d0
100
AcDbEntity
8
0-0
6
CONTINUOUS
62
  7
100
AcDbVertex
100
AcDb2dVertex
10
2109.611096971523
20
1088.664692835452
30
0.0
0
VERTEX
5
8d1
100
AcDbEntity
8
0-0
6
CONTINUOUS
62
  7
100
AcDbVertex
100
AcDb2dVertex
10
2111.033212930908
20
1090.194106761117
30
0.0
0
VERTEX
5
8d2
100
AcDbEntity
8
0-0
6
CONTINUOUS
62
  7
100
AcDbVertex
100
AcDb2dVertex
10
2113.846062457598
20
1093.040753203947
30
0.0
0
VERTEX
5
8d3
100
AcDbEntity
8
0-0
6
CONTINUOUS
62
  7
100
AcDbVertex
100
AcDb2dVertex
10
2118.905697245500
20
1097.670617378670
30
0.0
0
VERTEX
5
8d4
100
AcDbEntity
8
0-0
6
CONTINUOUS
62
  7
100
AcDbVertex
100
AcDb2dVertex
10
2124.198816770769
20
1101.988420961071
30
0.0
0
VERTEX
5
8d5
100
AcDbEntity
8
0-0
6
CONTINUOUS
62
  7
100
AcDbVertex
100
AcDb2dVertex
10
2129.687974342023
20
1106.040703641569
30
0.0
0
VERTEX
5
8d6
100
AcDbEntity
8
0-0
6
CONTINUOUS
62
  7
100
AcDbVertex
100
AcDb2dVertex
10
2135.335723267882
20
1109.874005110585
30
0.0
0
VERTEX
5
8d7
100
AcDbEntity
8
0-0
6
CONTINUOUS
62
  7
100
AcDbVertex
100
AcDb2dVertex
10
2141.104616856965
20
1113.534865058538
30
0.0
0
VERTEX
5
8d8
100
AcDbEntity
8
0-0
6
CONTINUOUS
62
  7
100
AcDbVertex
100
AcDb2dVertex
10
2144.491327679690
20
1115.597490181490
30
0.0
0
VERTEX
5
8d9
100
AcDbEntity
8
0-0
6
CONTINUOUS
62
  7
100
AcDbVertex
100
AcDb2dVertex
10
2147.818983574838
20
1117.576815250452
30
0.0
0
VERTEX
5
8da
100
AcDbEntity
8
0-0
6
CONTINUOUS
62
  7
100
AcDbVertex
100
AcDb2dVertex
10
2153.605914674200
20
1120.902987913065
30
0.0
0
VERTEX
5
8db
100
AcDbEntity
8
0-0
6
CONTINUOUS
62
  7
100
AcDbVertex
100
AcDb2dVertex
10
2159.460053210729
20
1124.101592855005
30
0.0
0
VERTEX
5
8dc
100
AcDbEntity
8
0-0
6
CONTINUOUS
62
  7
100
AcDbVertex
100
AcDb2dVertex
10
2165.386551563364
20
1127.151550104682
30
0.0
0
VERTEX
5
8dd
100
AcDbEntity
8
0-0
6
CONTINUOUS
62
  7
100
AcDbVertex
100
AcDb2dVertex
10
2171.390562111048
20
1130.031779690508
30
0.0
0
VERTEX
5
8de
100
AcDbEntity
8
0-0
6
CONTINUOUS
62
  7
100
AcDbVertex
100
AcDb2dVertex
10
2177.477237232723
20
1132.721201640892
30
0.0
0
VERTEX
5
8df
100
AcDbEntity
8
0-0
6
CONTINUOUS
62
  7
100
AcDbVertex
100
AcDb2dVertex
10
2181.047416016323
20
1134.185331708591
30
0.0
0
VERTEX
5
8e0
100
AcDbEntity
8
0-0
6
CONTINUOUS
62
  7
100
AcDbVertex
100
AcDb2dVertex
10
2183.004820691317
20
1134.951915094691
30
0.0
0
VERTEX
5
8e1
100
AcDbEntity
8
0-0
6
CONTINUOUS
62
  7
100
AcDbVertex
100
AcDb2dVertex
10
2186.398205146574
20
1136.227502643296
30
0.0
0
VERTEX
5
8e2
100
AcDbEntity
8
0-0
6
CONTINUOUS
62
  7
100
AcDbVertex
100
AcDb2dVertex
10
2189.810929522952
20
1137.454446309933
30
0.0
0
VERTEX
5
8e3
100
AcDbEntity
8
0-0
6
CONTINUOUS
62
  7
100
AcDbVertex
100
AcDb2dVertex
10
2193.238180351166
20
1138.644049123624
30
0.0
0
VERTEX
5
8e4
100
AcDbEntity
8
0-0
6
CONTINUOUS
62
  7
100
AcDbVertex
100
AcDb2dVertex
10
2194.546864961056
20
1139.087097022452
30
0.0
0
SEQEND
5
8e5
100
AcDbEntity
8
0-0
0
POLYLINE
5
8e6
100
AcDbEntity
8
0-0
6
CONTINUOUS
62
  7
100
AcDb2dPolyline
66
1
10
0.0
20
0.0
30
0.0
70
0
0
VERTEX
5
8e7
100
AcDbEntity
8
0-0
6
CONTINUOUS
62
  7
100
AcDbVertex
100
AcDb2dVertex
10
2111.739509986363
20
1027.321594553283
30
0.0
0
VERTEX
5
8e8
100
AcDbEntity
8
0-0
6
CONTINUOUS
62
  7
100
AcDbVertex
100
AcDb2dVertex
10
2111.619260936112
20
1030.745771560259
30
0.0
0
VERTEX
5
8e9
100
AcDbEntity
8
0-0
6
CONTINUOUS
62
  7
100
AcDbVertex
100
AcDb2dVertex
10
2111.482089751707
20
1036.627208561533
30
0.0
0
VERTEX
5
8ea
100
AcDbEntity
8
0-0
6
CONTINUOUS
62
  7
100
AcDbVertex
100
AcDb2dVertex
10
2111.539792912584
20
1042.446655398828
30
0.0
0
VERTEX
5
8eb
100
AcDbEntity
8
0-0
6
CONTINUOUS
62
  7
100
AcDbVertex
100
AcDb2dVertex
10
2111.915708611961
20
1048.164877791145
30
0.0
0
VERTEX
5
8ec
100
AcDbEntity
8
0-0
6
CONTINUOUS
62
  7
100
AcDbVertex
100
AcDb2dVertex
10
2112.733175043054
20
1053.742641457488
30
0.0
0
VERTEX
5
8ed
100
AcDbEntity
8
0-0
6
CONTINUOUS
62
  7
100
AcDbVertex
100
AcDb2dVertex
10
2114.115530399081
20
1059.140712116856
30
0.0
0
VERTEX
5
8ee
100
AcDbEntity
8
0-0
6
CONTINUOUS
62
  7
100
AcDbVertex
100
AcDb2dVertex
10
2115.224730272694
20
1062.173797416598
30
0.0
0
VERTEX
5
8ef
100
AcDbEntity
8
0-0
6
CONTINUOUS
62
  7
100
AcDbVertex
100
AcDb2dVertex
10
2116.041565950234
20
1064.023530850692
30
0.0
0
VERTEX
5
8f0
100
AcDbEntity
8
0-0
6
CONTINUOUS
62
  7
100
AcDbVertex
100
AcDb2dVertex
10
2117.663037926756
20
1067.137636359645
30
0.0
0
VERTEX
5
8f1
100
AcDbEntity
8
0-0
6
CONTINUOUS
62
  7
100
AcDbVertex
100
AcDb2dVertex
10
2119.524139343220
20
1070.155261473983
30
0.0
0
VERTEX
5
8f2
100
AcDbEntity
8
0-0
6
CONTINUOUS
62
  7
100
AcDbVertex
100
AcDb2dVertex
10
2121.589799042869
20
1073.074743778822
30
0.0
0
VERTEX
5
8f3
100
AcDbEntity
8
0-0
6
CONTINUOUS
62
  7
100
AcDbVertex
100
AcDb2dVertex
10
2123.824945868951
20
1075.894420859277
30
0.0
0
VERTEX
5
8f4
100
AcDbEntity
8
0-0
6
CONTINUOUS
62
  7
100
AcDbVertex
100
AcDb2dVertex
10
2126.194508664710
20
1078.612630300464
30
0.0
0
VERTEX
5
8f5
100
AcDbEntity
8
0-0
6
CONTINUOUS
62
  7
100
AcDbVertex
100
AcDb2dVertex
10
2127.616624624095
20
1080.142044226129
30
0.0
0
VERTEX
5
8f6
100
AcDbEntity
8
0-0
6
CONTINUOUS
62
  7
100
AcDbVertex
100
AcDb2dVertex
10
2130.429474150785
20
1082.988690668959
30
0.0
0
VERTEX
5
8f7
100
AcDbEntity
8
0-0
6
CONTINUOUS
62
  7
100
AcDbVertex
100
AcDb2dVertex
10
2135.489108938687
20
1087.618554843681
30
0.0
0
VERTEX
5
8f8
100
AcDbEntity
8
0-0
6
CONTINUOUS
62
  7
100
AcDbVertex
100
AcDb2dVertex
10
2140.782228463956
20
1091.936358426082
30
0.0
0
VERTEX
5
8f9
100
AcDbEntity
8
0-0
6
CONTINUOUS
62
  7
100
AcDbVertex
100
AcDb2dVertex
10
2146.271386035211
20
1095.988641106580
30
0.0
0
VERTEX
5
8fa
100
AcDbEntity
8
0-0
6
CONTINUOUS
62
  7
100
AcDbVertex
100
AcDb2dVertex
10
2151.919134961069
20
1099.821942575596
30
0.0
0
VERTEX
5
8fb
100
AcDbEntity
8
0-0
6
CONTINUOUS
62
  7
100
AcDbVertex
100
AcDb2dVertex
10
2157.688028550152
20
1103.482802523550
30
0.0
0
VERTEX
5
8fc
100
AcDbEntity
8
0-0
6
CONTINUOUS
62
  7
100
AcDbVertex
100
AcDb2dVertex
10
2161.074739372878
20
1105.545427646501
30
0.0
0
VERTEX
5
8fd
100
AcDbEntity
8
0-0
6
CONTINUOUS
62
  7
100
AcDbVertex
100
AcDb2dVertex
10
2164.402395268025
20
1107.524752715463
30
0.0
0
VERTEX
5
8fe
100
AcDbEntity
8
0-0
6
CONTINUOUS
62
  7
100
AcDbVertex
100
AcDb2dVertex
10
2170.189326367388
20
1110.850925378076
30
0.0
0
VERTEX
5
8ff
100
AcDbEntity
8
0-0
6
CONTINUOUS
62
  7
100
AcDbVertex
100
AcDb2dVertex
10
2176.043464903916
20
1114.049530320016
30
0.0
0
VERTEX
5
900
100
AcDbEntity
8
0-0
6
CONTINUOUS
62
  7
100
AcDbVertex
100
AcDb2dVertex
10
2181.969963256552
20
1117.099487569694
30
0.0
0
VERTEX
5
901
100
AcDbEntity
8
0-0
6
CONTINUOUS
62
  7
100
AcDbVertex
100
AcDb2dVertex
10
2187.973973804235
20
1119.979717155519
30
0.0
0
VERTEX
5
902
100
AcDbEntity
8
0-0
6
CONTINUOUS
62
  7
100
AcDbVertex
100
AcDb2dVertex
10
2194.060648925910
20
1122.669139105904
30
0.0
0
VERTEX
5
903
100
AcDbEntity
8
0-0
6
CONTINUOUS
62
  7
100
AcDbVertex
100
AcDb2dVertex
10
2196.392869847152
20
1123.625582741442
30
0.0
0
SEQEND
5
904
100
AcDbEntity
8
0-0
0
LINE
5
905
100
AcDbEntity
8
0-0
6
CONTINUOUS
62
7
100
AcDbLine
10
3425.975517696335
20
2422.889384492903
30
0.0
11
3393.975517696335
21
2422.889384492903
31
0.0
0
ARC
5
906
100
AcDbEntity
8
0-0
6
CONTINUOUS
62
7
100
AcDbCircle
10
3393.975517696335
20
2410.889384492904
30
0.0
40
12.000000000000
100
AcDbArc
50
90.000000000000
51
180.000000000000
0
ARC
5
907
100
AcDbEntity
8
0-0
6
CONTINUOUS
62
7
100
AcDbCircle
10
3425.975517696335
20
2410.889384492904
30
0.0
40
12.000000000000
100
AcDbArc
50
0.000000000000
51
90.000000000000
0
LINE
5
908
100
AcDbEntity
8
0-0
6
CONTINUOUS
62
7
100
AcDbLine
10
3437.727223898894
20
2411.172087662860
30
0.0
11
3382.121535914032
21
2411.172087662860
31
0.0
0
LINE
5
909
100
AcDbEntity
8
0-0
6
CONTINUOUS
62
7
100
AcDbLine
10
3422.515749681194
20
2484.909130589937
30
0.0
11
3397.515749681194
21
2484.909130589937
31
0.0
0
LINE
5
90a
100
AcDbEntity
8
0-0
6
CONTINUOUS
62
7
100
AcDbLine
10
3397.515749681194
20
2455.616664806807
30
0.0
11
3422.515749681194
21
2455.616664806807
31
0.0
0
LINE
5
90b
100
AcDbEntity
8
0-0
6
CONTINUOUS
62
7
100
AcDbLine
10
3422.515749681194
20
2447.616664806807
30
0.0
11
3397.515749681194
21
2447.616664806807
31
0.0
0
ARC
5
90c
100
AcDbEntity
8
0-0
6
CONTINUOUS
62
7
100
AcDbCircle
10
3409.966489934268
20
2451.656342733893
30
0.0
40
13.134414676531
100
AcDbArc
50
342.276763383114
51
377.297564485525
0
ARC
5
90d
100
AcDbEntity
8
0-0
6
CONTINUOUS
62
7
100
AcDbCircle
10
3409.966489934268
20
2451.656342733893
30
0.0
40
13.134414676531
100
AcDbArc
50
162.521885466274
51
198.017609214690
0
CIRCLE
5
90e
100
AcDbEntity
8
0-0
6
CONTINUOUS
62
7
100
AcDbCircle
10
3409.982948141562
20
2451.643625028257
30
0.0
40
3.389457447208
0
ARC
5
90f
100
AcDbEntity
8
0-0
6
CONTINUOUS
62
7
100
AcDbCircle
10
3397.314354254026
20
2451.640361487523
30
0.0
40
3.389457447208
100
AcDbArc
50
269.971509582607
51
449.978070214998
0
ARC
5
910
100
AcDbEntity
8
0-0
6
CONTINUOUS
62
7
100
AcDbCircle
10
3422.623715096804
20
2451.654125740178
30
0.0
40
3.389457447208
100
AcDbArc
50
90.339830380176
51
269.767752220994
0
ARC
5
911
100
AcDbEntity
8
0-0
6
CONTINUOUS
62
7
100
AcDbCircle
10
3414.295517696335
20
2516.582834289328
30
0.0
40
3.240000000000
100
AcDbArc
50
0.000000000000
51
90.000000000000
0
ARC
5
912
100
AcDbEntity
8
0-0
6
CONTINUOUS
62
7
100
AcDbCircle
10
3405.655517696336
20
2516.582834289328
30
0.0
40
3.240000000000
100
AcDbArc
50
90.000000000000
51
180.000000000000
0
LINE
5
913
100
AcDbEntity
8
0-0
6
CONTINUOUS
62
7
100
AcDbLine
10
3414.295517696335
20
2519.822834289330
30
0.0
11
3405.655517696336
21
2519.822834289330
31
0.0
0
ARC
5
914
100
AcDbEntity
8
0-0
6
CONTINUOUS
62
7
100
AcDbCircle
10
3388.084564609805
20
2510.553469090417
30
0.0
40
3.000000000000
100
AcDbArc
50
180.000000000000
51
270.000000000000
0
LINE
5
915
100
AcDbEntity
8
0-0
6
CONTINUOUS
62
7
100
AcDbLine
10
3385.084564609805
20
2513.553469090417
30
0.0
11
3385.084564609805
21
2510.553469090417
31
0.0
0
ARC
5
916
100
AcDbEntity
8
0-0
6
CONTINUOUS
62
7
100
AcDbCircle
10
3388.084564609805
20
2513.553469090417
30
0.0
40
3.000000000000
100
AcDbArc
50
90.000000000000
51
180.000000000000
0
LINE
5
917
100
AcDbEntity
8
0-0
6
CONTINUOUS
62
7
100
AcDbLine
10
3432.084564609805
20
2507.553469090418
30
0.0
11
3388.084564609805
21
2507.553469090418
31
0.0
0
ARC
5
918
100
AcDbEntity
8
0-0
6
CONTINUOUS
62
7
100
AcDbCircle
10
3432.084564609805
20
2510.553469090417
30
0.0
40
3.000000000000
100
AcDbArc
50
270.000000000000
51
360.000000000000
0
LINE
5
919
100
AcDbEntity
8
0-0
6
CONTINUOUS
62
7
100
AcDbLine
10
3435.084564609805
20
2513.553469090417
30
0.0
11
3435.084564609805
21
2510.553469090417
31
0.0
0
LINE
5
91a
100
AcDbEntity
8
0-0
6
CONTINUOUS
62
7
100
AcDbLine
10
3432.084564609805
20
2516.553469090417
30
0.0
11
3388.084564609805
21
2516.553469090417
31
0.0
0
ARC
5
91b
100
AcDbEntity
8
0-0
6
CONTINUOUS
62
7
100
AcDbCircle
10
3432.084564609805
20
2513.553469090417
30
0.0
40
3.000000000000
100
AcDbArc
50
0.000000000000
51
90.000000000000
0
ARC
5
91c
100
AcDbEntity
8
0-0
6
CONTINUOUS
62
7
100
AcDbCircle
10
3409.966489934268
20
2488.948808517023
30
0.0
40
13.134414676531
100
AcDbArc
50
342.276763383114
51
377.297564485525
0
ARC
5
91d
100
AcDbEntity
8
0-0
6
CONTINUOUS
62
7
100
AcDbCircle
10
3409.966489934268
20
2488.948808517023
30
0.0
40
13.134414676531
100
AcDbArc
50
162.521885466274
51
198.017609214690
0
CIRCLE
5
91e
100
AcDbEntity
8
0-0
6
CONTINUOUS
62
7
100
AcDbCircle
10
3409.982948141562
20
2488.936090811388
30
0.0
40
3.389457447208
0
ARC
5
91f
100
AcDbEntity
8
0-0
6
CONTINUOUS
62
7
100
AcDbCircle
10
3397.314354254026
20
2488.932827270653
30
0.0
40
3.389457447208
100
AcDbArc
50
269.971509582607
51
449.978070214998
0
ARC
5
920
100
AcDbEntity
8
0-0
6
CONTINUOUS
62
7
100
AcDbCircle
10
3422.623715096804
20
2488.946591523308
30
0.0
40
3.389457447208
100
AcDbArc
50
90.339830380176
51
269.767752220994
0
LINE
5
921
100
AcDbEntity
8
0-0
6
CONTINUOUS
62
7
100
AcDbLine
10
3397.618336130808
20
2492.635514382458
30
0.0
11
3422.486211729192
21
2492.635514382458
31
0.0
0
LINE
5
922
100
AcDbEntity
8
0-0
6
CONTINUOUS
62
7
100
AcDbLine
10
3397.775492103953
20
2455.683451474557
30
0.0
11
3397.775492103953
21
2484.832528685039
31
0.0
0
POLYLINE
5
923
100
AcDbEntity
8
0-0
6
CONTINUOUS
62
  7
100
AcDb2dPolyline
66
1
10
0.0
20
0.0
30
0.0
70
0
0
VERTEX
5
924
100
AcDbEntity
8
0-0
6
CONTINUOUS
62
  7
100
AcDbVertex
100
AcDb2dVertex
10
3397.446702908844
20
2492.631761183614
30
0.0
0
VERTEX
5
925
100
AcDbEntity
8
0-0
6
CONTINUOUS
62
  7
100
AcDbVertex
100
AcDb2dVertex
10
3397.918772002942
20
2492.906908955419
30
0.0
0
VERTEX
5
926
100
AcDbEntity
8
0-0
6
CONTINUOUS
62
  7
100
AcDbVertex
100
AcDb2dVertex
10
3398.730677108121
20
2493.384048202864
30
0.0
0
VERTEX
5
927
100
AcDbEntity
8
0-0
6
CONTINUOUS
62
  7
100
AcDbVertex
100
AcDb2dVertex
10
3399.537006863231
20
2493.868816720962
30
0.0
0
VERTEX
5
928
100
AcDbEntity
8
0-0
6
CONTINUOUS
62
  7
100
AcDbVertex
100
AcDb2dVertex
10
3400.334232565696
20
2494.366043162029
30
0.0
0
VERTEX
5
929
100
AcDbEntity
8
0-0
6
CONTINUOUS
62
  7
100
AcDbVertex
100
AcDb2dVertex
10
3401.118825512942
20
2494.880556178377
30
0.0
0
VERTEX
5
92a
100
AcDbEntity
8
0-0
6
CONTINUOUS
62
  7
100
AcDbVertex
100
AcDb2dVertex
10
3401.887257002393
20
2495.417184422319
30
0.0
0
VERTEX
5
92b
100
AcDbEntity
8
0-0
6
CONTINUOUS
62
  7
100
AcDbVertex
100
AcDb2dVertex
10
3402.324151594005
20
2495.740464741190
30
0.0
0
VERTEX
5
92c
100
AcDbEntity
8
0-0
6
CONTINUOUS
62
  7
100
AcDbVertex
100
AcDb2dVertex
10
3402.573879659400
20
2495.932077394788
30
0.0
0
VERTEX
5
92d
100
AcDbEntity
8
0-0
6
CONTINUOUS
62
  7
100
AcDbVertex
100
AcDb2dVertex
10
3402.999361221264
20
2496.269401042749
30
0.0
0
VERTEX
5
92e
100
AcDbEntity
8
0-0
6
CONTINUOUS
62
  7
100
AcDbVertex
100
AcDb2dVertex
10
3403.419424635319
20
2496.614138846875
30
0.0
0
VERTEX
5
92f
100
AcDbEntity
8
0-0
6
CONTINUOUS
62
  7
100
AcDbVertex
100
AcDb2dVertex
10
3403.835252903270
20
2496.964671995774
30
0.0
0
VERTEX
5
930
100
AcDbEntity
8
0-0
6
CONTINUOUS
62
  7
100
AcDbVertex
100
AcDb2dVertex
10
3404.248029026823
20
2497.319381678059
30
0.0
0
VERTEX
5
931
100
AcDbEntity
8
0-0
6
CONTINUOUS
62
  7
100
AcDbVertex
100
AcDb2dVertex
10
3404.658936007681
20
2497.676649082338
30
0.0
0
VERTEX
5
932
100
AcDbEntity
8
0-0
6
CONTINUOUS
62
  7
100
AcDbVertex
100
AcDb2dVertex
10
3404.896871779585
20
2497.884398229173
30
0.0
0
SEQEND
5
933
100
AcDbEntity
8
0-0
0
LINE
5
934
100
AcDbEntity
8
0-0
6
CONTINUOUS
62
7
100
AcDbLine
10
3414.975517696335
20
2497.914483105154
30
0.0
11
3404.975517696335
21
2497.914483105154
31
0.0
0
POLYLINE
5
935
100
AcDbEntity
8
0-0
6
CONTINUOUS
62
  7
100
AcDb2dPolyline
66
1
10
0.0
20
0.0
30
0.0
70
0
0
VERTEX
5
936
100
AcDbEntity
8
0-0
6
CONTINUOUS
62
  7
100
AcDbVertex
100
AcDb2dVertex
10
3422.584323055447
20
2492.685359520814
30
0.0
0
VERTEX
5
937
100
AcDbEntity
8
0-0
6
CONTINUOUS
62
  7
100
AcDbVertex
100
AcDb2dVertex
10
3422.092757513028
20
2492.944046431967
30
0.0
0
VERTEX
5
938
100
AcDbEntity
8
0-0
6
CONTINUOUS
62
  7
100
AcDbVertex
100
AcDb2dVertex
10
3421.247919461653
20
2493.393801136969
30
0.0
0
VERTEX
5
939
100
AcDbEntity
8
0-0
6
CONTINUOUS
62
  7
100
AcDbVertex
100
AcDb2dVertex
10
3420.410550148886
20
2493.853952478691
30
0.0
0
VERTEX
5
93a
100
AcDbEntity
8
0-0
6
CONTINUOUS
62
  7
100
AcDbVertex
100
AcDb2dVertex
10
3419.585376624479
20
2494.331080606959
30
0.0
0
VERTEX
5
93b
100
AcDbEntity
8
0-0
6
CONTINUOUS
62
  7
100
AcDbVertex
100
AcDb2dVertex
10
3418.777125938183
20
2494.831765671594
30
0.0
0
VERTEX
5
93c
100
AcDbEntity
8
0-0
6
CONTINUOUS
62
  7
100
AcDbVertex
100
AcDb2dVertex
10
3417.990525139750
20
2495.362587822420
30
0.0
0
VERTEX
5
93d
100
AcDbEntity
8
0-0
6
CONTINUOUS
62
  7
100
AcDbVertex
100
AcDb2dVertex
10
3417.546079358687
20
2495.686866403990
30
0.0
0
VERTEX
5
93e
100
AcDbEntity
8
0-0
6
CONTINUOUS
62
  7
100
AcDbVertex
100
AcDb2dVertex
10
3417.288382122675
20
2495.884326966106
30
0.0
0
VERTEX
5
93f
100
AcDbEntity
8
0-0
6
CONTINUOUS
62
  7
100
AcDbVertex
100
AcDb2dVertex
10
3416.851144021287
20
2496.234614284812
30
0.0
0
VERTEX
5
940
100
AcDbEntity
8
0-0
6
CONTINUOUS
62
  7
100
AcDbVertex
100
AcDb2dVertex
10
3416.421437809555
20
2496.595386147787
30
0.0
0
VERTEX
5
941
100
AcDbEntity
8
0-0
6
CONTINUOUS
62
  7
100
AcDbVertex
100
AcDb2dVertex
10
3415.997618970087
20
2496.964353353225
30
0.0
0
VERTEX
5
942
100
AcDbEntity
8
0-0
6
CONTINUOUS
62
  7
100
AcDbVertex
100
AcDb2dVertex
10
3415.578042985489
20
2497.339226699321
30
0.0
0
VERTEX
5
943
100
AcDbEntity
8
0-0
6
CONTINUOUS
62
  7
100
AcDbVertex
100
AcDb2dVertex
10
3415.161065338370
20
2497.717716984270
30
0.0
0
VERTEX
5
944
100
AcDbEntity
8
0-0
6
CONTINUOUS
62
  7
100
AcDbVertex
100
AcDb2dVertex
10
3414.919760835907
20
2497.937996566373
30
0.0
0
SEQEND
5
945
100
AcDbEntity
8
0-0
0
LINE
5
946
100
AcDbEntity
8
0-0
6
CONTINUOUS
62
7
100
AcDbLine
10
3405.975517696335
20
2497.892609351745
30
0.0
11
3405.975517696335
21
2507.625702827906
31
0.0
0
LINE
5
947
100
AcDbEntity
8
0-0
6
CONTINUOUS
62
7
100
AcDbLine
10
3413.975517696335
20
2497.825351199375
30
0.0
11
3413.975517696335
21
2507.625702827906
31
0.0
0
LINE
5
948
100
AcDbEntity
8
0-0
6
CONTINUOUS
62
7
100
AcDbLine
10
3422.366787385643
20
2455.703665902010
30
0.0
11
3422.366787385643
21
2484.897110307899
31
0.0
0
LINE
5
949
100
AcDbEntity
8
0-0
6
CONTINUOUS
62
7
100
AcDbLine
10
3401.975517696335
20
2423.366678007920
30
0.0
11
3401.975517696335
21
2448.168049469121
31
0.0
0
LINE
5
94a
100
AcDbEntity
8
0-0
6
CONTINUOUS
62
7
100
AcDbLine
10
3417.975517696335
20
2423.118448627264
30
0.0
11
3417.975517696335
21
2447.874238070035
31
0.0
0
LINE
5
94b
100
AcDbEntity
8
0-0
6
CONTINUOUS
62
16
100
AcDbLine
10
3336.140136820499
20
2832.407998118894
30
0.0
11
3336.140136820499
21
2821.927998118894
31
0.0
0
LINE
5
94c
100
AcDbEntity
8
0-0
6
CONTINUOUS
62
7
100
AcDbLine
10
3336.140136820499
20
2731.337998118895
30
0.0
11
3336.140136820499
21
2994.883998118894
31
0.0
0
LINE
5
94d
100
AcDbEntity
8
0-0
6
CONTINUOUS
62
7
100
AcDbLine
10
3366.140136820499
20
3009.883998118894
30
0.0
11
3521.140136820499
21
3009.883998118894
31
0.0
0
LINE
5
94e
100
AcDbEntity
8
0-0
6
CONTINUOUS
62
7
100
AcDbLine
10
3526.140136820499
20
3004.883998118894
30
0.0
11
3526.140136820499
21
2969.883998118894
31
0.0
0
LINE
5
94f
100
AcDbEntity
8
0-0
6
CONTINUOUS
62
7
100
AcDbLine
10
3361.140136820499
20
3004.883998118894
30
0.0
11
3361.140136820499
21
2999.883998118894
31
0.0
0
LINE
5
950
100
AcDbEntity
8
0-0
6
CONTINUOUS
62
7
100
AcDbLine
10
3418.640136820499
20
3012.883998118894
30
0.0
11
3468.640136820499
21
3012.883998118894
31
0.0
0
LINE
5
951
100
AcDbEntity
8
0-0
6
CONTINUOUS
62
7
100
AcDbLine
10
3428.640136820499
20
3014.883998118894
30
0.0
11
3458.640136820499
21
3014.883998118894
31
0.0
0
LINE
5
952
100
AcDbEntity
8
0-0
6
CONTINUOUS
62
7
100
AcDbLine
10
3418.640136820499
20
3009.883998118894
30
0.0
11
3418.640136820499
21
3012.883998118894
31
0.0
0
LINE
5
953
100
AcDbEntity
8
0-0
6
CONTINUOUS
62
7
100
AcDbLine
10
3428.640136820499
20
3012.883998118894
30
0.0
11
3428.640136820499
21
3014.883998118894
31
0.0
0
LINE
5
954
100
AcDbEntity
8
0-0
6
CONTINUOUS
62
7
100
AcDbLine
10
3468.640136820499
20
3012.883998118894
30
0.0
11
3468.640136820499
21
3009.883998118894
31
0.0
0
LINE
5
955
100
AcDbEntity
8
0-0
6
CONTINUOUS
62
7
100
AcDbLine
10
3458.640136820499
20
3014.883998118894
30
0.0
11
3458.640136820499
21
3012.883998118894
31
0.0
0
LINE
5
956
100
AcDbEntity
8
0-0
6
CONTINUOUS
62
7
100
AcDbLine
10
3361.914136820499
20
2688.954998118894
30
0.0
11
3392.834136820499
21
2661.337998118895
31
0.0
0
ARC
5
957
100
AcDbEntity
8
0-0
6
CONTINUOUS
62
7
100
AcDbCircle
10
3397.215136820498
20
2739.450998118894
30
0.0
40
61.612000000000
100
AcDbArc
50
187.566000000000
51
235.043000000000
0
ARC
5
958
100
AcDbEntity
8
0-0
6
CONTINUOUS
62
7
100
AcDbCircle
10
1827.160136820498
20
2743.305998118894
30
0.0
40
1714.022000000000
100
AcDbArc
50
359.600000000000
51
367.596000000000
0
ARC
5
959
100
AcDbEntity
8
0-0
6
CONTINUOUS
62
7
100
AcDbCircle
10
3521.140136820499
20
3004.883998118894
30
0.0
40
5.000000000000
100
AcDbArc
50
0.000000000000
51
90.000000000000
0
ARC
5
95a
100
AcDbEntity
8
0-0
6
CONTINUOUS
62
7
100
AcDbCircle
10
3341.140136820499
20
2994.883998118894
30
0.0
40
5.000000000000
100
AcDbArc
50
90.000000000000
51
180.000000000000
0
ARC
5
95b
100
AcDbEntity
8
0-0
6
CONTINUOUS
62
7
100
AcDbCircle
10
3366.140136820499
20
3004.883998118894
30
0.0
40
5.000000000000
100
AcDbArc
50
90.000000000000
51
180.000000000000
0
ARC
5
95c
100
AcDbEntity
8
0-0
6
CONTINUOUS
62
7
100
AcDbCircle
10
3564.422136820498
20
2574.042998118894
30
0.0
40
77.698000000000
100
AcDbArc
50
37.950696187754
51
110.245620793027
0
LINE
5
95d
100
AcDbEntity
8
0-0
6
CONTINUOUS
62
7
100
AcDbLine
10
3341.140136820499
20
2999.883998118894
30
0.0
11
3361.465566682213
21
2999.883998118894
31
0.0
0
LINE
5
95e
100
AcDbEntity
8
0-0
6
CONTINUOUS
62
7
100
AcDbLine
10
3361.253872941235
20
3000.071926017485
30
0.0
11
3361.253872941235
21
2970.331218869153
31
0.0
0
LINE
5
95f
100
AcDbEntity
8
0-0
6
CONTINUOUS
62
7
100
AcDbLine
10
3361.662455502965
20
2969.883998118894
30
0.0
11
3526.140136820499
21
2969.883998118894
31
0.0
0
LINE
5
960
100
AcDbEntity
8
0-0
6
CONTINUOUS
62
7
100
AcDbLine
10
3926.140136820499
20
2691.337998118895
30
0.0
11
3541.175976504761
21
2691.337998118895
31
0.0
0
LINE
5
961
100
AcDbEntity
8
0-0
6
CONTINUOUS
62
7
100
AcDbLine
10
3621.140136820499
20
2762.110401570542
30
0.0
11
3621.140136820499
21
2752.110401570542
31
0.0
0
LINE
5
962
100
AcDbEntity
8
0-0
6
CONTINUOUS
62
7
100
AcDbLine
10
3571.197136820498
20
2732.110401570542
30
0.0
11
3571.197136820498
21
2722.110401570542
31
0.0
0
LINE
5
963
100
AcDbEntity
8
0-0
6
CONTINUOUS
62
7
100
AcDbLine
10
3626.140136820499
20
2747.110401570542
30
0.0
11
3626.140136820499
21
2722.110401570542
31
0.0
0
LINE
5
964
100
AcDbEntity
8
0-0
6
CONTINUOUS
62
7
100
AcDbLine
10
3571.197136820498
20
2732.110401570542
30
0.0
11
3615.585136820498
21
2732.110401570542
31
0.0
0
LINE
5
965
100
AcDbEntity
8
0-0
6
CONTINUOUS
62
7
100
AcDbLine
10
3623.140136820500
20
2732.110401570542
30
0.0
11
3626.140136820499
21
2732.110401570542
31
0.0
0
LINE
5
966
100
AcDbEntity
8
0-0
6
CONTINUOUS
62
7
100
AcDbLine
10
3751.140136820499
20
2724.110401570542
30
0.0
11
3751.140136820499
21
2722.110401570542
31
0.0
0
LINE
5
967
100
AcDbEntity
8
0-0
6
CONTINUOUS
62
7
100
AcDbLine
10
3781.140136820499
20
2724.110401570542
30
0.0
11
3781.140136820499
21
2722.110401570542
31
0.0
0
ARC
5
968
100
AcDbEntity
8
0-0
6
CONTINUOUS
62
7
100
AcDbCircle
10
3617.140136820499
20
2732.110401570542
30
0.0
40
6.000000000000
100
AcDbArc
50
0.000000000000
51
180.000000000000
0
ARC
5
969
100
AcDbEntity
8
0-0
6
CONTINUOUS
62
7
100
AcDbCircle
10
3626.140136820499
20
2762.110401570542
30
0.0
40
5.000000000000
100
AcDbArc
50
90.000000000000
51
180.000000000000
0
ARC
5
96a
100
AcDbEntity
8
0-0
6
CONTINUOUS
62
7
100
AcDbCircle
10
3626.140136820499
20
2752.110401570542
30
0.0
40
5.000000000000
100
AcDbArc
50
180.000000000000
51
270.000000000000
0
ARC
5
96b
100
AcDbEntity
8
0-0
6
CONTINUOUS
62
7
100
AcDbCircle
10
3669.531136820499
20
2729.313401570543
30
0.0
40
58.458000000000
100
AcDbArc
50
145.873000000000
51
177.257000000000
0
LINE
5
96c
100
AcDbEntity
8
0-0
6
CONTINUOUS
62
7
100
AcDbLine
10
3923.066892695817
20
2752.110401570542
30
0.0
11
3923.066892695817
21
2747.110401570542
31
0.0
0
LINE
5
96d
100
AcDbEntity
8
0-0
6
CONTINUOUS
62
7
100
AcDbLine
10
3933.066892695817
20
2732.110401570542
30
0.0
11
3933.066892695817
21
2724.110401570542
31
0.0
0
LINE
5
96e
100
AcDbEntity
8
0-0
6
CONTINUOUS
62
7
100
AcDbLine
10
3915.566892695817
20
2724.110401570542
30
0.0
11
3915.566892695817
21
2722.110401570542
31
0.0
0
LINE
5
96f
100
AcDbEntity
8
0-0
6
CONTINUOUS
62
7
100
AcDbLine
10
3905.566892695817
20
2724.110401570542
30
0.0
11
3905.566892695817
21
2722.110401570542
31
0.0
0
ARC
5
970
100
AcDbEntity
8
0-0
6
CONTINUOUS
62
7
100
AcDbCircle
10
3918.066892695817
20
2732.110401570542
30
0.0
40
15.000000000000
100
AcDbArc
50
0.000000000000
51
90.000000000000
0
ARC
5
971
100
AcDbEntity
8
0-0
6
CONTINUOUS
62
7
100
AcDbCircle
10
3908.066892695817
20
2752.110401570542
30
0.0
40
15.000000000000
100
AcDbArc
50
0.000000000000
51
90.000000000000
0
LINE
5
972
100
AcDbEntity
8
0-0
6
CONTINUOUS
62
7
100
AcDbLine
10
3626.140136820499
20
2767.110401570542
30
0.0
11
3908.920158410600
21
2767.110401570542
31
0.0
0
LINE
5
973
100
AcDbEntity
8
0-0
6
CONTINUOUS
62
7
100
AcDbLine
10
3919.100536168502
20
2747.110401570542
30
0.0
11
3626.140136820499
21
2747.110401570542
31
0.0
0
LINE
5
974
100
AcDbEntity
8
0-0
6
CONTINUOUS
62
7
100
AcDbLine
10
3626.140136820499
20
2724.110401570542
30
0.0
11
3932.674373179038
21
2724.110401570542
31
0.0
0
LINE
5
975
100
AcDbEntity
8
0-0
6
CONTINUOUS
62
7
100
AcDbLine
10
3541.175976504761
20
2722.110401570542
30
0.0
11
3920.529361116980
21
2722.110401570542
31
0.0
0
ARC
5
976
100
AcDbEntity
8
0-0
6
CONTINUOUS
62
7
100
AcDbCircle
10
3918.885988073855
20
2706.802759393195
30
0.0
40
15.500000000000
100
AcDbArc
50
273.556181094255
51
444.634369073360
0
ARC
5
977
100
AcDbEntity
8
0-0
6
CONTINUOUS
62
7
100
AcDbCircle
10
3796.430136820499
20
2957.460998118894
30
0.0
40
411.218000000000
100
AcDbArc
50
262.978096188350
51
279.019190787997
0
ARC
5
978
100
AcDbEntity
8
0-0
6
CONTINUOUS
62
7
100
AcDbCircle
10
3762.628136820498
20
2713.029998118895
30
0.0
40
164.529000000000
100
AcDbArc
50
187.575970520310
51
264.255386556790
0
ARC
5
979
100
AcDbEntity
8
0-0
6
CONTINUOUS
62
7
100
AcDbCircle
10
3796.374136820499
20
2668.398998118894
30
0.0
40
131.778000000000
100
AcDbArc
50
304.566593197810
51
370.024832486586
0
ARC
5
97a
100
AcDbEntity
8
0-0
6
CONTINUOUS
62
7
100
AcDbCircle
10
3900.904136820499
20
2543.263998118894
30
0.0
40
34.090000000000
100
AcDbArc
50
150.820984211250
51
176.417821830274
0
ARC
5
97b
100
AcDbEntity
8
0-0
6
CONTINUOUS
62
7
100
AcDbCircle
10
10321.261136820500
20
2683.375998118894
30
0.0
40
6455.855000000001
100
AcDbArc
50
181.224685569087
51
182.415051979900
0
ARC
5
97c
100
AcDbEntity
8
0-0
6
CONTINUOUS
62
7
100
AcDbCircle
10
3632.911136820499
20
2433.844998118894
30
0.0
40
46.443000000000
100
AcDbArc
50
3.077697451483
51
77.223937347572
0
ARC
5
97d
100
AcDbEntity
8
0-0
6
CONTINUOUS
62
7
100
AcDbCircle
10
3597.953136820499
20
2287.280998118894
30
0.0
40
197.116000000000
100
AcDbArc
50
76.735157322520
51
97.319173962123
0
ARC
5
97e
100
AcDbEntity
8
0-0
6
CONTINUOUS
62
7
100
AcDbCircle
10
3544.171136820498
20
2490.552998118894
30
0.0
40
29.702000000000
100
AcDbArc
50
344.850024302096
51
408.876413077118
0
ARC
5
97f
100
AcDbEntity
8
0-0
6
CONTINUOUS
62
7
100
AcDbCircle
10
3683.343136820498
20
2568.099998118894
30
0.0
40
131.747000000000
100
AcDbArc
50
176.588231792812
51
204.757649966401
0
ARC
5
980
100
AcDbEntity
8
0-0
6
CONTINUOUS
62
7
100
AcDbCircle
10
3563.183136820499
20
2575.035998118894
30
0.0
40
11.389000000000
100
AcDbArc
50
39.845189622983
51
175.445013901934
0
ARC
5
981
100
AcDbEntity
8
0-0
6
CONTINUOUS
62
7
100
AcDbCircle
10
3751.808136820498
20
2709.420998118894
30
0.0
40
220.246000000000
100
AcDbArc
50
215.241608502095
51
267.872815201451
0
LINE
5
982
100
AcDbEntity
8
0-0
6
CONTINUOUS
62
7
100
AcDbLine
10
3521.099136820499
20
2436.337998118894
30
0.0
11
3736.140136820499
21
2436.337998118894
31
0.0
0
ARC
5
983
100
AcDbEntity
8
0-0
6
CONTINUOUS
62
7
100
AcDbCircle
10
3169.062136820498
20
2543.562998118894
30
0.0
40
577.126000000000
100
AcDbArc
50
349.292771146749
51
360.572298748421
0
ARC
5
984
100
AcDbEntity
8
0-0
6
CONTINUOUS
62
7
100
AcDbCircle
10
3521.099136820499
20
2441.337998118894
30
0.0
40
5.000000000000
100
AcDbArc
50
172.648000000000
51
270.000000000000
0
ARC
5
985
100
AcDbEntity
8
0-0
6
CONTINUOUS
62
7
100
AcDbCircle
10
-2586.427863179504
20
3182.602998118894
30
0.0
40
6147.345000000000
100
AcDbArc
50
353.080000000000
51
355.416000000000
0
POLYLINE
5
986
100
AcDbEntity
8
0-0
6
CONTINUOUS
62
  7
100
AcDb2dPolyline
66
1
10
0.0
20
0.0
30
0.0
70
0
0
VERTEX
5
987
100
AcDbEntity
8
0-0
6
CONTINUOUS
62
  7
100
AcDbVertex
100
AcDb2dVertex
10
3393.083510442362
20
2661.088067865580
30
0.0
0
VERTEX
5
988
100
AcDbEntity
8
0-0
6
CONTINUOUS
62
  7
100
AcDbVertex
100
AcDb2dVertex
10
3393.474468103283
20
2660.610945637720
30
0.0
0
VERTEX
5
989
100
AcDbEntity
8
0-0
6
CONTINUOUS
62
  7
100
AcDbVertex
100
AcDb2dVertex
10
3394.147709294877
20
2659.787539843233
30
0.0
0
VERTEX
5
98a
100
AcDbEntity
8
0-0
6
CONTINUOUS
62
  7
100
AcDbVertex
100
AcDb2dVertex
10
3394.818662316944
20
2658.961963871823
30
0.0
0
VERTEX
5
98b
100
AcDbEntity
8
0-0
6
CONTINUOUS
62
  7
100
AcDbVertex
100
AcDb2dVertex
10
3395.485878960926
20
2658.132844193788
30
0.0
0
VERTEX
5
98c
100
AcDbEntity
8
0-0
6
CONTINUOUS
62
  7
100
AcDbVertex
100
AcDb2dVertex
10
3396.147911018260
20
2657.298807279430
30
0.0
0
VERTEX
5
98d
100
AcDbEntity
8
0-0
6
CONTINUOUS
62
  7
100
AcDbVertex
100
AcDb2dVertex
10
3396.803310280386
20
2656.458479599050
30
0.0
0
VERTEX
5
98e
100
AcDbEntity
8
0-0
6
CONTINUOUS
62
  7
100
AcDbVertex
100
AcDb2dVertex
10
3397.179832036175
20
2655.967665873313
30
0.0
0
VERTEX
5
98f
100
AcDbEntity
8
0-0
6
CONTINUOUS
62
  7
100
AcDbVertex
100
AcDb2dVertex
10
3397.558299542237
20
2655.467278599842
30
0.0
0
VERTEX
5
990
100
AcDbEntity
8
0-0
6
CONTINUOUS
62
  7
100
AcDbVertex
100
AcDb2dVertex
10
3398.201005966366
20
2654.596700120013
30
0.0
0
VERTEX
5
991
100
AcDbEntity
8
0-0
6
CONTINUOUS
62
  7
100
AcDbVertex
100
AcDb2dVertex
10
3398.827370848270
20
2653.714721054523
30
0.0
0
VERTEX
5
992
100
AcDbEntity
8
0-0
6
CONTINUOUS
62
  7
100
AcDbVertex
100
AcDb2dVertex
10
3399.432851857032
20
2652.819627153676
30
0.0
0
VERTEX
5
993
100
AcDbEntity
8
0-0
6
CONTINUOUS
62
  7
100
AcDbVertex
100
AcDb2dVertex
10
3400.012906661737
20
2651.909704167779
30
0.0
0
VERTEX
5
994
100
AcDbEntity
8
0-0
6
CONTINUOUS
62
  7
100
AcDbVertex
100
AcDb2dVertex
10
3400.562992931469
20
2650.983237847137
30
0.0
0
VERTEX
5
995
100
AcDbEntity
8
0-0
6
CONTINUOUS
62
  7
100
AcDbVertex
100
AcDb2dVertex
10
3400.866521470608
20
2650.437631721664
30
0.0
0
VERTEX
5
996
100
AcDbEntity
8
0-0
6
CONTINUOUS
62
  7
100
AcDbVertex
100
AcDb2dVertex
10
3401.171702894288
20
2649.858957441607
30
0.0
0
VERTEX
5
997
100
AcDbEntity
8
0-0
6
CONTINUOUS
62
  7
100
AcDbVertex
100
AcDb2dVertex
10
3401.670461062076
20
2648.846891569589
30
0.0
0
VERTEX
5
998
100
AcDbEntity
8
0-0
6
CONTINUOUS
62
  7
100
AcDbVertex
100
AcDb2dVertex
10
3402.141811904389
20
2647.820226554583
30
0.0
0
VERTEX
5
999
100
AcDbEntity
8
0-0
6
CONTINUOUS
62
  7
100
AcDbVertex
100
AcDb2dVertex
10
3402.594240722231
20
2646.783110576012
30
0.0
0
VERTEX
5
99a
100
AcDbEntity
8
0-0
6
CONTINUOUS
62
  7
100
AcDbVertex
100
AcDb2dVertex
10
3403.036232816604
20
2645.739691813295
30
0.0
0
VERTEX
5
99b
100
AcDbEntity
8
0-0
6
CONTINUOUS
62
  7
100
AcDbVertex
100
AcDb2dVertex
10
3403.476273488513
20
2644.694118445855
30
0.0
0
VERTEX
5
99c
100
AcDbEntity
8
0-0
6
CONTINUOUS
62
  7
100
AcDbVertex
100
AcDb2dVertex
10
3403.733946586277
20
2644.088333251253
30
0.0
0
VERTEX
5
99d
100
AcDbEntity
8
0-0
6
CONTINUOUS
62
  7
100
AcDbVertex
100
AcDb2dVertex
10
3404.016221037084
20
2643.434909787254
30
0.0
0
VERTEX
5
99e
100
AcDbEntity
8
0-0
6
CONTINUOUS
62
  7
100
AcDbVertex
100
AcDb2dVertex
10
3404.508164310400
20
2642.310724783825
30
0.0
0
VERTEX
5
99f
100
AcDbEntity
8
0-0
6
CONTINUOUS
62
  7
100
AcDbVertex
100
AcDb2dVertex
10
3404.998738674151
20
2641.187085728411
30
0.0
0
VERTEX
5
9a0
100
AcDbEntity
8
0-0
6
CONTINUOUS
62
  7
100
AcDbVertex
100
AcDb2dVertex
10
3405.478605558605
20
2640.061084353495
30
0.0
0
VERTEX
5
9a1
100
AcDbEntity
8
0-0
6
CONTINUOUS
62
  7
100
AcDbVertex
100
AcDb2dVertex
10
3405.938426394026
20
2638.929812391562
30
0.0
0
VERTEX
5
9a2
100
AcDbEntity
8
0-0
6
CONTINUOUS
62
  7
100
AcDbVertex
100
AcDb2dVertex
10
3406.368862610684
20
2637.790361575097
30
0.0
0
VERTEX
5
9a3
100
AcDbEntity
8
0-0
6
CONTINUOUS
62
  7
100
AcDbVertex
100
AcDb2dVertex
10
3406.601371701947
20
2637.124586541770
30
0.0
0
VERTEX
5
9a4
100
AcDbEntity
8
0-0
6
CONTINUOUS
62
  7
100
AcDbVertex
100
AcDb2dVertex
10
3407.058121965260
20
2635.660605101195
30
0.0
0
VERTEX
5
9a5
100
AcDbEntity
8
0-0
6
CONTINUOUS
62
  7
100
AcDbVertex
100
AcDb2dVertex
10
3407.701042947774
20
2633.094677841014
30
0.0
0
VERTEX
5
9a6
100
AcDbEntity
8
0-0
6
CONTINUOUS
62
  7
100
AcDbVertex
100
AcDb2dVertex
10
3408.192317030378
20
2630.484919039764
30
0.0
0
VERTEX
5
9a7
100
AcDbEntity
8
0-0
6
CONTINUOUS
62
  7
100
AcDbVertex
100
AcDb2dVertex
10
3408.568415247147
20
2627.841918056746
30
0.0
0
VERTEX
5
9a8
100
AcDbEntity
8
0-0
6
CONTINUOUS
62
  7
100
AcDbVertex
100
AcDb2dVertex
10
3408.865808632153
20
2625.176264251265
30
0.0
0
VERTEX
5
9a9
100
AcDbEntity
8
0-0
6
CONTINUOUS
62
  7
100
AcDbVertex
100
AcDb2dVertex
10
3409.120968219468
20
2622.498546982624
30
0.0
0
VERTEX
5
9aa
100
AcDbEntity
8
0-0
6
CONTINUOUS
62
  7
100
AcDbVertex
100
AcDb2dVertex
10
3409.263980737926
20
2620.944116246205
30
0.0
0
VERTEX
5
9ab
100
AcDbEntity
8
0-0
6
CONTINUOUS
62
  7
100
AcDbVertex
100
AcDb2dVertex
10
3410.142691089352
20
2612.319561051259
30
0.0
0
VERTEX
5
9ac
100
AcDbEntity
8
0-0
6
CONTINUOUS
62
  7
100
AcDbVertex
100
AcDb2dVertex
10
3411.945042554792
20
2597.542997044082
30
0.0
0
VERTEX
5
9ad
100
AcDbEntity
8
0-0
6
CONTINUOUS
62
  7
100
AcDbVertex
100
AcDb2dVertex
10
3413.976271561982
20
2582.853110066219
30
0.0
0
VERTEX
5
9ae
100
AcDbEntity
8
0-0
6
CONTINUOUS
62
  7
100
AcDbVertex
100
AcDb2dVertex
10
3416.079592181919
20
2568.213273845114
30
0.0
0
VERTEX
5
9af
100
AcDbEntity
8
0-0
6
CONTINUOUS
62
  7
100
AcDbVertex
100
AcDb2dVertex
10
3418.098218485595
20
2553.586862108210
30
0.0
0
VERTEX
5
9b0
100
AcDbEntity
8
0-0
6
CONTINUOUS
62
  7
100
AcDbVertex
100
AcDb2dVertex
10
3419.875364544005
20
2538.937248582950
30
0.0
0
VERTEX
5
9b1
100
AcDbEntity
8
0-0
6
CONTINUOUS
62
  7
100
AcDbVertex
100
AcDb2dVertex
10
3420.733681200604
20
2530.415409022922
30
0.0
0
VERTEX
5
9b2
100
AcDbEntity
8
0-0
6
CONTINUOUS
62
  7
100
AcDbVertex
100
AcDb2dVertex
10
3421.117043770943
20
2525.991182133411
30
0.0
0
VERTEX
5
9b3
100
AcDbEntity
8
0-0
6
CONTINUOUS
62
  7
100
AcDbVertex
100
AcDb2dVertex
10
3421.688637925286
20
2518.348615454897
30
0.0
0
VERTEX
5
9b4
100
AcDbEntity
8
0-0
6
CONTINUOUS
62
  7
100
AcDbVertex
100
AcDb2dVertex
10
3421.781204031663
20
2516.872320590006
30
0.0
0
SEQEND
5
9b5
100
AcDbEntity
8
0-0
0
POLYLINE
5
9b6
100
AcDbEntity
8
0-0
6
CONTINUOUS
62
  7
100
AcDb2dPolyline
66
1
10
0.0
20
0.0
30
0.0
70
0
0
VERTEX
5
9b7
100
AcDbEntity
8
0-0
6
CONTINUOUS
62
  7
100
AcDbVertex
100
AcDb2dVertex
10
3422.331143838396
20
2507.682692462716
30
0.0
0
VERTEX
5
9b8
100
AcDbEntity
8
0-0
6
CONTINUOUS
62
  7
100
AcDbVertex
100
AcDb2dVertex
10
3422.582561759004
20
2503.024416018929
30
0.0
0
VERTEX
5
9b9
100
AcDbEntity
8
0-0
6
CONTINUOUS
62
  7
100
AcDbVertex
100
AcDb2dVertex
10
3422.955247458692
20
2495.351909664166
30
0.0
0
VERTEX
5
9ba
100
AcDbEntity
8
0-0
6
CONTINUOUS
62
  7
100
AcDbVertex
100
AcDb2dVertex
10
3423.311986360475
20
2487.678549820015
30
0.0
0
VERTEX
5
9bb
100
AcDbEntity
8
0-0
6
CONTINUOUS
62
  7
100
AcDbVertex
100
AcDb2dVertex
10
3423.521509545968
20
2483.229408180186
30
0.0
0
VERTEX
5
9bc
100
AcDbEntity
8
0-0
6
CONTINUOUS
62
  7
100
AcDbVertex
100
AcDb2dVertex
10
3423.658918918961
20
2480.390694162555
30
0.0
0
VERTEX
5
9bd
100
AcDbEntity
8
0-0
6
CONTINUOUS
62
  7
100
AcDbVertex
100
AcDb2dVertex
10
3423.903663978295
20
2475.498103101242
30
0.0
0
VERTEX
5
9be
100
AcDbEntity
8
0-0
6
CONTINUOUS
62
  7
100
AcDbVertex
100
AcDb2dVertex
10
3424.158567913016
20
2470.607262006698
30
0.0
0
VERTEX
5
9bf
100
AcDbEntity
8
0-0
6
CONTINUOUS
62
  7
100
AcDbVertex
100
AcDb2dVertex
10
3424.423915039113
20
2465.717639559971
30
0.0
0
VERTEX
5
9c0
100
AcDbEntity
8
0-0
6
CONTINUOUS
62
  7
100
AcDbVertex
100
AcDb2dVertex
10
3424.699989672570
20
2460.828704442108
30
0.0
0
VERTEX
5
9c1
100
AcDbEntity
8
0-0
6
CONTINUOUS
62
  7
100
AcDbVertex
100
AcDb2dVertex
10
3424.987076129376
20
2455.939925334155
30
0.0
0
VERTEX
5
9c2
100
AcDbEntity
8
0-0
6
CONTINUOUS
62
  7
100
AcDbVertex
100
AcDb2dVertex
10
3425.158743927066
20
2453.104295567987
30
0.0
0
VERTEX
5
9c3
100
AcDbEntity
8
0-0
6
CONTINUOUS
62
  7
100
AcDbVertex
100
AcDb2dVertex
10
3425.274375670865
20
2451.224532019919
30
0.0
0
VERTEX
5
9c4
100
AcDbEntity
8
0-0
6
CONTINUOUS
62
  7
100
AcDbVertex
100
AcDb2dVertex
10
3425.472823989885
20
2447.983253711924
30
0.0
0
VERTEX
5
9c5
100
AcDbEntity
8
0-0
6
CONTINUOUS
62
  7
100
AcDbVertex
100
AcDb2dVertex
10
3425.662710669615
20
2444.741482240733
30
0.0
0
VERTEX
5
9c6
100
AcDbEntity
8
0-0
6
CONTINUOUS
62
  7
100
AcDbVertex
100
AcDb2dVertex
10
3425.835429677462
20
2441.499095549345
30
0.0
0
VERTEX
5
9c7
100
AcDbEntity
8
0-0
6
CONTINUOUS
62
  7
100
AcDbVertex
100
AcDb2dVertex
10
3425.982374980836
20
2438.255971580753
30
0.0
0
VERTEX
5
9c8
100
AcDbEntity
8
0-0
6
CONTINUOUS
62
  7
100
AcDbVertex
100
AcDb2dVertex
10
3426.094940547144
20
2435.011988277956
30
0.0
0
VERTEX
5
9c9
100
AcDbEntity
8
0-0
6
CONTINUOUS
62
  7
100
AcDbVertex
100
AcDb2dVertex
10
3426.141084555724
20
2433.130036118595
30
0.0
0
VERTEX
5
9ca
100
AcDbEntity
8
0-0
6
CONTINUOUS
62
  7
100
AcDbVertex
100
AcDb2dVertex
10
3426.167731068164
20
2431.558237610989
30
0.0
0
VERTEX
5
9cb
100
AcDbEntity
8
0-0
6
CONTINUOUS
62
  7
100
AcDbVertex
100
AcDb2dVertex
10
3426.191544631355
20
2428.847754881972
30
0.0
0
VERTEX
5
9cc
100
AcDbEntity
8
0-0
6
CONTINUOUS
62
  7
100
AcDbVertex
100
AcDb2dVertex
10
3426.193850275890
20
2426.136800465125
30
0.0
0
VERTEX
5
9cd
100
AcDbEntity
8
0-0
6
CONTINUOUS
62
  7
100
AcDbVertex
100
AcDb2dVertex
10
3426.182209738448
20
2423.425540196073
30
0.0
0
VERTEX
5
9ce
100
AcDbEntity
8
0-0
6
CONTINUOUS
62
  7
100
AcDbVertex
100
AcDb2dVertex
10
3426.179627030733
20
2423.037037497558
30
0.0
0
SEQEND
5
9cf
100
AcDbEntity
8
0-0
0
LINE
5
9d0
100
AcDbEntity
8
0-0
6
CONTINUOUS
62
7
100
AcDbLine
10
3871.140136820499
20
2411.337998118894
30
0.0
11
3438.001347015880
21
2411.337998118894
31
0.0
0
LINE
5
9d1
100
AcDbEntity
8
0-0
6
CONTINUOUS
62
7
100
AcDbLine
10
3400.521647414966
20
2494.664674173991
30
0.0
11
3399.660984325808
21
2507.350099705482
31
0.0
0
LINE
5
9d2
100
AcDbEntity
8
0-0
6
CONTINUOUS
62
7
100
AcDbLine
10
3399.052695544313
20
2516.315747397965
30
0.0
11
3389.078911801205
21
2663.320646915935
31
0.0
0
LINE
5
9d3
100
AcDbEntity
8
0-0
6
CONTINUOUS
62
7
100
AcDbLine
10
3417.222882782437
20
2496.098172308020
30
0.0
11
3416.565184462984
21
2507.242504943197
31
0.0
0
LINE
5
9d4
100
AcDbEntity
8
0-0
6
CONTINUOUS
62
7
100
AcDbLine
10
3415.851810494437
20
2519.330230521354
30
0.0
11
3411.086103832160
21
2600.082482298833
31
0.0
0
LINE
5
9d5
100
AcDbEntity
8
0-0
6
CONTINUOUS
62
7
100
AcDbLine
10
3873.115306478137
20
905.866393521294
30
0.0
11
3428.115306478137
21
905.866393521294
31
0.0
0
LINE
5
9d6
100
AcDbEntity
8
0-0
6
CONTINUOUS
62
7
100
AcDbLine
10
3423.260365675918
20
1011.258249526415
30
0.0
11
3433.060717304449
21
1011.258249526415
31
0.0
0
LINE
5
9d7
100
AcDbEntity
8
0-0
6
CONTINUOUS
62
7
100
AcDbLine
10
3410.344145066480
20
1019.798481511274
30
0.0
11
3410.344145066480
21
994.798481511274
31
0.0
0
LINE
5
9d8
100
AcDbEntity
8
0-0
6
CONTINUOUS
62
7
100
AcDbLine
10
3346.536386865124
20
1023.258249526415
30
0.0
11
3346.536386865124
21
991.258249526415
31
0.0
0
ARC
5
9d9
100
AcDbEntity
8
0-0
6
CONTINUOUS
62
7
100
AcDbCircle
10
3334.536386865124
20
991.258249526415
30
0.0
40
12.000000000000
100
AcDbArc
50
270.000000000000
51
360.000000000000
0
ARC
5
9da
100
AcDbEntity
8
0-0
6
CONTINUOUS
62
7
100
AcDbCircle
10
3334.536386865124
20
1023.258249526415
30
0.0
40
12.000000000000
100
AcDbArc
50
0.000000000000
51
90.000000000000
0
LINE
5
9db
100
AcDbEntity
8
0-0
6
CONTINUOUS
62
7
100
AcDbLine
10
3334.819090035080
20
1035.009955728974
30
0.0
11
3334.819090035080
21
979.404267744112
31
0.0
0
LINE
5
9dc
100
AcDbEntity
8
0-0
6
CONTINUOUS
62
7
100
AcDbLine
10
3381.051679283350
20
994.798481511274
30
0.0
11
3381.051679283350
21
1019.798481511274
31
0.0
0
LINE
5
9dd
100
AcDbEntity
8
0-0
6
CONTINUOUS
62
7
100
AcDbLine
10
3373.051679283350
20
1019.798481511274
30
0.0
11
3373.051679283350
21
994.798481511274
31
0.0
0
ARC
5
9de
100
AcDbEntity
8
0-0
6
CONTINUOUS
62
7
100
AcDbCircle
10
3377.091357210436
20
1007.249221764348
30
0.0
40
13.134414676531
100
AcDbArc
50
72.702435514475
51
107.723236616886
0
ARC
5
9df
100
AcDbEntity
8
0-0
6
CONTINUOUS
62
7
100
AcDbCircle
10
3377.091357210436
20
1007.249221764348
30
0.0
40
13.134414676531
100
AcDbArc
50
251.982390785310
51
287.478114533726
0
CIRCLE
5
9e0
100
AcDbEntity
8
0-0
6
CONTINUOUS
62
7
100
AcDbCircle
10
3377.078639504800
20
1007.265679971642
30
0.0
40
3.389457447208
0
ARC
5
9e1
100
AcDbEntity
8
0-0
6
CONTINUOUS
62
7
100
AcDbCircle
10
3377.075375964066
20
994.597086084105
30
0.0
40
3.389457447208
100
AcDbArc
50
0.021929785002
51
180.028490417393
0
ARC
5
9e2
100
AcDbEntity
8
0-0
6
CONTINUOUS
62
7
100
AcDbCircle
10
3377.089140216720
20
1019.906446926883
30
0.0
40
3.389457447208
100
AcDbArc
50
180.232247779006
51
359.660169619824
0
LINE
5
9e3
100
AcDbEntity
8
0-0
6
CONTINUOUS
62
7
100
AcDbLine
10
3347.013680380140
20
999.258249526415
30
0.0
11
3372.913257942959
21
999.258249526415
31
0.0
0
LINE
5
9e4
100
AcDbEntity
8
0-0
6
CONTINUOUS
62
7
100
AcDbLine
10
3346.765450999484
20
1015.258249526415
30
0.0
11
3372.979137607110
21
1015.258249526415
31
0.0
0
ARC
5
9e5
100
AcDbEntity
8
0-0
6
CONTINUOUS
62
7
100
AcDbCircle
10
3442.017848765871
20
1011.578249526415
30
0.0
40
3.240000000000
100
AcDbArc
50
0.000000000000
51
90.000000000000
0
ARC
5
9e6
100
AcDbEntity
8
0-0
6
CONTINUOUS
62
7
100
AcDbCircle
10
3442.017848765871
20
1002.938249526415
30
0.0
40
3.240000000000
100
AcDbArc
50
270.000000000000
51
360.000000000000
0
LINE
5
9e7
100
AcDbEntity
8
0-0
6
CONTINUOUS
62
7
100
AcDbLine
10
3445.257848765873
20
1011.578249526415
30
0.0
11
3445.257848765873
21
1002.938249526415
31
0.0
0
ARC
5
9e8
100
AcDbEntity
8
0-0
6
CONTINUOUS
62
7
100
AcDbCircle
10
3435.988483566960
20
985.367296439885
30
0.0
40
3.000000000000
100
AcDbArc
50
180.000000000000
51
270.000000000000
0
LINE
5
9e9
100
AcDbEntity
8
0-0
6
CONTINUOUS
62
7
100
AcDbLine
10
3438.988483566960
20
982.367296439885
30
0.0
11
3435.988483566960
21
982.367296439885
31
0.0
0
ARC
5
9ea
100
AcDbEntity
8
0-0
6
CONTINUOUS
62
7
100
AcDbCircle
10
3438.988483566960
20
985.367296439885
30
0.0
40
3.000000000000
100
AcDbArc
50
270.000000000000
51
360.000000000000
0
LINE
5
9eb
100
AcDbEntity
8
0-0
6
CONTINUOUS
62
7
100
AcDbLine
10
3432.988483566960
20
1029.367296439885
30
0.0
11
3432.988483566960
21
985.367296439885
31
0.0
0
ARC
5
9ec
100
AcDbEntity
8
0-0
6
CONTINUOUS
62
7
100
AcDbCircle
10
3435.988483566960
20
1029.367296439885
30
0.0
40
3.000000000000
100
AcDbArc
50
90.000000000000
51
180.000000000000
0
LINE
5
9ed
100
AcDbEntity
8
0-0
6
CONTINUOUS
62
7
100
AcDbLine
10
3438.988483566960
20
1032.367296439885
30
0.0
11
3435.988483566960
21
1032.367296439885
31
0.0
0
LINE
5
9ee
100
AcDbEntity
8
0-0
6
CONTINUOUS
62
7
100
AcDbLine
10
3441.988483566960
20
1029.367296439885
30
0.0
11
3441.988483566960
21
985.367296439885
31
0.0
0
ARC
5
9ef
100
AcDbEntity
8
0-0
6
CONTINUOUS
62
7
100
AcDbCircle
10
3438.988483566960
20
1029.367296439885
30
0.0
40
3.000000000000
100
AcDbArc
50
0.000000000000
51
90.000000000000
0
LINE
5
9f0
100
AcDbEntity
8
0-0
6
CONTINUOUS
62
7
100
AcDbLine
10
3385.408092944375
20
1042.264636479474
30
0.0
11
3405.408092944375
21
1042.264636479474
31
0.0
0
LINE
5
9f1
100
AcDbEntity
8
0-0
6
CONTINUOUS
62
7
100
AcDbLine
10
3386.523022257634
20
1028.264636479474
30
0.0
11
3404.293163631113
21
1028.264636479474
31
0.0
0
LINE
5
9f2
100
AcDbEntity
8
0-0
6
CONTINUOUS
62
7
100
AcDbLine
10
3385.408092944375
20
1030.264636479474
30
0.0
11
3405.408092944375
21
1030.264636479474
31
0.0
0
ARC
5
9f3
100
AcDbEntity
8
0-0
6
CONTINUOUS
62
7
100
AcDbCircle
10
3377.880907226916
20
1036.264636479473
30
0.0
40
9.625929816131
100
AcDbArc
50
321.441277284353
51
398.558722715647
0
ARC
5
9f4
100
AcDbEntity
8
0-0
6
CONTINUOUS
62
7
100
AcDbCircle
10
3393.065875871127
20
1036.264636479474
30
0.0
40
6.440961171922
100
AcDbArc
50
291.324157753203
51
428.675842246797
0
ARC
5
9f5
100
AcDbEntity
8
0-0
6
CONTINUOUS
62
7
100
AcDbCircle
10
3397.750310017620
20
1036.264636479474
30
0.0
40
6.440961171922
100
AcDbArc
50
111.324157753203
51
248.675842246797
0
ARC
5
9f6
100
AcDbEntity
8
0-0
6
CONTINUOUS
62
7
100
AcDbCircle
10
3392.935278661831
20
1036.264636479474
30
0.0
40
9.625929816131
100
AcDbArc
50
141.441277284353
51
218.558722715647
0
ARC
5
9f7
100
AcDbEntity
8
0-0
6
CONTINUOUS
62
7
100
AcDbCircle
10
3412.935278661831
20
1036.264636479474
30
0.0
40
9.625929816131
100
AcDbArc
50
141.441277284353
51
218.558722715647
0
ARC
5
9f8
100
AcDbEntity
8
0-0
6
CONTINUOUS
62
7
100
AcDbCircle
10
3397.880907226916
20
1036.264636479474
30
0.0
40
9.625929816131
100
AcDbArc
50
321.441277284353
51
398.558722715647
0
POLYLINE
5
9f9
100
AcDbEntity
8
0-0
6
CONTINUOUS
62
  7
100
AcDb2dPolyline
66
1
10
0.0
20
0.0
30
0.0
70
0
0
VERTEX
5
9fa
100
AcDbEntity
8
0-0
6
CONTINUOUS
62
  7
100
AcDbVertex
100
AcDb2dVertex
10
3381.086221349949
20
1019.712812265676
30
0.0
0
VERTEX
5
9fb
100
AcDbEntity
8
0-0
6
CONTINUOUS
62
  7
100
AcDbVertex
100
AcDb2dVertex
10
3381.235564097162
20
1019.865587703482
30
0.0
0
VERTEX
5
9fc
100
AcDbEntity
8
0-0
6
CONTINUOUS
62
  7
100
AcDbVertex
100
AcDb2dVertex
10
3381.492769520004
20
1020.129085802483
30
0.0
0
VERTEX
5
9fd
100
AcDbEntity
8
0-0
6
CONTINUOUS
62
  7
100
AcDbVertex
100
AcDb2dVertex
10
3381.749191408529
20
1020.392839934128
30
0.0
0
VERTEX
5
9fe
100
AcDbEntity
8
0-0
6
CONTINUOUS
62
  7
100
AcDbVertex
100
AcDb2dVertex
10
3382.004333854943
20
1020.657012144392
30
0.0
0
VERTEX
5
9ff
100
AcDbEntity
8
0-0
6
CONTINUOUS
62
  7
100
AcDbVertex
100
AcDb2dVertex
10
3382.257700951448
20
1020.921764479254
30
0.0
0
VERTEX
5
a00
100
AcDbEntity
8
0-0
6
CONTINUOUS
62
  7
100
AcDbVertex
100
AcDb2dVertex
10
3382.508796790252
20
1021.187258984689
30
0.0
0
VERTEX
5
a01
100
AcDbEntity
8
0-0
6
CONTINUOUS
62
  7
100
AcDbVertex
100
AcDb2dVertex
10
3382.757125463557
20
1021.453657706675
30
0.0
0
VERTEX
5
a02
100
AcDbEntity
8
0-0
6
CONTINUOUS
62
  7
100
AcDbVertex
100
AcDb2dVertex
10
3383.002191063569
20
1021.721122691187
30
0.0
0
VERTEX
5
a03
100
AcDbEntity
8
0-0
6
CONTINUOUS
62
  7
100
AcDbVertex
100
AcDb2dVertex
10
3383.243497682492
20
1021.989815984203
30
0.0
0
VERTEX
5
a04
100
AcDbEntity
8
0-0
6
CONTINUOUS
62
  7
100
AcDbVertex
100
AcDb2dVertex
10
3383.480549412531
20
1022.259899631700
30
0.0
0
VERTEX
5
a05
100
AcDbEntity
8
0-0
6
CONTINUOUS
62
  7
100
AcDbVertex
100
AcDb2dVertex
10
3383.712850345890
20
1022.531535679654
30
0.0
0
VERTEX
5
a06
100
AcDbEntity
8
0-0
6
CONTINUOUS
62
  7
100
AcDbVertex
100
AcDb2dVertex
10
3383.939904574775
20
1022.804886174042
30
0.0
0
VERTEX
5
a07
100
AcDbEntity
8
0-0
6
CONTINUOUS
62
  7
100
AcDbVertex
100
AcDb2dVertex
10
3384.161216191390
20
1023.080113160841
30
0.0
0
VERTEX
5
a08
100
AcDbEntity
8
0-0
6
CONTINUOUS
62
  7
100
AcDbVertex
100
AcDb2dVertex
10
3384.376289287939
20
1023.357378686028
30
0.0
0
VERTEX
5
a09
100
AcDbEntity
8
0-0
6
CONTINUOUS
62
  7
100
AcDbVertex
100
AcDb2dVertex
10
3384.584627956626
20
1023.636844795578
30
0.0
0
VERTEX
5
a0a
100
AcDbEntity
8
0-0
6
CONTINUOUS
62
  7
100
AcDbVertex
100
AcDb2dVertex
10
3384.785736289658
20
1023.918673535470
30
0.0
0
VERTEX
5
a0b
100
AcDbEntity
8
0-0
6
CONTINUOUS
62
  7
100
AcDbVertex
100
AcDb2dVertex
10
3384.979118379239
20
1024.203026951679
30
0.0
0
VERTEX
5
a0c
100
AcDbEntity
8
0-0
6
CONTINUOUS
62
  7
100
AcDbVertex
100
AcDb2dVertex
10
3385.164278317573
20
1024.490067090183
30
0.0
0
VERTEX
5
a0d
100
AcDbEntity
8
0-0
6
CONTINUOUS
62
  7
100
AcDbVertex
100
AcDb2dVertex
10
3385.340720196864
20
1024.779955996958
30
0.0
0
VERTEX
5
a0e
100
AcDbEntity
8
0-0
6
CONTINUOUS
62
  7
100
AcDbVertex
100
AcDb2dVertex
10
3385.507948109317
20
1025.072855717982
30
0.0
0
VERTEX
5
a0f
100
AcDbEntity
8
0-0
6
CONTINUOUS
62
  7
100
AcDbVertex
100
AcDb2dVertex
10
3385.665466147138
20
1025.368928299230
30
0.0
0
VERTEX
5
a10
100
AcDbEntity
8
0-0
6
CONTINUOUS
62
  7
100
AcDbVertex
100
AcDb2dVertex
10
3385.812778402530
20
1025.668335786680
30
0.0
0
VERTEX
5
a11
100
AcDbEntity
8
0-0
6
CONTINUOUS
62
  7
100
AcDbVertex
100
AcDb2dVertex
10
3385.949388967699
20
1025.971240226308
30
0.0
0
VERTEX
5
a12
100
AcDbEntity
8
0-0
6
CONTINUOUS
62
  7
100
AcDbVertex
100
AcDb2dVertex
10
3386.074801934848
20
1026.277803664091
30
0.0
0
VERTEX
5
a13
100
AcDbEntity
8
0-0
6
CONTINUOUS
62
  7
100
AcDbVertex
100
AcDb2dVertex
10
3386.188521396184
20
1026.588188146006
30
0.0
0
VERTEX
5
a14
100
AcDbEntity
8
0-0
6
CONTINUOUS
62
  7
100
AcDbVertex
100
AcDb2dVertex
10
3386.290051443909
20
1026.902555718030
30
0.0
0
VERTEX
5
a15
100
AcDbEntity
8
0-0
6
CONTINUOUS
62
  7
100
AcDbVertex
100
AcDb2dVertex
10
3386.378896170229
20
1027.221068426138
30
0.0
0
VERTEX
5
a16
100
AcDbEntity
8
0-0
6
CONTINUOUS
62
  7
100
AcDbVertex
100
AcDb2dVertex
10
3386.454559667349
20
1027.543888316309
30
0.0
0
VERTEX
5
a17
100
AcDbEntity
8
0-0
6
CONTINUOUS
62
  7
100
AcDbVertex
100
AcDb2dVertex
10
3386.516546027474
20
1027.871177434519
30
0.0
0
VERTEX
5
a18
100
AcDbEntity
8
0-0
6
CONTINUOUS
62
  7
100
AcDbVertex
100
AcDb2dVertex
10
3386.546035838715
20
1028.063116777909
30
0.0
0
VERTEX
5
a19
100
AcDbEntity
8
0-0
6
CONTINUOUS
62
  7
100
AcDbVertex
100
AcDb2dVertex
10
3386.551462471245
20
1028.102497094267
30
0.0
0
VERTEX
5
a1a
100
AcDbEntity
8
0-0
6
CONTINUOUS
62
  7
100
AcDbVertex
100
AcDb2dVertex
10
3386.560354329783
20
1028.170545943179
30
0.0
0
VERTEX
5
a1b
100
AcDbEntity
8
0-0
6
CONTINUOUS
62
  7
100
AcDbVertex
100
AcDb2dVertex
10
3386.568676110762
20
1028.238781074248
30
0.0
0
VERTEX
5
a1c
100
AcDbEntity
8
0-0
6
CONTINUOUS
62
  7
100
AcDbVertex
100
AcDb2dVertex
10
3386.576448484146
20
1028.307195733230
30
0.0
0
VERTEX
5
a1d
100
AcDbEntity
8
0-0
6
CONTINUOUS
62
  7
100
AcDbVertex
100
AcDb2dVertex
10
3386.583692119896
20
1028.375783165874
30
0.0
0
VERTEX
5
a1e
100
AcDbEntity
8
0-0
6
CONTINUOUS
62
  7
100
AcDbVertex
100
AcDb2dVertex
10
3386.590427687975
20
1028.444536617933
30
0.0
0
VERTEX
5
a1f
100
AcDbEntity
8
0-0
6
CONTINUOUS
62
  7
100
AcDbVertex
100
AcDb2dVertex
10
3386.596675858344
20
1028.513449335159
30
0.0
0
VERTEX
5
a20
100
AcDbEntity
8
0-0
6
CONTINUOUS
62
  7
100
AcDbVertex
100
AcDb2dVertex
10
3386.602457300966
20
1028.582514563304
30
0.0
0
VERTEX
5
a21
100
AcDbEntity
8
0-0
6
CONTINUOUS
62
  7
100
AcDbVertex
100
AcDb2dVertex
10
3386.607792685804
20
1028.651725548121
30
0.0
0
VERTEX
5
a22
100
AcDbEntity
8
0-0
6
CONTINUOUS
62
  7
100
AcDbVertex
100
AcDb2dVertex
10
3386.612702682819
20
1028.721075535360
30
0.0
0
VERTEX
5
a23
100
AcDbEntity
8
0-0
6
CONTINUOUS
62
  7
100
AcDbVertex
100
AcDb2dVertex
10
3386.617207961974
20
1028.790557770775
30
0.0
0
VERTEX
5
a24
100
AcDbEntity
8
0-0
6
CONTINUOUS
62
  7
100
AcDbVertex
100
AcDb2dVertex
10
3386.621329193230
20
1028.860165500116
30
0.0
0
VERTEX
5
a25
100
AcDbEntity
8
0-0
6
CONTINUOUS
62
  7
100
AcDbVertex
100
AcDb2dVertex
10
3386.625087046550
20
1028.929891969138
30
0.0
0
VERTEX
5
a26
100
AcDbEntity
8
0-0
6
CONTINUOUS
62
  7
100
AcDbVertex
100
AcDb2dVertex
10
3386.628502191898
20
1028.999730423590
30
0.0
0
VERTEX
5
a27
100
AcDbEntity
8
0-0
6
CONTINUOUS
62
  7
100
AcDbVertex
100
AcDb2dVertex
10
3386.631595299233
20
1029.069674109225
30
0.0
0
VERTEX
5
a28
100
AcDbEntity
8
0-0
6
CONTINUOUS
62
  7
100
AcDbVertex
100
AcDb2dVertex
10
3386.634387038519
20
1029.139716271796
30
0.0
0
VERTEX
5
a29
100
AcDbEntity
8
0-0
6
CONTINUOUS
62
  7
100
AcDbVertex
100
AcDb2dVertex
10
3386.636898079718
20
1029.209850157054
30
0.0
0
VERTEX
5
a2a
100
AcDbEntity
8
0-0
6
CONTINUOUS
62
  7
100
AcDbVertex
100
AcDb2dVertex
10
3386.639149092793
20
1029.280069010752
30
0.0
0
VERTEX
5
a2b
100
AcDbEntity
8
0-0
6
CONTINUOUS
62
  7
100
AcDbVertex
100
AcDb2dVertex
10
3386.641160747704
20
1029.350366078641
30
0.0
0
VERTEX
5
a2c
100
AcDbEntity
8
0-0
6
CONTINUOUS
62
  7
100
AcDbVertex
100
AcDb2dVertex
10
3386.642953714416
20
1029.420734606474
30
0.0
0
VERTEX
5
a2d
100
AcDbEntity
8
0-0
6
CONTINUOUS
62
  7
100
AcDbVertex
100
AcDb2dVertex
10
3386.644548662890
20
1029.491167840003
30
0.0
0
VERTEX
5
a2e
100
AcDbEntity
8
0-0
6
CONTINUOUS
62
  7
100
AcDbVertex
100
AcDb2dVertex
10
3386.645966263087
20
1029.561659024978
30
0.0
0
VERTEX
5
a2f
100
AcDbEntity
8
0-0
6
CONTINUOUS
62
  7
100
AcDbVertex
100
AcDb2dVertex
10
3386.647227184971
20
1029.632201407154
30
0.0
0
VERTEX
5
a30
100
AcDbEntity
8
0-0
6
CONTINUOUS
62
  7
100
AcDbVertex
100
AcDb2dVertex
10
3386.648352098503
20
1029.702788232281
30
0.0
0
VERTEX
5
a31
100
AcDbEntity
8
0-0
6
CONTINUOUS
62
  7
100
AcDbVertex
100
AcDb2dVertex
10
3386.649361673647
20
1029.773412746111
30
0.0
0
VERTEX
5
a32
100
AcDbEntity
8
0-0
6
CONTINUOUS
62
  7
100
AcDbVertex
100
AcDb2dVertex
10
3386.650276580363
20
1029.844068194397
30
0.0
0
VERTEX
5
a33
100
AcDbEntity
8
0-0
6
CONTINUOUS
62
  7
100
AcDbVertex
100
AcDb2dVertex
10
3386.651117488615
20
1029.914747822891
30
0.0
0
VERTEX
5
a34
100
AcDbEntity
8
0-0
6
CONTINUOUS
62
  7
100
AcDbVertex
100
AcDb2dVertex
10
3386.651905068363
20
1029.985444877345
30
0.0
0
VERTEX
5
a35
100
AcDbEntity
8
0-0
6
CONTINUOUS
62
  7
100
AcDbVertex
100
AcDb2dVertex
10
3386.652659989572
20
1030.056152603510
30
0.0
0
VERTEX
5
a36
100
AcDbEntity
8
0-0
6
CONTINUOUS
62
  7
100
AcDbVertex
100
AcDb2dVertex
10
3386.653091024770
20
1030.097165312940
30
0.0
0
SEQEND
5
a37
100
AcDbEntity
8
0-0
0
ARC
5
a38
100
AcDbEntity
8
0-0
6
CONTINUOUS
62
7
100
AcDbCircle
10
3414.383822993566
20
1007.249221764348
30
0.0
40
13.134414676531
100
AcDbArc
50
72.702435514475
51
107.723236616886
0
ARC
5
a39
100
AcDbEntity
8
0-0
6
CONTINUOUS
62
7
100
AcDbCircle
10
3414.383822993566
20
1007.249221764348
30
0.0
40
13.134414676531
100
AcDbArc
50
251.982390785310
51
287.478114533726
0
CIRCLE
5
a3a
100
AcDbEntity
8
0-0
6
CONTINUOUS
62
7
100
AcDbCircle
10
3414.371105287930
20
1007.265679971642
30
0.0
40
3.389457447208
0
ARC
5
a3b
100
AcDbEntity
8
0-0
6
CONTINUOUS
62
7
100
AcDbCircle
10
3414.367841747196
20
994.597086084106
30
0.0
40
3.389457447208
100
AcDbArc
50
0.021929785002
51
180.028490417393
0
ARC
5
a3c
100
AcDbEntity
8
0-0
6
CONTINUOUS
62
7
100
AcDbCircle
10
3414.381605999850
20
1019.906446926883
30
0.0
40
3.389457447208
100
AcDbArc
50
180.232247779006
51
359.660169619824
0
LINE
5
a3d
100
AcDbEntity
8
0-0
6
CONTINUOUS
62
7
100
AcDbLine
10
3418.070528859001
20
994.901067960888
30
0.0
11
3418.070528859001
21
1019.768943559272
31
0.0
0
LINE
5
a3e
100
AcDbEntity
8
0-0
6
CONTINUOUS
62
7
100
AcDbLine
10
3381.118465951100
20
995.058223934033
30
0.0
11
3410.267543161582
21
995.058223934033
31
0.0
0
POLYLINE
5
a3f
100
AcDbEntity
8
0-0
6
CONTINUOUS
62
  7
100
AcDb2dPolyline
66
1
10
0.0
20
0.0
30
0.0
70
0
0
VERTEX
5
a40
100
AcDbEntity
8
0-0
6
CONTINUOUS
62
  7
100
AcDbVertex
100
AcDb2dVertex
10
3404.143893636209
20
1030.176029828483
30
0.0
0
VERTEX
5
a41
100
AcDbEntity
8
0-0
6
CONTINUOUS
62
  7
100
AcDbVertex
100
AcDb2dVertex
10
3404.365726897526
20
1029.490624352269
30
0.0
0
VERTEX
5
a42
100
AcDbEntity
8
0-0
6
CONTINUOUS
62
  7
100
AcDbVertex
100
AcDb2dVertex
10
3404.757495205065
20
1028.314916434783
30
0.0
0
VERTEX
5
a43
100
AcDbEntity
8
0-0
6
CONTINUOUS
62
  7
100
AcDbVertex
100
AcDb2dVertex
10
3405.175088977431
20
1027.155946467834
30
0.0
0
VERTEX
5
a44
100
AcDbEntity
8
0-0
6
CONTINUOUS
62
  7
100
AcDbVertex
100
AcDb2dVertex
10
3405.634853445527
20
1026.024308091003
30
0.0
0
VERTEX
5
a45
100
AcDbEntity
8
0-0
6
CONTINUOUS
62
  7
100
AcDbVertex
100
AcDb2dVertex
10
3406.153133840257
20
1024.930594943870
30
0.0
0
VERTEX
5
a46
100
AcDbEntity
8
0-0
6
CONTINUOUS
62
  7
100
AcDbVertex
100
AcDb2dVertex
10
3406.746275392522
20
1023.885400666014
30
0.0
0
VERTEX
5
a47
100
AcDbEntity
8
0-0
6
CONTINUOUS
62
  7
100
AcDbVertex
100
AcDb2dVertex
10
3407.131039746147
20
1023.305593775626
30
0.0
0
VERTEX
5
a48
100
AcDbEntity
8
0-0
6
CONTINUOUS
62
  7
100
AcDbVertex
100
AcDb2dVertex
10
3407.386454516277
20
1022.956284539574
30
0.0
0
VERTEX
5
a49
100
AcDbEntity
8
0-0
6
CONTINUOUS
62
  7
100
AcDbVertex
100
AcDb2dVertex
10
3407.853906648396
20
1022.371579465250
30
0.0
0
VERTEX
5
a4a
100
AcDbEntity
8
0-0
6
CONTINUOUS
62
  7
100
AcDbVertex
100
AcDb2dVertex
10
3408.350220196577
20
1021.805579996330
30
0.0
0
VERTEX
5
a4b
100
AcDbEntity
8
0-0
6
CONTINUOUS
62
  7
100
AcDbVertex
100
AcDb2dVertex
10
3408.869093541591
20
1021.254201939496
30
0.0
0
VERTEX
5
a4c
100
AcDbEntity
8
0-0
6
CONTINUOUS
62
  7
100
AcDbVertex
100
AcDb2dVertex
10
3409.404225064212
20
1020.713361101428
30
0.0
0
VERTEX
5
a4d
100
AcDbEntity
8
0-0
6
CONTINUOUS
62
  7
100
AcDbVertex
100
AcDb2dVertex
10
3409.949313145212
20
1020.178973288805
30
0.0
0
VERTEX
5
a4e
100
AcDbEntity
8
0-0
6
CONTINUOUS
62
  7
100
AcDbVertex
100
AcDb2dVertex
10
3410.267543161582
20
1019.870375749197
30
0.0
0
SEQEND
5
a4f
100
AcDbEntity
8
0-0
0
POLYLINE
5
a50
100
AcDbEntity
8
0-0
6
CONTINUOUS
62
  7
100
AcDb2dPolyline
66
1
10
0.0
20
0.0
30
0.0
70
0
0
VERTEX
5
a51
100
AcDbEntity
8
0-0
6
CONTINUOUS
62
  7
100
AcDbVertex
100
AcDb2dVertex
10
3418.066775660157
20
994.729434738923
30
0.0
0
VERTEX
5
a52
100
AcDbEntity
8
0-0
6
CONTINUOUS
62
  7
100
AcDbVertex
100
AcDb2dVertex
10
3418.341923431962
20
995.201503833021
30
0.0
0
VERTEX
5
a53
100
AcDbEntity
8
0-0
6
CONTINUOUS
62
  7
100
AcDbVertex
100
AcDb2dVertex
10
3418.819062679406
20
996.013408938200
30
0.0
0
VERTEX
5
a54
100
AcDbEntity
8
0-0
6
CONTINUOUS
62
  7
100
AcDbVertex
100
AcDb2dVertex
10
3419.303831197505
20
996.819738693310
30
0.0
0
VERTEX
5
a55
100
AcDbEntity
8
0-0
6
CONTINUOUS
62
  7
100
AcDbVertex
100
AcDb2dVertex
10
3419.801057638572
20
997.616964395776
30
0.0
0
VERTEX
5
a56
100
AcDbEntity
8
0-0
6
CONTINUOUS
62
  7
100
AcDbVertex
100
AcDb2dVertex
10
3420.315570654920
20
998.401557343022
30
0.0
0
VERTEX
5
a57
100
AcDbEntity
8
0-0
6
CONTINUOUS
62
  7
100
AcDbVertex
100
AcDb2dVertex
10
3420.852198898861
20
999.169988832472
30
0.0
0
VERTEX
5
a58
100
AcDbEntity
8
0-0
6
CONTINUOUS
62
  7
100
AcDbVertex
100
AcDb2dVertex
10
3421.175479217733
20
999.606883424085
30
0.0
0
VERTEX
5
a59
100
AcDbEntity
8
0-0
6
CONTINUOUS
62
  7
100
AcDbVertex
100
AcDb2dVertex
10
3421.367091871330
20
999.856611489480
30
0.0
0
VERTEX
5
a5a
100
AcDbEntity
8
0-0
6
CONTINUOUS
62
  7
100
AcDbVertex
100
AcDb2dVertex
10
3421.704415519292
20
1000.282093051344
30
0.0
0
VERTEX
5
a5b
100
AcDbEntity
8
0-0
6
CONTINUOUS
62
  7
100
AcDbVertex
100
AcDb2dVertex
10
3422.049153323417
20
1000.702156465399
30
0.0
0
VERTEX
5
a5c
100
AcDbEntity
8
0-0
6
CONTINUOUS
62
  7
100
AcDbVertex
100
AcDb2dVertex
10
3422.399686472317
20
1001.117984733350
30
0.0
0
VERTEX
5
a5d
100
AcDbEntity
8
0-0
6
CONTINUOUS
62
  7
100
AcDbVertex
100
AcDb2dVertex
10
3422.754396154601
20
1001.530760856902
30
0.0
0
VERTEX
5
a5e
100
AcDbEntity
8
0-0
6
CONTINUOUS
62
  7
100
AcDbVertex
100
AcDb2dVertex
10
3423.111663558881
20
1001.941667837761
30
0.0
0
VERTEX
5
a5f
100
AcDbEntity
8
0-0
6
CONTINUOUS
62
  7
100
AcDbVertex
100
AcDb2dVertex
10
3423.319412705716
20
1002.179603609665
30
0.0
0
SEQEND
5
a60
100
AcDbEntity
8
0-0
0
LINE
5
a61
100
AcDbEntity
8
0-0
6
CONTINUOUS
62
7
100
AcDbLine
10
3423.349497581697
20
1012.258249526415
30
0.0
11
3423.349497581697
21
1002.258249526415
31
0.0
0
POLYLINE
5
a62
100
AcDbEntity
8
0-0
6
CONTINUOUS
62
  7
100
AcDb2dPolyline
66
1
10
0.0
20
0.0
30
0.0
70
0
0
VERTEX
5
a63
100
AcDbEntity
8
0-0
6
CONTINUOUS
62
  7
100
AcDbVertex
100
AcDb2dVertex
10
3418.120373997356
20
1019.867054885527
30
0.0
0
VERTEX
5
a64
100
AcDbEntity
8
0-0
6
CONTINUOUS
62
  7
100
AcDbVertex
100
AcDb2dVertex
10
3418.379060908510
20
1019.375489343108
30
0.0
0
VERTEX
5
a65
100
AcDbEntity
8
0-0
6
CONTINUOUS
62
  7
100
AcDbVertex
100
AcDb2dVertex
10
3418.828815613511
20
1018.530651291733
30
0.0
0
VERTEX
5
a66
100
AcDbEntity
8
0-0
6
CONTINUOUS
62
  7
100
AcDbVertex
100
AcDb2dVertex
10
3419.288966955234
20
1017.693281978965
30
0.0
0
VERTEX
5
a67
100
AcDbEntity
8
0-0
6
CONTINUOUS
62
  7
100
AcDbVertex
100
AcDb2dVertex
10
3419.766095083501
20
1016.868108454558
30
0.0
0
VERTEX
5
a68
100
AcDbEntity
8
0-0
6
CONTINUOUS
62
  7
100
AcDbVertex
100
AcDb2dVertex
10
3420.266780148136
20
1016.059857768262
30
0.0
0
VERTEX
5
a69
100
AcDbEntity
8
0-0
6
CONTINUOUS
62
  7
100
AcDbVertex
100
AcDb2dVertex
10
3420.797602298962
20
1015.273256969829
30
0.0
0
VERTEX
5
a6a
100
AcDbEntity
8
0-0
6
CONTINUOUS
62
  7
100
AcDbVertex
100
AcDb2dVertex
10
3421.121880880533
20
1014.828811188766
30
0.0
0
VERTEX
5
a6b
100
AcDbEntity
8
0-0
6
CONTINUOUS
62
  7
100
AcDbVertex
100
AcDb2dVertex
10
3421.319341442648
20
1014.571113952755
30
0.0
0
VERTEX
5
a6c
100
AcDbEntity
8
0-0
6
CONTINUOUS
62
  7
100
AcDbVertex
100
AcDb2dVertex
10
3421.669628761355
20
1014.133875851367
30
0.0
0
VERTEX
5
a6d
100
AcDbEntity
8
0-0
6
CONTINUOUS
62
  7
100
AcDbVertex
100
AcDb2dVertex
10
3422.030400624329
20
1013.704169639635
30
0.0
0
VERTEX
5
a6e
100
AcDbEntity
8
0-0
6
CONTINUOUS
62
  7
100
AcDbVertex
100
AcDb2dVertex
10
3422.399367829768
20
1013.280350800166
30
0.0
0
VERTEX
5
a6f
100
AcDbEntity
8
0-0
6
CONTINUOUS
62
  7
100
AcDbVertex
100
AcDb2dVertex
10
3422.774241175864
20
1012.860774815568
30
0.0
0
VERTEX
5
a70
100
AcDbEntity
8
0-0
6
CONTINUOUS
62
  7
100
AcDbVertex
100
AcDb2dVertex
10
3423.152731460812
20
1012.443797168450
30
0.0
0
VERTEX
5
a71
100
AcDbEntity
8
0-0
6
CONTINUOUS
62
  7
100
AcDbVertex
100
AcDb2dVertex
10
3423.373011042916
20
1012.202492665986
30
0.0
0
SEQEND
5
a72
100
AcDbEntity
8
0-0
0
LINE
5
a73
100
AcDbEntity
8
0-0
6
CONTINUOUS
62
7
100
AcDbLine
10
3423.327623828288
20
1003.258249526415
30
0.0
11
3433.060717304449
21
1003.258249526415
31
0.0
0
LINE
5
a74
100
AcDbEntity
8
0-0
6
CONTINUOUS
62
7
100
AcDbLine
10
3523.074306478138
20
930.866393521294
30
0.0
11
3738.115306478137
21
930.866393521294
31
0.0
0
LINE
5
a75
100
AcDbEntity
8
0-0
6
CONTINUOUS
62
16
100
AcDbLine
10
3338.115306478137
20
1326.936393521294
30
0.0
11
3338.115306478137
21
1316.456393521294
31
0.0
0
LINE
5
a76
100
AcDbEntity
8
0-0
6
CONTINUOUS
62
7
100
AcDbLine
10
3338.115306478137
20
1225.866393521294
30
0.0
11
3338.115306478137
21
1489.412393521294
31
0.0
0
LINE
5
a77
100
AcDbEntity
8
0-0
6
CONTINUOUS
62
7
100
AcDbLine
10
3368.115306478137
20
1504.412393521294
30
0.0
11
3523.115306478137
21
1504.412393521294
31
0.0
0
LINE
5
a78
100
AcDbEntity
8
0-0
6
CONTINUOUS
62
7
100
AcDbLine
10
3528.115306478137
20
1499.412393521294
30
0.0
11
3528.115306478137
21
1464.412393521294
31
0.0
0
LINE
5
a79
100
AcDbEntity
8
0-0
6
CONTINUOUS
62
7
100
AcDbLine
10
3363.115306478137
20
1499.412393521294
30
0.0
11
3363.115306478137
21
1494.412393521294
31
0.0
0
LINE
5
a7a
100
AcDbEntity
8
0-0
6
CONTINUOUS
62
7
100
AcDbLine
10
3420.615306478137
20
1507.412393521294
30
0.0
11
3470.615306478137
21
1507.412393521294
31
0.0
0
LINE
5
a7b
100
AcDbEntity
8
0-0
6
CONTINUOUS
62
7
100
AcDbLine
10
3430.615306478137
20
1509.412393521294
30
0.0
11
3460.615306478137
21
1509.412393521294
31
0.0
0
LINE
5
a7c
100
AcDbEntity
8
0-0
6
CONTINUOUS
62
7
100
AcDbLine
10
3420.615306478137
20
1504.412393521294
30
0.0
11
3420.615306478137
21
1507.412393521294
31
0.0
0
LINE
5
a7d
100
AcDbEntity
8
0-0
6
CONTINUOUS
62
7
100
AcDbLine
10
3430.615306478137
20
1507.412393521294
30
0.0
11
3430.615306478137
21
1509.412393521294
31
0.0
0
LINE
5
a7e
100
AcDbEntity
8
0-0
6
CONTINUOUS
62
7
100
AcDbLine
10
3470.615306478137
20
1507.412393521294
30
0.0
11
3470.615306478137
21
1504.412393521294
31
0.0
0
LINE
5
a7f
100
AcDbEntity
8
0-0
6
CONTINUOUS
62
7
100
AcDbLine
10
3460.615306478137
20
1509.412393521294
30
0.0
11
3460.615306478137
21
1507.412393521294
31
0.0
0
LINE
5
a80
100
AcDbEntity
8
0-0
6
CONTINUOUS
62
7
100
AcDbLine
10
3363.889306478138
20
1183.483393521294
30
0.0
11
3394.809306478137
21
1155.866393521294
31
0.0
0
ARC
5
a81
100
AcDbEntity
8
0-0
6
CONTINUOUS
62
7
100
AcDbCircle
10
3634.886306478138
20
928.373393521294
30
0.0
40
46.443000000000
100
AcDbArc
50
3.077697451483
51
77.223937347572
0
ARC
5
a82
100
AcDbEntity
8
0-0
6
CONTINUOUS
62
7
100
AcDbCircle
10
3599.928306478138
20
781.809393521294
30
0.0
40
197.116000000000
100
AcDbArc
50
76.735157322520
51
97.319173962123
0
ARC
5
a83
100
AcDbEntity
8
0-0
6
CONTINUOUS
62
7
100
AcDbCircle
10
3546.146306478137
20
985.081393521294
30
0.0
40
29.702000000000
100
AcDbArc
50
344.850024302096
51
408.876413077118
0
ARC
5
a84
100
AcDbEntity
8
0-0
6
CONTINUOUS
62
7
100
AcDbCircle
10
3685.318306478137
20
1062.628393521294
30
0.0
40
131.747000000000
100
AcDbArc
50
176.588231792812
51
204.757649966401
0
ARC
5
a85
100
AcDbEntity
8
0-0
6
CONTINUOUS
62
7
100
AcDbCircle
10
3565.158306478138
20
1069.564393521294
30
0.0
40
11.389000000000
100
AcDbArc
50
39.845189622983
51
175.445013901934
0
ARC
5
a86
100
AcDbEntity
8
0-0
6
CONTINUOUS
62
7
100
AcDbCircle
10
3753.783306478137
20
1203.949393521294
30
0.0
40
220.246000000000
100
AcDbArc
50
215.241608502095
51
267.872815201451
0
ARC
5
a87
100
AcDbEntity
8
0-0
6
CONTINUOUS
62
7
100
AcDbCircle
10
3171.037306478138
20
1038.091393521294
30
0.0
40
577.126000000000
100
AcDbArc
50
349.292771146749
51
360.572298748421
0
ARC
5
a88
100
AcDbEntity
8
0-0
6
CONTINUOUS
62
7
100
AcDbCircle
10
3399.190306478137
20
1233.979393521294
30
0.0
40
61.612000000000
100
AcDbArc
50
187.566000000000
51
235.043000000000
0
ARC
5
a89
100
AcDbEntity
8
0-0
6
CONTINUOUS
62
7
100
AcDbCircle
10
3523.074306478138
20
935.866393521294
30
0.0
40
5.000000000000
100
AcDbArc
50
172.648000000000
51
270.000000000000
0
ARC
5
a8a
100
AcDbEntity
8
0-0
6
CONTINUOUS
62
7
100
AcDbCircle
10
1829.135306478137
20
1237.834393521294
30
0.0
40
1714.022000000000
100
AcDbArc
50
359.600000000000
51
367.596000000000
0
ARC
5
a8b
100
AcDbEntity
8
0-0
6
CONTINUOUS
62
7
100
AcDbCircle
10
3523.115306478137
20
1499.412393521294
30
0.0
40
5.000000000000
100
AcDbArc
50
0.000000000000
51
90.000000000000
0
ARC
5
a8c
100
AcDbEntity
8
0-0
6
CONTINUOUS
62
7
100
AcDbCircle
10
3343.115306478137
20
1489.412393521294
30
0.0
40
5.000000000000
100
AcDbArc
50
90.000000000000
51
180.000000000000
0
ARC
5
a8d
100
AcDbEntity
8
0-0
6
CONTINUOUS
62
7
100
AcDbCircle
10
3368.115306478137
20
1499.412393521294
30
0.0
40
5.000000000000
100
AcDbArc
50
90.000000000000
51
180.000000000000
0
ARC
5
a8e
100
AcDbEntity
8
0-0
6
CONTINUOUS
62
7
100
AcDbCircle
10
3798.349306478138
20
1162.927393521294
30
0.0
40
131.778000000000
100
AcDbArc
50
304.566593197810
51
370.024832486586
0
ARC
5
a8f
100
AcDbEntity
8
0-0
6
CONTINUOUS
62
7
100
AcDbCircle
10
3902.879306478138
20
1037.792393521294
30
0.0
40
34.090000000000
100
AcDbArc
50
150.820984211250
51
176.417821830274
0
ARC
5
a90
100
AcDbEntity
8
0-0
6
CONTINUOUS
62
7
100
AcDbCircle
10
10323.236306478138
20
1177.904393521294
30
0.0
40
6455.855000000001
100
AcDbArc
50
181.224685569087
51
182.415051979900
0
ARC
5
a91
100
AcDbEntity
8
0-0
6
CONTINUOUS
62
7
100
AcDbCircle
10
-2584.452693521864
20
1677.131393521294
30
0.0
40
6147.345000000000
100
AcDbArc
50
353.080000000000
51
355.416000000000
0
ARC
5
a92
100
AcDbEntity
8
0-0
6
CONTINUOUS
62
7
100
AcDbCircle
10
3798.405306478137
20
1451.989393521294
30
0.0
40
411.218000000000
100
AcDbArc
50
262.978096188350
51
279.019190787997
0
ARC
5
a93
100
AcDbEntity
8
0-0
6
CONTINUOUS
62
7
100
AcDbCircle
10
3764.603306478137
20
1207.558393521294
30
0.0
40
164.529000000000
100
AcDbArc
50
187.575970520310
51
264.255386556790
0
ARC
5
a94
100
AcDbEntity
8
0-0
6
CONTINUOUS
62
7
100
AcDbCircle
10
3566.397306478137
20
1068.571393521294
30
0.0
40
77.698000000000
100
AcDbArc
50
37.950696187754
51
110.245620793027
0
LINE
5
a95
100
AcDbEntity
8
0-0
6
CONTINUOUS
62
7
100
AcDbLine
10
3343.115306478137
20
1494.412393521294
30
0.0
11
3363.440736339851
21
1494.412393521294
31
0.0
0
LINE
5
a96
100
AcDbEntity
8
0-0
6
CONTINUOUS
62
7
100
AcDbLine
10
3363.229042598874
20
1494.600321419885
30
0.0
11
3363.229042598874
21
1464.859614271552
31
0.0
0
LINE
5
a97
100
AcDbEntity
8
0-0
6
CONTINUOUS
62
7
100
AcDbLine
10
3363.637625160604
20
1464.412393521294
30
0.0
11
3528.115306478137
21
1464.412393521294
31
0.0
0
LINE
5
a98
100
AcDbEntity
8
0-0
6
CONTINUOUS
62
7
100
AcDbLine
10
3928.115306478137
20
1185.866393521294
30
0.0
11
3543.151146162400
21
1185.866393521294
31
0.0
0
LINE
5
a99
100
AcDbEntity
8
0-0
6
CONTINUOUS
62
7
100
AcDbLine
10
3623.115306478137
20
1256.638796972942
30
0.0
11
3623.115306478137
21
1246.638796972942
31
0.0
0
LINE
5
a9a
100
AcDbEntity
8
0-0
6
CONTINUOUS
62
7
100
AcDbLine
10
3573.172306478137
20
1226.638796972942
30
0.0
11
3573.172306478137
21
1216.638796972942
31
0.0
0
LINE
5
a9b
100
AcDbEntity
8
0-0
6
CONTINUOUS
62
7
100
AcDbLine
10
3628.115306478137
20
1241.638796972942
30
0.0
11
3628.115306478137
21
1216.638796972942
31
0.0
0
LINE
5
a9c
100
AcDbEntity
8
0-0
6
CONTINUOUS
62
7
100
AcDbLine
10
3573.172306478137
20
1226.638796972942
30
0.0
11
3617.560306478137
21
1226.638796972942
31
0.0
0
LINE
5
a9d
100
AcDbEntity
8
0-0
6
CONTINUOUS
62
7
100
AcDbLine
10
3625.115306478138
20
1226.638796972942
30
0.0
11
3628.115306478137
21
1226.638796972942
31
0.0
0
LINE
5
a9e
100
AcDbEntity
8
0-0
6
CONTINUOUS
62
7
100
AcDbLine
10
3753.115306478137
20
1218.638796972942
30
0.0
11
3753.115306478137
21
1216.638796972942
31
0.0
0
LINE
5
a9f
100
AcDbEntity
8
0-0
6
CONTINUOUS
62
7
100
AcDbLine
10
3783.115306478137
20
1218.638796972942
30
0.0
11
3783.115306478137
21
1216.638796972942
31
0.0
0
ARC
5
aa0
100
AcDbEntity
8
0-0
6
CONTINUOUS
62
7
100
AcDbCircle
10
3619.115306478138
20
1226.638796972942
30
0.0
40
6.000000000000
100
AcDbArc
50
0.000000000000
51
180.000000000000
0
ARC
5
aa1
100
AcDbEntity
8
0-0
6
CONTINUOUS
62
7
100
AcDbCircle
10
3628.115306478137
20
1256.638796972942
30
0.0
40
5.000000000000
100
AcDbArc
50
90.000000000000
51
180.000000000000
0
ARC
5
aa2
100
AcDbEntity
8
0-0
6
CONTINUOUS
62
7
100
AcDbCircle
10
3628.115306478137
20
1246.638796972942
30
0.0
40
5.000000000000
100
AcDbArc
50
180.000000000000
51
270.000000000000
0
ARC
5
aa3
100
AcDbEntity
8
0-0
6
CONTINUOUS
62
7
100
AcDbCircle
10
3671.506306478138
20
1223.841796972942
30
0.0
40
58.458000000000
100
AcDbArc
50
145.873000000000
51
177.257000000000
0
LINE
5
aa4
100
AcDbEntity
8
0-0
6
CONTINUOUS
62
7
100
AcDbLine
10
3925.042062353456
20
1246.638796972942
30
0.0
11
3925.042062353456
21
1241.638796972942
31
0.0
0
LINE
5
aa5
100
AcDbEntity
8
0-0
6
CONTINUOUS
62
7
100
AcDbLine
10
3935.042062353456
20
1226.638796972942
30
0.0
11
3935.042062353456
21
1218.638796972942
31
0.0
0
LINE
5
aa6
100
AcDbEntity
8
0-0
6
CONTINUOUS
62
7
100
AcDbLine
10
3917.542062353456
20
1218.638796972942
30
0.0
11
3917.542062353456
21
1216.638796972942
31
0.0
0
LINE
5
aa7
100
AcDbEntity
8
0-0
6
CONTINUOUS
62
7
100
AcDbLine
10
3907.542062353456
20
1218.638796972942
30
0.0
11
3907.542062353456
21
1216.638796972942
31
0.0
0
ARC
5
aa8
100
AcDbEntity
8
0-0
6
CONTINUOUS
62
7
100
AcDbCircle
10
3920.042062353456
20
1226.638796972942
30
0.0
40
15.000000000000
100
AcDbArc
50
0.000000000000
51
90.000000000000
0
ARC
5
aa9
100
AcDbEntity
8
0-0
6
CONTINUOUS
62
7
100
AcDbCircle
10
3910.042062353456
20
1246.638796972942
30
0.0
40
15.000000000000
100
AcDbArc
50
0.000000000000
51
90.000000000000
0
LINE
5
aaa
100
AcDbEntity
8
0-0
6
CONTINUOUS
62
7
100
AcDbLine
10
3628.115306478137
20
1261.638796972942
30
0.0
11
3910.895328068239
21
1261.638796972942
31
0.0
0
LINE
5
aab
100
AcDbEntity
8
0-0
6
CONTINUOUS
62
7
100
AcDbLine
10
3921.075705826141
20
1241.638796972942
30
0.0
11
3628.115306478137
21
1241.638796972942
31
0.0
0
LINE
5
aac
100
AcDbEntity
8
0-0
6
CONTINUOUS
62
7
100
AcDbLine
10
3628.115306478137
20
1218.638796972942
30
0.0
11
3934.649542836676
21
1218.638796972942
31
0.0
0
LINE
5
aad
100
AcDbEntity
8
0-0
6
CONTINUOUS
62
7
100
AcDbLine
10
3543.151146162400
20
1216.638796972942
30
0.0
11
3922.504530774619
21
1216.638796972942
31
0.0
0
ARC
5
aae
100
AcDbEntity
8
0-0
6
CONTINUOUS
62
7
100
AcDbCircle
10
3920.861157731494
20
1201.331154795595
30
0.0
40
15.500000000000
100
AcDbArc
50
273.556181094255
51
444.634369073360
0
LINE
5
aaf
100
AcDbEntity
8
0-0
6
CONTINUOUS
62
7
100
AcDbLine
10
3388.077926205432
20
1042.727301340656
30
0.0
11
3380.409942340736
21
1167.670332547763
31
0.0
0
LINE
5
ab0
100
AcDbEntity
8
0-0
6
CONTINUOUS
62
7
100
AcDbLine
10
3428.242863874504
20
906.850864367695
30
0.0
11
3428.141760050059
21
905.876591150321
31
0.0
0
LINE
5
ab1
100
AcDbEntity
8
0-0
6
CONTINUOUS
62
7
100
AcDbLine
10
3428.203401143044
20
908.903691965977
30
0.0
11
3428.240351400944
21
906.843526115502
31
0.0
0
LINE
5
ab2
100
AcDbEntity
8
0-0
6
CONTINUOUS
62
7
100
AcDbLine
10
3428.136766606894
20
912.455584138149
30
0.0
11
3428.203401143044
21
908.903691965977
31
0.0
0
LINE
5
ab3
100
AcDbEntity
8
0-0
6
CONTINUOUS
62
7
100
AcDbLine
10
3428.062000973682
20
916.007148769059
30
0.0
11
3428.136766606894
21
912.455584138149
31
0.0
0
LINE
5
ab4
100
AcDbEntity
8
0-0
6
CONTINUOUS
62
7
100
AcDbLine
10
3427.973957979444
20
919.558178554111
30
0.0
11
3428.062000973682
21
916.007148769059
31
0.0
0
LINE
5
ab5
100
AcDbEntity
8
0-0
6
CONTINUOUS
62
7
100
AcDbLine
10
3427.867491360218
20
923.108466188708
30
0.0
11
3427.973957979444
21
919.558178554111
31
0.0
0
LINE
5
ab6
100
AcDbEntity
8
0-0
6
CONTINUOUS
62
7
100
AcDbLine
10
3427.737454852040
20
926.657804368254
30
0.0
11
3427.867491360218
21
923.108466188708
31
0.0
0
LINE
5
ab7
100
AcDbEntity
8
0-0
6
CONTINUOUS
62
7
100
AcDbLine
10
3427.649206058571
20
928.715903783296
30
0.0
11
3427.737454852040
21
926.657804368254
31
0.0
0
LINE
5
ab8
100
AcDbEntity
8
0-0
6
CONTINUOUS
62
7
100
AcDbLine
10
3427.545160057157
20
930.886869440269
30
0.0
11
3427.649206058571
21
928.715903783296
31
0.0
0
LINE
5
ab9
100
AcDbEntity
8
0-0
6
CONTINUOUS
62
7
100
AcDbLine
10
3427.345689154047
20
934.629113999537
30
0.0
11
3427.545160057157
21
930.886869440269
31
0.0
0
LINE
5
aba
100
AcDbEntity
8
0-0
6
CONTINUOUS
62
7
100
AcDbLine
10
3427.132586083951
20
938.370835105823
30
0.0
11
3427.345689154047
21
934.629113999537
31
0.0
0
LINE
5
abb
100
AcDbEntity
8
0-0
6
CONTINUOUS
62
7
100
AcDbLine
10
3426.919556813286
20
942.112601126858
30
0.0
11
3427.132586083951
21
938.370835105823
31
0.0
0
LINE
5
abc
100
AcDbEntity
8
0-0
6
CONTINUOUS
62
7
100
AcDbLine
10
3426.720307308468
20
945.854980430375
30
0.0
11
3426.919556813286
21
942.112601126858
31
0.0
0
LINE
5
abd
100
AcDbEntity
8
0-0
6
CONTINUOUS
62
7
100
AcDbLine
10
3426.548543535910
20
949.598541384104
30
0.0
11
3426.720307308468
21
945.854980430375
31
0.0
0
LINE
5
abe
100
AcDbEntity
8
0-0
6
CONTINUOUS
62
7
100
AcDbLine
10
3426.466915373826
20
951.770572135836
30
0.0
11
3426.548543535910
21
949.598541384104
31
0.0
0
LINE
5
abf
100
AcDbEntity
8
0-0
6
CONTINUOUS
62
7
100
AcDbLine
10
3426.389208210163
20
954.386169988410
30
0.0
11
3426.466915373826
21
951.770572135836
31
0.0
0
LINE
5
ac0
100
AcDbEntity
8
0-0
6
CONTINUOUS
62
7
100
AcDbLine
10
3426.296909423921
20
958.897503844750
30
0.0
11
3426.389208210163
21
954.386169988410
31
0.0
0
LINE
5
ac1
100
AcDbEntity
8
0-0
6
CONTINUOUS
62
7
100
AcDbLine
10
3426.235324219977
20
963.409911157684
30
0.0
11
3426.296909423921
21
958.897503844750
31
0.0
0
LINE
5
ac2
100
AcDbEntity
8
0-0
6
CONTINUOUS
62
7
100
AcDbLine
10
3426.178819168649
20
967.922163849970
30
0.0
11
3426.235324219977
21
963.409911157684
31
0.0
0
LINE
5
ac3
100
AcDbEntity
8
0-0
6
CONTINUOUS
62
7
100
AcDbLine
10
3426.101760840252
20
972.433033844369
30
0.0
11
3426.178819168649
21
967.922163849970
31
0.0
0
LINE
5
ac4
100
AcDbEntity
8
0-0
6
CONTINUOUS
62
7
100
AcDbLine
10
3425.978515805105
20
976.941293063639
30
0.0
11
3426.101760840252
21
972.433033844369
31
0.0
0
LINE
5
ac5
100
AcDbEntity
8
0-0
6
CONTINUOUS
62
7
100
AcDbLine
10
3425.875770031453
20
979.554403227358
30
0.0
11
3425.978515805105
21
976.941293063639
31
0.0
0
LINE
5
ac6
100
AcDbEntity
8
0-0
6
CONTINUOUS
62
7
100
AcDbLine
10
3425.706923212150
20
982.843632542173
30
0.0
11
3425.875770031453
21
979.554403227358
31
0.0
0
LINE
5
ac7
100
AcDbEntity
8
0-0
6
CONTINUOUS
62
7
100
AcDbLine
10
3425.324857773355
20
988.510012182022
30
0.0
11
3425.706923212150
21
982.843632542173
31
0.0
0
LINE
5
ac8
100
AcDbEntity
8
0-0
6
CONTINUOUS
62
7
100
AcDbLine
10
3424.854416724666
20
994.171945241917
30
0.0
11
3425.324857773355
21
988.510012182022
31
0.0
0
LINE
5
ac9
100
AcDbEntity
8
0-0
6
CONTINUOUS
62
7
100
AcDbLine
10
3424.326706191022
20
999.831187075891
30
0.0
11
3424.854416724666
21
994.171945241917
31
0.0
0
LINE
5
aca
100
AcDbEntity
8
0-0
6
CONTINUOUS
62
7
100
AcDbLine
10
3423.988769478433
20
1003.283505983755
30
0.0
11
3424.326706191022
21
999.831187075891
31
0.0
0
POLYLINE
5
acb
100
AcDbEntity
8
0-0
6
CONTINUOUS
62
  7
100
AcDb2dPolyline
66
1
10
0.0
20
0.0
30
0.0
70
0
0
VERTEX
5
acc
100
AcDbEntity
8
0-0
6
CONTINUOUS
62
  7
100
AcDbVertex
100
AcDb2dVertex
10
3394.931584994168
20
1155.602033457848
30
0.0
0
VERTEX
5
acd
100
AcDbEntity
8
0-0
6
CONTINUOUS
62
  7
100
AcDbVertex
100
AcDb2dVertex
10
3395.228709931468
20
1155.270078603993
30
0.0
0
VERTEX
5
ace
100
AcDbEntity
8
0-0
6
CONTINUOUS
62
  7
100
AcDbVertex
100
AcDb2dVertex
10
3395.739560271754
20
1154.696675535218
30
0.0
0
VERTEX
5
acf
100
AcDbEntity
8
0-0
6
CONTINUOUS
62
  7
100
AcDbVertex
100
AcDb2dVertex
10
3396.246427183239
20
1154.120308261300
30
0.0
0
VERTEX
5
ad0
100
AcDbEntity
8
0-0
6
CONTINUOUS
62
  7
100
AcDbVertex
100
AcDb2dVertex
10
3396.746789508453
20
1153.539100703032
30
0.0
0
VERTEX
5
ad1
100
AcDbEntity
8
0-0
6
CONTINUOUS
62
  7
100
AcDbVertex
100
AcDb2dVertex
10
3397.238126089928
20
1152.951176781210
30
0.0
0
VERTEX
5
ad2
100
AcDbEntity
8
0-0
6
CONTINUOUS
62
  7
100
AcDbVertex
100
AcDb2dVertex
10
3397.717915770195
20
1152.354660416629
30
0.0
0
VERTEX
5
ad3
100
AcDbEntity
8
0-0
6
CONTINUOUS
62
  7
100
AcDbVertex
100
AcDb2dVertex
10
3397.989909527473
20
1152.004004595137
30
0.0
0
VERTEX
5
ad4
100
AcDbEntity
8
0-0
6
CONTINUOUS
62
  7
100
AcDbVertex
100
AcDb2dVertex
10
3398.421760582291
20
1151.425263412480
30
0.0
0
VERTEX
5
ad5
100
AcDbEntity
8
0-0
6
CONTINUOUS
62
  7
100
AcDbVertex
100
AcDb2dVertex
10
3399.137636753695
20
1150.406142472185
30
0.0
0
VERTEX
5
ad6
100
AcDbEntity
8
0-0
6
CONTINUOUS
62
  7
100
AcDbVertex
100
AcDb2dVertex
10
3399.822940591117
20
1149.364441961616
30
0.0
0
VERTEX
5
ad7
100
AcDbEntity
8
0-0
6
CONTINUOUS
62
  7
100
AcDbVertex
100
AcDb2dVertex
10
3400.484358095323
20
1148.305244975429
30
0.0
0
VERTEX
5
ad8
100
AcDbEntity
8
0-0
6
CONTINUOUS
62
  7
100
AcDbVertex
100
AcDb2dVertex
10
3401.128575267079
20
1147.233634608281
30
0.0
0
VERTEX
5
ad9
100
AcDbEntity
8
0-0
6
CONTINUOUS
62
  7
100
AcDbVertex
100
AcDb2dVertex
10
3401.762278107152
20
1146.154693954828
30
0.0
0
VERTEX
5
ada
100
AcDbEntity
8
0-0
6
CONTINUOUS
62
  7
100
AcDbVertex
100
AcDb2dVertex
10
3402.127642719591
20
1145.527552642256
30
0.0
0
VERTEX
5
adb
100
AcDbEntity
8
0-0
6
CONTINUOUS
62
  7
100
AcDbVertex
100
AcDb2dVertex
10
3402.486975714596
20
1144.910083119481
30
0.0
0
VERTEX
5
adc
100
AcDbEntity
8
0-0
6
CONTINUOUS
62
  7
100
AcDbVertex
100
AcDb2dVertex
10
3403.103324818038
20
1143.844395701690
30
0.0
0
VERTEX
5
add
100
AcDbEntity
8
0-0
6
CONTINUOUS
62
  7
100
AcDbVertex
100
AcDb2dVertex
10
3403.710753933610
20
1142.774883355252
30
0.0
0
VERTEX
5
ade
100
AcDbEntity
8
0-0
6
CONTINUOUS
62
  7
100
AcDbVertex
100
AcDb2dVertex
10
3404.303587101199
20
1141.698695180380
30
0.0
0
VERTEX
5
adf
100
AcDbEntity
8
0-0
6
CONTINUOUS
62
  7
100
AcDbVertex
100
AcDb2dVertex
10
3404.876148360698
20
1140.612980277289
30
0.0
0
VERTEX
5
ae0
100
AcDbEntity
8
0-0
6
CONTINUOUS
62
  7
100
AcDbVertex
100
AcDb2dVertex
10
3405.422761751994
20
1139.514887746191
30
0.0
0
VERTEX
5
ae1
100
AcDbEntity
8
0-0
6
CONTINUOUS
62
  7
100
AcDbVertex
100
AcDb2dVertex
10
3405.725671582302
20
1138.871199246240
30
0.0
0
VERTEX
5
ae2
100
AcDbEntity
8
0-0
6
CONTINUOUS
62
  7
100
AcDbVertex
100
AcDb2dVertex
10
3406.006484267879
20
1138.246206813801
30
0.0
0
VERTEX
5
ae3
100
AcDbEntity
8
0-0
6
CONTINUOUS
62
  7
100
AcDbVertex
100
AcDb2dVertex
10
3406.466434833714
20
1137.157309107456
30
0.0
0
VERTEX
5
ae4
100
AcDbEntity
8
0-0
6
CONTINUOUS
62
  7
100
AcDbVertex
100
AcDb2dVertex
10
3406.897801363022
20
1136.055648537345
30
0.0
0
VERTEX
5
ae5
100
AcDbEntity
8
0-0
6
CONTINUOUS
62
  7
100
AcDbVertex
100
AcDb2dVertex
10
3407.302979864087
20
1134.943053017205
30
0.0
0
VERTEX
5
ae6
100
AcDbEntity
8
0-0
6
CONTINUOUS
62
  7
100
AcDbVertex
100
AcDb2dVertex
10
3407.684366345193
20
1133.821350460774
30
0.0
0
VERTEX
5
ae7
100
AcDbEntity
8
0-0
6
CONTINUOUS
62
  7
100
AcDbVertex
100
AcDb2dVertex
10
3408.044356814624
20
1132.692368781789
30
0.0
0
VERTEX
5
ae8
100
AcDbEntity
8
0-0
6
CONTINUOUS
62
  7
100
AcDbVertex
100
AcDb2dVertex
10
3408.244291786200
20
1132.034944407088
30
0.0
0
VERTEX
5
ae9
100
AcDbEntity
8
0-0
6
CONTINUOUS
62
  7
100
AcDbVertex
100
AcDb2dVertex
10
3408.480513334710
20
1131.229681221118
30
0.0
0
VERTEX
5
aea
100
AcDbEntity
8
0-0
6
CONTINUOUS
62
  7
100
AcDbVertex
100
AcDb2dVertex
10
3408.868524386026
20
1129.836557837416
30
0.0
0
VERTEX
5
aeb
100
AcDbEntity
8
0-0
6
CONTINUOUS
62
  7
100
AcDbVertex
100
AcDb2dVertex
10
3409.234412567385
20
1128.438100595949
30
0.0
0
VERTEX
5
aec
100
AcDbEntity
8
0-0
6
CONTINUOUS
62
  7
100
AcDbVertex
100
AcDb2dVertex
10
3409.580813164822
20
1127.035081991087
30
0.0
0
VERTEX
5
aed
100
AcDbEntity
8
0-0
6
CONTINUOUS
62
  7
100
AcDbVertex
100
AcDb2dVertex
10
3409.910361464370
20
1125.628274517199
30
0.0
0
VERTEX
5
aee
100
AcDbEntity
8
0-0
6
CONTINUOUS
62
  7
100
AcDbVertex
100
AcDb2dVertex
10
3410.225692752064
20
1124.218450668654
30
0.0
0
VERTEX
5
aef
100
AcDbEntity
8
0-0
6
CONTINUOUS
62
  7
100
AcDbVertex
100
AcDb2dVertex
10
3410.403109103827
20
1123.399675136580
30
0.0
0
VERTEX
5
af0
100
AcDbEntity
8
0-0
6
CONTINUOUS
62
  7
100
AcDbVertex
100
AcDb2dVertex
10
3411.495222112756
20
1117.961803256253
30
0.0
0
VERTEX
5
af1
100
AcDbEntity
8
0-0
6
CONTINUOUS
62
  7
100
AcDbVertex
100
AcDb2dVertex
10
3413.081866767632
20
1108.533352850892
30
0.0
0
VERTEX
5
af2
100
AcDbEntity
8
0-0
6
CONTINUOUS
62
  7
100
AcDbVertex
100
AcDb2dVertex
10
3414.372201661477
20
1099.052308139578
30
0.0
0
VERTEX
5
af3
100
AcDbEntity
8
0-0
6
CONTINUOUS
62
  7
100
AcDbVertex
100
AcDb2dVertex
10
3415.457813632065
20
1089.535242173065
30
0.0
0
VERTEX
5
af4
100
AcDbEntity
8
0-0
6
CONTINUOUS
62
  7
100
AcDbVertex
100
AcDb2dVertex
10
3416.430289517164
20
1079.998728002104
30
0.0
0
VERTEX
5
af5
100
AcDbEntity
8
0-0
6
CONTINUOUS
62
  7
100
AcDbVertex
100
AcDb2dVertex
10
3417.381216154547
20
1070.459338677448
30
0.0
0
VERTEX
5
af6
100
AcDbEntity
8
0-0
6
CONTINUOUS
62
  7
100
AcDbVertex
100
AcDb2dVertex
10
3417.958969715522
20
1064.931706117519
30
0.0
0
VERTEX
5
af7
100
AcDbEntity
8
0-0
6
CONTINUOUS
62
  7
100
AcDbVertex
100
AcDb2dVertex
10
3418.229668125813
20
1062.456639483313
30
0.0
0
VERTEX
5
af8
100
AcDbEntity
8
0-0
6
CONTINUOUS
62
  7
100
AcDbVertex
100
AcDb2dVertex
10
3418.709920356293
20
1058.192152343491
30
0.0
0
VERTEX
5
af9
100
AcDbEntity
8
0-0
6
CONTINUOUS
62
  7
100
AcDbVertex
100
AcDb2dVertex
10
3419.198211116163
20
1053.930042576612
30
0.0
0
VERTEX
5
afa
100
AcDbEntity
8
0-0
6
CONTINUOUS
62
  7
100
AcDbVertex
100
AcDb2dVertex
10
3419.683971675357
20
1049.668851540600
30
0.0
0
VERTEX
5
afb
100
AcDbEntity
8
0-0
6
CONTINUOUS
62
  7
100
AcDbVertex
100
AcDb2dVertex
10
3420.156633303810
20
1045.407120593379
30
0.0
0
VERTEX
5
afc
100
AcDbEntity
8
0-0
6
CONTINUOUS
62
  7
100
AcDbVertex
100
AcDb2dVertex
10
3420.605627271453
20
1041.143391092874
30
0.0
0
VERTEX
5
afd
100
AcDbEntity
8
0-0
6
CONTINUOUS
62
  7
100
AcDbVertex
100
AcDb2dVertex
10
3420.851034621284
20
1038.668937464640
30
0.0
0
VERTEX
5
afe
100
AcDbEntity
8
0-0
6
CONTINUOUS
62
  7
100
AcDbVertex
100
AcDb2dVertex
10
3421.065599269527
20
1036.389611605894
30
0.0
0
VERTEX
5
aff
100
AcDbEntity
8
0-0
6
CONTINUOUS
62
  7
100
AcDbVertex
100
AcDb2dVertex
10
3421.414080209792
20
1032.457354993883
30
0.0
0
VERTEX
5
b00
100
AcDbEntity
8
0-0
6
CONTINUOUS
62
  7
100
AcDbVertex
100
AcDb2dVertex
10
3421.743822808089
20
1028.522831576720
30
0.0
0
VERTEX
5
b01
100
AcDbEntity
8
0-0
6
CONTINUOUS
62
  7
100
AcDbVertex
100
AcDb2dVertex
10
3422.064622204651
20
1024.586915163190
30
0.0
0
VERTEX
5
b02
100
AcDbEntity
8
0-0
6
CONTINUOUS
62
  7
100
AcDbVertex
100
AcDb2dVertex
10
3422.386273539714
20
1020.650479562077
30
0.0
0
VERTEX
5
b03
100
AcDbEntity
8
0-0
6
CONTINUOUS
62
  7
100
AcDbVertex
100
AcDb2dVertex
10
3422.718571953511
20
1016.714398582167
30
0.0
0
VERTEX
5
b04
100
AcDbEntity
8
0-0
6
CONTINUOUS
62
  7
100
AcDbVertex
100
AcDb2dVertex
10
3422.920043319589
20
1014.431978427355
30
0.0
0
VERTEX
5
b05
100
AcDbEntity
8
0-0
6
CONTINUOUS
62
  7
100
AcDbVertex
100
AcDb2dVertex
10
3423.103519796008
20
1012.449408895374
30
0.0
0
SEQEND
5
b06
100
AcDbEntity
8
0-0
0
LINE
5
b07
100
AcDbEntity
8
0-0
6
CONTINUOUS
62
7
100
AcDbLine
10
3403.864951809218
20
1042.276243466262
30
0.0
11
3395.180449184984
21
1155.174777581297
31
0.0
0
LINE
5
b08
100
AcDbEntity
8
0-0
6
CONTINUOUS
62
7
100
AcDbLine
10
5195.543303686512
20
928.889012966929
30
0.0
11
4980.502303686513
21
928.889012966929
31
0.0
0
LINE
5
b09
100
AcDbEntity
8
0-0
6
CONTINUOUS
62
16
100
AcDbLine
10
5380.502303686513
20
1324.959012966929
30
0.0
11
5380.502303686513
21
1314.479012966929
31
0.0
0
LINE
5
b0a
100
AcDbEntity
8
0-0
6
CONTINUOUS
62
7
100
AcDbLine
10
5380.502303686513
20
1223.889012966929
30
0.0
11
5380.502303686513
21
1487.435012966929
31
0.0
0
LINE
5
b0b
100
AcDbEntity
8
0-0
6
CONTINUOUS
62
7
100
AcDbLine
10
5350.502303686513
20
1502.435012966929
30
0.0
11
5195.502303686513
21
1502.435012966929
31
0.0
0
LINE
5
b0c
100
AcDbEntity
8
0-0
6
CONTINUOUS
62
7
100
AcDbLine
10
5190.502303686513
20
1497.435012966929
30
0.0
11
5190.502303686513
21
1462.435012966929
31
0.0
0
LINE
5
b0d
100
AcDbEntity
8
0-0
6
CONTINUOUS
62
7
100
AcDbLine
10
5355.502303686513
20
1497.435012966929
30
0.0
11
5355.502303686513
21
1492.435012966929
31
0.0
0
LINE
5
b0e
100
AcDbEntity
8
0-0
6
CONTINUOUS
62
7
100
AcDbLine
10
5298.002303686513
20
1505.435012966929
30
0.0
11
5248.002303686513
21
1505.435012966929
31
0.0
0
LINE
5
b0f
100
AcDbEntity
8
0-0
6
CONTINUOUS
62
7
100
AcDbLine
10
5288.002303686513
20
1507.435012966929
30
0.0
11
5258.002303686513
21
1507.435012966929
31
0.0
0
LINE
5
b10
100
AcDbEntity
8
0-0
6
CONTINUOUS
62
7
100
AcDbLine
10
5298.002303686513
20
1502.435012966929
30
0.0
11
5298.002303686513
21
1505.435012966929
31
0.0
0
LINE
5
b11
100
AcDbEntity
8
0-0
6
CONTINUOUS
62
7
100
AcDbLine
10
5288.002303686513
20
1505.435012966929
30
0.0
11
5288.002303686513
21
1507.435012966929
31
0.0
0
LINE
5
b12
100
AcDbEntity
8
0-0
6
CONTINUOUS
62
7
100
AcDbLine
10
5248.002303686513
20
1505.435012966929
30
0.0
11
5248.002303686513
21
1502.435012966929
31
0.0
0
LINE
5
b13
100
AcDbEntity
8
0-0
6
CONTINUOUS
62
7
100
AcDbLine
10
5258.002303686513
20
1507.435012966929
30
0.0
11
5258.002303686513
21
1505.435012966929
31
0.0
0
LINE
5
b14
100
AcDbEntity
8
0-0
6
CONTINUOUS
62
7
100
AcDbLine
10
5354.728303686513
20
1181.506012966929
30
0.0
11
5323.808303686514
21
1153.889012966929
31
0.0
0
LINE
5
b15
100
AcDbEntity
8
0-0
6
CONTINUOUS
62
7
100
AcDbLine
10
4845.502303686513
20
903.889012966929
30
0.0
11
5290.502303686513
21
903.889012966929
31
0.0
0
ARC
5
b16
100
AcDbEntity
8
0-0
6
CONTINUOUS
62
7
100
AcDbCircle
10
5083.731303686513
20
926.396012966929
30
0.0
40
46.443000000000
100
AcDbArc
50
102.776062652428
51
176.922302548517
0
ARC
5
b17
100
AcDbEntity
8
0-0
6
CONTINUOUS
62
7
100
AcDbCircle
10
5118.689303686514
20
779.832012966929
30
0.0
40
197.116000000000
100
AcDbArc
50
82.680826037877
51
103.264842677480
0
ARC
5
b18
100
AcDbEntity
8
0-0
6
CONTINUOUS
62
7
100
AcDbCircle
10
5172.471303686513
20
983.104012966929
30
0.0
40
29.702000000000
100
AcDbArc
50
131.123586922882
51
195.149975697904
0
ARC
5
b19
100
AcDbEntity
8
0-0
6
CONTINUOUS
62
7
100
AcDbCircle
10
5033.299303686514
20
1060.651012966930
30
0.0
40
131.747000000000
100
AcDbArc
50
335.242350033599
51
363.411768207188
0
ARC
5
b1a
100
AcDbEntity
8
0-0
6
CONTINUOUS
62
7
100
AcDbCircle
10
5153.459303686514
20
1067.587012966929
30
0.0
40
11.389000000000
100
AcDbArc
50
4.554986098066
51
140.154810377017
0
ARC
5
b1b
100
AcDbEntity
8
0-0
6
CONTINUOUS
62
7
100
AcDbCircle
10
4964.834303686514
20
1201.972012966929
30
0.0
40
220.246000000000
100
AcDbArc
50
272.127184798549
51
324.758391497905
0
ARC
5
b1c
100
AcDbEntity
8
0-0
6
CONTINUOUS
62
7
100
AcDbCircle
10
5547.580303686513
20
1036.114012966929
30
0.0
40
577.126000000000
100
AcDbArc
50
179.427701251579
51
190.707228853251
0
ARC
5
b1d
100
AcDbEntity
8
0-0
6
CONTINUOUS
62
7
100
AcDbCircle
10
5379.219303686514
20
1107.507012966929
30
0.0
40
72.261000000000
100
AcDbArc
50
140.068547028528
51
168.620286471034
0
ARC
5
b1e
100
AcDbEntity
8
0-0
6
CONTINUOUS
62
7
100
AcDbCircle
10
6814.935303686514
20
888.484012966929
30
0.0
40
1524.511000000000
100
AcDbArc
50
171.198023015219
51
179.421020607064
0
ARC
5
b1f
100
AcDbEntity
8
0-0
6
CONTINUOUS
62
7
100
AcDbCircle
10
5319.427303686513
20
1232.002012966929
30
0.0
40
61.612000000000
100
AcDbArc
50
304.957000000000
51
352.434000000000
0
ARC
5
b20
100
AcDbEntity
8
0-0
6
CONTINUOUS
62
7
100
AcDbCircle
10
5195.543303686512
20
933.889012966929
30
0.0
40
5.000000000000
100
AcDbArc
50
270.000000000000
51
367.352000000000
0
ARC
5
b21
100
AcDbEntity
8
0-0
6
CONTINUOUS
62
7
100
AcDbCircle
10
6889.482303686515
20
1235.857012966930
30
0.0
40
1714.022000000000
100
AcDbArc
50
172.404000000000
51
180.400000000000
0
ARC
5
b22
100
AcDbEntity
8
0-0
6
CONTINUOUS
62
7
100
AcDbCircle
10
5195.502303686513
20
1497.435012966929
30
0.0
40
5.000000000000
100
AcDbArc
50
90.000000000000
51
180.000000000000
0
ARC
5
b23
100
AcDbEntity
8
0-0
6
CONTINUOUS
62
7
100
AcDbCircle
10
5375.502303686513
20
1487.435012966929
30
0.0
40
5.000000000000
100
AcDbArc
50
360.000000000000
51
450.000000000000
0
ARC
5
b24
100
AcDbEntity
8
0-0
6
CONTINUOUS
62
7
100
AcDbCircle
10
5350.502303686513
20
1497.435012966929
30
0.0
40
5.000000000000
100
AcDbArc
50
360.000000000000
51
450.000000000000
0
ARC
5
b25
100
AcDbEntity
8
0-0
6
CONTINUOUS
62
7
100
AcDbCircle
10
4920.268303686513
20
1160.950012966930
30
0.0
40
131.778000000000
100
AcDbArc
50
169.975167513414
51
235.433406802190
0
ARC
5
b26
100
AcDbEntity
8
0-0
6
CONTINUOUS
62
7
100
AcDbCircle
10
4815.738303686512
20
1035.815012966929
30
0.0
40
34.090000000000
100
AcDbArc
50
3.582178169726
51
29.179015788750
0
ARC
5
b27
100
AcDbEntity
8
0-0
6
CONTINUOUS
62
7
100
AcDbCircle
10
-1604.618696313488
20
1175.927012966929
30
0.0
40
6455.855000000001
100
AcDbArc
50
357.584948020100
51
358.775314430914
0
ARC
5
b28
100
AcDbEntity
8
0-0
6
CONTINUOUS
62
7
100
AcDbCircle
10
11303.070303686512
20
1675.154012966930
30
0.0
40
6147.345000000000
100
AcDbArc
50
184.584000000000
51
186.920000000000
0
ARC
5
b29
100
AcDbEntity
8
0-0
6
CONTINUOUS
62
7
100
AcDbCircle
10
4920.212303686512
20
1450.012012966929
30
0.0
40
411.218000000000
100
AcDbArc
50
260.980809212003
51
277.021903811650
0
ARC
5
b2a
100
AcDbEntity
8
0-0
6
CONTINUOUS
62
7
100
AcDbCircle
10
4954.014303686514
20
1205.581012966929
30
0.0
40
164.529000000000
100
AcDbArc
50
275.744613443211
51
352.424029479690
0
ARC
5
b2b
100
AcDbEntity
8
0-0
6
CONTINUOUS
62
7
100
AcDbCircle
10
5152.220303686514
20
1066.594012966929
30
0.0
40
77.698000000000
100
AcDbArc
50
69.754379206973
51
142.049303812246
0
LINE
5
b2c
100
AcDbEntity
8
0-0
6
CONTINUOUS
62
7
100
AcDbLine
10
5375.502303686513
20
1492.435012966929
30
0.0
11
5355.176873824799
21
1492.435012966929
31
0.0
0
LINE
5
b2d
100
AcDbEntity
8
0-0
6
CONTINUOUS
62
7
100
AcDbLine
10
5355.388567565778
20
1492.622940865520
30
0.0
11
5355.388567565778
21
1462.882233717187
31
0.0
0
LINE
5
b2e
100
AcDbEntity
8
0-0
6
CONTINUOUS
62
7
100
AcDbLine
10
5354.979985004047
20
1462.435012966929
30
0.0
11
5190.502303686513
21
1462.435012966929
31
0.0
0
LINE
5
b2f
100
AcDbEntity
8
0-0
6
CONTINUOUS
62
7
100
AcDbLine
10
4790.502303686513
20
1183.889012966929
30
0.0
11
5175.466464002251
21
1183.889012966929
31
0.0
0
LINE
5
b30
100
AcDbEntity
8
0-0
6
CONTINUOUS
62
7
100
AcDbLine
10
5095.502303686513
20
1254.661416418578
30
0.0
11
5095.502303686513
21
1244.661416418578
31
0.0
0
LINE
5
b31
100
AcDbEntity
8
0-0
6
CONTINUOUS
62
7
100
AcDbLine
10
5145.445303686514
20
1224.661416418578
30
0.0
11
5145.445303686514
21
1214.661416418578
31
0.0
0
LINE
5
b32
100
AcDbEntity
8
0-0
6
CONTINUOUS
62
7
100
AcDbLine
10
5090.502303686513
20
1239.661416418578
30
0.0
11
5090.502303686513
21
1214.661416418578
31
0.0
0
LINE
5
b33
100
AcDbEntity
8
0-0
6
CONTINUOUS
62
7
100
AcDbLine
10
5145.445303686514
20
1224.661416418578
30
0.0
11
5101.057303686514
21
1224.661416418578
31
0.0
0
LINE
5
b34
100
AcDbEntity
8
0-0
6
CONTINUOUS
62
7
100
AcDbLine
10
5093.502303686513
20
1224.661416418578
30
0.0
11
5090.502303686513
21
1224.661416418578
31
0.0
0
LINE
5
b35
100
AcDbEntity
8
0-0
6
CONTINUOUS
62
7
100
AcDbLine
10
4965.502303686513
20
1216.661416418577
30
0.0
11
4965.502303686513
21
1214.661416418578
31
0.0
0
LINE
5
b36
100
AcDbEntity
8
0-0
6
CONTINUOUS
62
7
100
AcDbLine
10
4935.502303686513
20
1216.661416418577
30
0.0
11
4935.502303686513
21
1214.661416418578
31
0.0
0
ARC
5
b37
100
AcDbEntity
8
0-0
6
CONTINUOUS
62
7
100
AcDbCircle
10
5099.502303686513
20
1224.661416418578
30
0.0
40
6.000000000000
100
AcDbArc
50
360.000000000000
51
540.000000000000
0
ARC
5
b38
100
AcDbEntity
8
0-0
6
CONTINUOUS
62
7
100
AcDbCircle
10
5090.502303686513
20
1254.661416418578
30
0.0
40
5.000000000000
100
AcDbArc
50
360.000000000000
51
450.000000000000
0
ARC
5
b39
100
AcDbEntity
8
0-0
6
CONTINUOUS
62
7
100
AcDbCircle
10
5090.502303686513
20
1244.661416418578
30
0.0
40
5.000000000000
100
AcDbArc
50
270.000000000000
51
360.000000000000
0
ARC
5
b3a
100
AcDbEntity
8
0-0
6
CONTINUOUS
62
7
100
AcDbCircle
10
5047.111303686513
20
1221.864416418578
30
0.0
40
58.458000000000
100
AcDbArc
50
2.743000000000
51
34.127000000000
0
LINE
5
b3b
100
AcDbEntity
8
0-0
6
CONTINUOUS
62
7
100
AcDbLine
10
4793.575547811196
20
1244.661416418578
30
0.0
11
4793.575547811196
21
1239.661416418578
31
0.0
0
LINE
5
b3c
100
AcDbEntity
8
0-0
6
CONTINUOUS
62
7
100
AcDbLine
10
4783.575547811196
20
1224.661416418578
30
0.0
11
4783.575547811196
21
1216.661416418577
31
0.0
0
LINE
5
b3d
100
AcDbEntity
8
0-0
6
CONTINUOUS
62
7
100
AcDbLine
10
4801.075547811196
20
1216.661416418577
30
0.0
11
4801.075547811196
21
1214.661416418578
31
0.0
0
LINE
5
b3e
100
AcDbEntity
8
0-0
6
CONTINUOUS
62
7
100
AcDbLine
10
4811.075547811196
20
1216.661416418577
30
0.0
11
4811.075547811196
21
1214.661416418578
31
0.0
0
ARC
5
b3f
100
AcDbEntity
8
0-0
6
CONTINUOUS
62
7
100
AcDbCircle
10
4798.575547811196
20
1224.661416418578
30
0.0
40
15.000000000000
100
AcDbArc
50
90.000000000000
51
180.000000000000
0
ARC
5
b40
100
AcDbEntity
8
0-0
6
CONTINUOUS
62
7
100
AcDbCircle
10
4808.575547811196
20
1244.661416418578
30
0.0
40
15.000000000000
100
AcDbArc
50
90.000000000000
51
180.000000000000
0
LINE
5
b41
100
AcDbEntity
8
0-0
6
CONTINUOUS
62
7
100
AcDbLine
10
5090.502303686513
20
1259.661416418578
30
0.0
11
4807.722282096411
21
1259.661416418578
31
0.0
0
LINE
5
b42
100
AcDbEntity
8
0-0
6
CONTINUOUS
62
7
100
AcDbLine
10
4797.541904338510
20
1239.661416418578
30
0.0
11
5090.502303686513
21
1239.661416418578
31
0.0
0
LINE
5
b43
100
AcDbEntity
8
0-0
6
CONTINUOUS
62
7
100
AcDbLine
10
5090.502303686513
20
1216.661416418577
30
0.0
11
4783.968067327975
21
1216.661416418577
31
0.0
0
LINE
5
b44
100
AcDbEntity
8
0-0
6
CONTINUOUS
62
7
100
AcDbLine
10
5175.466464002251
20
1214.661416418578
30
0.0
11
4796.113079390033
21
1214.661416418578
31
0.0
0
ARC
5
b45
100
AcDbEntity
8
0-0
6
CONTINUOUS
62
7
100
AcDbCircle
10
4797.756452433157
20
1199.353774241230
30
0.0
40
15.500000000000
100
AcDbArc
50
95.365630926640
51
266.443818905745
0
LINE
5
b46
100
AcDbEntity
8
0-0
6
CONTINUOUS
62
7
100
AcDbLine
10
5195.543303686512
20
2436.183555306224
30
0.0
11
4980.502303686513
21
2436.183555306224
31
0.0
0
LINE
5
b47
100
AcDbEntity
8
0-0
6
CONTINUOUS
62
16
100
AcDbLine
10
5380.502303686513
20
2832.253555306224
30
0.0
11
5380.502303686513
21
2821.773555306225
31
0.0
0
LINE
5
b48
100
AcDbEntity
8
0-0
6
CONTINUOUS
62
7
100
AcDbLine
10
5380.502303686513
20
2731.183555306225
30
0.0
11
5380.502303686513
21
2994.729555306225
31
0.0
0
LINE
5
b49
100
AcDbEntity
8
0-0
6
CONTINUOUS
62
7
100
AcDbLine
10
5350.502303686513
20
3009.729555306225
30
0.0
11
5195.502303686513
21
3009.729555306225
31
0.0
0
LINE
5
b4a
100
AcDbEntity
8
0-0
6
CONTINUOUS
62
7
100
AcDbLine
10
5190.502303686513
20
3004.729555306225
30
0.0
11
5190.502303686513
21
2969.729555306225
31
0.0
0
LINE
5
b4b
100
AcDbEntity
8
0-0
6
CONTINUOUS
62
7
100
AcDbLine
10
5355.502303686513
20
3004.729555306225
30
0.0
11
5355.502303686513
21
2999.729555306225
31
0.0
0
LINE
5
b4c
100
AcDbEntity
8
0-0
6
CONTINUOUS
62
7
100
AcDbLine
10
5298.002303686513
20
3012.729555306225
30
0.0
11
5248.002303686513
21
3012.729555306225
31
0.0
0
LINE
5
b4d
100
AcDbEntity
8
0-0
6
CONTINUOUS
62
7
100
AcDbLine
10
5288.002303686513
20
3014.729555306225
30
0.0
11
5258.002303686513
21
3014.729555306225
31
0.0
0
LINE
5
b4e
100
AcDbEntity
8
0-0
6
CONTINUOUS
62
7
100
AcDbLine
10
5298.002303686513
20
3009.729555306225
30
0.0
11
5298.002303686513
21
3012.729555306225
31
0.0
0
LINE
5
b4f
100
AcDbEntity
8
0-0
6
CONTINUOUS
62
7
100
AcDbLine
10
5288.002303686513
20
3012.729555306225
30
0.0
11
5288.002303686513
21
3014.729555306225
31
0.0
0
LINE
5
b50
100
AcDbEntity
8
0-0
6
CONTINUOUS
62
7
100
AcDbLine
10
5248.002303686513
20
3012.729555306225
30
0.0
11
5248.002303686513
21
3009.729555306225
31
0.0
0
LINE
5
b51
100
AcDbEntity
8
0-0
6
CONTINUOUS
62
7
100
AcDbLine
10
5258.002303686513
20
3014.729555306225
30
0.0
11
5258.002303686513
21
3012.729555306225
31
0.0
0
LINE
5
b52
100
AcDbEntity
8
0-0
6
CONTINUOUS
62
7
100
AcDbLine
10
5354.728303686513
20
2688.800555306225
30
0.0
11
5323.808303686514
21
2661.183555306225
31
0.0
0
LINE
5
b53
100
AcDbEntity
8
0-0
6
CONTINUOUS
62
7
100
AcDbLine
10
4845.502303686513
20
2411.183555306224
30
0.0
11
5290.502303686513
21
2411.183555306224
31
0.0
0
ARC
5
b54
100
AcDbEntity
8
0-0
6
CONTINUOUS
62
7
100
AcDbCircle
10
5083.731303686513
20
2433.690555306225
30
0.0
40
46.443000000000
100
AcDbArc
50
102.776062652428
51
176.922302548517
0
ARC
5
b55
100
AcDbEntity
8
0-0
6
CONTINUOUS
62
7
100
AcDbCircle
10
5118.689303686514
20
2287.126555306225
30
0.0
40
197.116000000000
100
AcDbArc
50
82.680826037877
51
103.264842677480
0
ARC
5
b56
100
AcDbEntity
8
0-0
6
CONTINUOUS
62
7
100
AcDbCircle
10
5172.471303686513
20
2490.398555306225
30
0.0
40
29.702000000000
100
AcDbArc
50
131.123586922882
51
195.149975697904
0
ARC
5
b57
100
AcDbEntity
8
0-0
6
CONTINUOUS
62
7
100
AcDbCircle
10
5033.299303686514
20
2567.945555306225
30
0.0
40
131.747000000000
100
AcDbArc
50
335.242350033599
51
363.411768207188
0
ARC
5
b58
100
AcDbEntity
8
0-0
6
CONTINUOUS
62
7
100
AcDbCircle
10
5153.459303686514
20
2574.881555306225
30
0.0
40
11.389000000000
100
AcDbArc
50
4.554986098066
51
140.154810377017
0
ARC
5
b59
100
AcDbEntity
8
0-0
6
CONTINUOUS
62
7
100
AcDbCircle
10
4964.834303686514
20
2709.266555306225
30
0.0
40
220.246000000000
100
AcDbArc
50
272.127184798549
51
324.758391497905
0
ARC
5
b5a
100
AcDbEntity
8
0-0
6
CONTINUOUS
62
7
100
AcDbCircle
10
5547.580303686513
20
2543.408555306225
30
0.0
40
577.126000000000
100
AcDbArc
50
179.427701251579
51
190.707228853251
0
ARC
5
b5b
100
AcDbEntity
8
0-0
6
CONTINUOUS
62
7
100
AcDbCircle
10
5379.219303686514
20
2614.801555306225
30
0.0
40
72.261000000000
100
AcDbArc
50
140.068547028528
51
168.620286471034
0
ARC
5
b5c
100
AcDbEntity
8
0-0
6
CONTINUOUS
62
7
100
AcDbCircle
10
6814.935303686514
20
2395.778555306225
30
0.0
40
1524.511000000000
100
AcDbArc
50
171.198023015219
51
179.421020607064
0
ARC
5
b5d
100
AcDbEntity
8
0-0
6
CONTINUOUS
62
7
100
AcDbCircle
10
5319.427303686513
20
2739.296555306225
30
0.0
40
61.612000000000
100
AcDbArc
50
304.957000000000
51
352.434000000000
0
ARC
5
b5e
100
AcDbEntity
8
0-0
6
CONTINUOUS
62
7
100
AcDbCircle
10
5195.543303686512
20
2441.183555306224
30
0.0
40
5.000000000000
100
AcDbArc
50
270.000000000000
51
367.352000000000
0
ARC
5
b5f
100
AcDbEntity
8
0-0
6
CONTINUOUS
62
7
100
AcDbCircle
10
6889.482303686515
20
2743.151555306225
30
0.0
40
1714.022000000000
100
AcDbArc
50
172.404000000000
51
180.400000000000
0
ARC
5
b60
100
AcDbEntity
8
0-0
6
CONTINUOUS
62
7
100
AcDbCircle
10
5195.502303686513
20
3004.729555306225
30
0.0
40
5.000000000000
100
AcDbArc
50
90.000000000000
51
180.000000000000
0
ARC
5
b61
100
AcDbEntity
8
0-0
6
CONTINUOUS
62
7
100
AcDbCircle
10
5375.502303686513
20
2994.729555306225
30
0.0
40
5.000000000000
100
AcDbArc
50
360.000000000000
51
450.000000000000
0
ARC
5
b62
100
AcDbEntity
8
0-0
6
CONTINUOUS
62
7
100
AcDbCircle
10
5350.502303686513
20
3004.729555306225
30
0.0
40
5.000000000000
100
AcDbArc
50
360.000000000000
51
450.000000000000
0
ARC
5
b63
100
AcDbEntity
8
0-0
6
CONTINUOUS
62
7
100
AcDbCircle
10
4920.268303686513
20
2668.244555306225
30
0.0
40
131.778000000000
100
AcDbArc
50
169.975167513414
51
235.433406802190
0
ARC
5
b64
100
AcDbEntity
8
0-0
6
CONTINUOUS
62
7
100
AcDbCircle
10
4815.738303686512
20
2543.109555306225
30
0.0
40
34.090000000000
100
AcDbArc
50
3.582178169726
51
29.179015788750
0
ARC
5
b65
100
AcDbEntity
8
0-0
6
CONTINUOUS
62
7
100
AcDbCircle
10
-1604.618696313488
20
2683.221555306225
30
0.0
40
6455.855000000001
100
AcDbArc
50
357.584948020100
51
358.775314430914
0
ARC
5
b66
100
AcDbEntity
8
0-0
6
CONTINUOUS
62
7
100
AcDbCircle
10
11303.070303686512
20
3182.448555306225
30
0.0
40
6147.345000000000
100
AcDbArc
50
184.584000000000
51
186.920000000000
0
ARC
5
b67
100
AcDbEntity
8
0-0
6
CONTINUOUS
62
7
100
AcDbCircle
10
4920.212303686512
20
2957.306555306225
30
0.0
40
411.218000000000
100
AcDbArc
50
260.980809212003
51
277.021903811650
0
ARC
5
b68
100
AcDbEntity
8
0-0
6
CONTINUOUS
62
7
100
AcDbCircle
10
4954.014303686514
20
2712.875555306225
30
0.0
40
164.529000000000
100
AcDbArc
50
275.744613443211
51
352.424029479690
0
ARC
5
b69
100
AcDbEntity
8
0-0
6
CONTINUOUS
62
7
100
AcDbCircle
10
5152.220303686514
20
2573.888555306225
30
0.0
40
77.698000000000
100
AcDbArc
50
69.754379206973
51
142.049303812246
0
LINE
5
b6a
100
AcDbEntity
8
0-0
6
CONTINUOUS
62
7
100
AcDbLine
10
5375.502303686513
20
2999.729555306225
30
0.0
11
5355.176873824799
21
2999.729555306225
31
0.0
0
LINE
5
b6b
100
AcDbEntity
8
0-0
6
CONTINUOUS
62
7
100
AcDbLine
10
5355.388567565778
20
2999.917483204815
30
0.0
11
5355.388567565778
21
2970.176776056483
31
0.0
0
LINE
5
b6c
100
AcDbEntity
8
0-0
6
CONTINUOUS
62
7
100
AcDbLine
10
5354.979985004047
20
2969.729555306225
30
0.0
11
5190.502303686513
21
2969.729555306225
31
0.0
0
LINE
5
b6d
100
AcDbEntity
8
0-0
6
CONTINUOUS
62
7
100
AcDbLine
10
4790.502303686513
20
2691.183555306225
30
0.0
11
5175.466464002251
21
2691.183555306225
31
0.0
0
LINE
5
b6e
100
AcDbEntity
8
0-0
6
CONTINUOUS
62
7
100
AcDbLine
10
5095.502303686513
20
2761.955958757873
30
0.0
11
5095.502303686513
21
2751.955958757873
31
0.0
0
LINE
5
b6f
100
AcDbEntity
8
0-0
6
CONTINUOUS
62
7
100
AcDbLine
10
5145.445303686514
20
2731.955958757873
30
0.0
11
5145.445303686514
21
2721.955958757873
31
0.0
0
LINE
5
b70
100
AcDbEntity
8
0-0
6
CONTINUOUS
62
7
100
AcDbLine
10
5090.502303686513
20
2746.955958757873
30
0.0
11
5090.502303686513
21
2721.955958757873
31
0.0
0
LINE
5
b71
100
AcDbEntity
8
0-0
6
CONTINUOUS
62
7
100
AcDbLine
10
5145.445303686514
20
2731.955958757873
30
0.0
11
5101.057303686514
21
2731.955958757873
31
0.0
0
LINE
5
b72
100
AcDbEntity
8
0-0
6
CONTINUOUS
62
7
100
AcDbLine
10
5093.502303686513
20
2731.955958757873
30
0.0
11
5090.502303686513
21
2731.955958757873
31
0.0
0
LINE
5
b73
100
AcDbEntity
8
0-0
6
CONTINUOUS
62
7
100
AcDbLine
10
4965.502303686513
20
2723.955958757873
30
0.0
11
4965.502303686513
21
2721.955958757873
31
0.0
0
LINE
5
b74
100
AcDbEntity
8
0-0
6
CONTINUOUS
62
7
100
AcDbLine
10
4935.502303686513
20
2723.955958757873
30
0.0
11
4935.502303686513
21
2721.955958757873
31
0.0
0
ARC
5
b75
100
AcDbEntity
8
0-0
6
CONTINUOUS
62
7
100
AcDbCircle
10
5099.502303686513
20
2731.955958757873
30
0.0
40
6.000000000000
100
AcDbArc
50
360.000000000000
51
540.000000000000
0
ARC
5
b76
100
AcDbEntity
8
0-0
6
CONTINUOUS
62
7
100
AcDbCircle
10
5090.502303686513
20
2761.955958757873
30
0.0
40
5.000000000000
100
AcDbArc
50
360.000000000000
51
450.000000000000
0
ARC
5
b77
100
AcDbEntity
8
0-0
6
CONTINUOUS
62
7
100
AcDbCircle
10
5090.502303686513
20
2751.955958757873
30
0.0
40
5.000000000000
100
AcDbArc
50
270.000000000000
51
360.000000000000
0
ARC
5
b78
100
AcDbEntity
8
0-0
6
CONTINUOUS
62
7
100
AcDbCircle
10
5047.111303686513
20
2729.158958757873
30
0.0
40
58.458000000000
100
AcDbArc
50
2.743000000000
51
34.127000000000
0
LINE
5
b79
100
AcDbEntity
8
0-0
6
CONTINUOUS
62
7
100
AcDbLine
10
4793.575547811196
20
2751.955958757873
30
0.0
11
4793.575547811196
21
2746.955958757873
31
0.0
0
LINE
5
b7a
100
AcDbEntity
8
0-0
6
CONTINUOUS
62
7
100
AcDbLine
10
4783.575547811196
20
2731.955958757873
30
0.0
11
4783.575547811196
21
2723.955958757873
31
0.0
0
LINE
5
b7b
100
AcDbEntity
8
0-0
6
CONTINUOUS
62
7
100
AcDbLine
10
4801.075547811196
20
2723.955958757873
30
0.0
11
4801.075547811196
21
2721.955958757873
31
0.0
0
LINE
5
b7c
100
AcDbEntity
8
0-0
6
CONTINUOUS
62
7
100
AcDbLine
10
4811.075547811196
20
2723.955958757873
30
0.0
11
4811.075547811196
21
2721.955958757873
31
0.0
0
ARC
5
b7d
100
AcDbEntity
8
0-0
6
CONTINUOUS
62
7
100
AcDbCircle
10
4798.575547811196
20
2731.955958757873
30
0.0
40
15.000000000000
100
AcDbArc
50
90.000000000000
51
180.000000000000
0
ARC
5
b7e
100
AcDbEntity
8
0-0
6
CONTINUOUS
62
7
100
AcDbCircle
10
4808.575547811196
20
2751.955958757873
30
0.0
40
15.000000000000
100
AcDbArc
50
90.000000000000
51
180.000000000000
0
LINE
5
b7f
100
AcDbEntity
8
0-0
6
CONTINUOUS
62
7
100
AcDbLine
10
5090.502303686513
20
2766.955958757873
30
0.0
11
4807.722282096411
21
2766.955958757873
31
0.0
0
LINE
5
b80
100
AcDbEntity
8
0-0
6
CONTINUOUS
62
7
100
AcDbLine
10
4797.541904338510
20
2746.955958757873
30
0.0
11
5090.502303686513
21
2746.955958757873
31
0.0
0
LINE
5
b81
100
AcDbEntity
8
0-0
6
CONTINUOUS
62
7
100
AcDbLine
10
5090.502303686513
20
2723.955958757873
30
0.0
11
4783.968067327975
21
2723.955958757873
31
0.0
0
LINE
5
b82
100
AcDbEntity
8
0-0
6
CONTINUOUS
62
7
100
AcDbLine
10
5175.466464002251
20
2721.955958757873
30
0.0
11
4796.113079390033
21
2721.955958757873
31
0.0
0
ARC
5
b83
100
AcDbEntity
8
0-0
6
CONTINUOUS
62
7
100
AcDbCircle
10
4797.756452433157
20
2706.648316580526
30
0.0
40
15.500000000000
100
AcDbArc
50
95.365630926640
51
266.443818905745
0
ENDSEC
 0
SECTION
  2
OBJECTS
 0
DICTIONARY
  5
C
100
AcDbDictionary
  3
ACAD_GROUP
350
D
  3
ACAD_MLINESTYLE
350
E
 0
DICTIONARY
  5
D
100
AcDbDictionary
 0
DICTIONARY
  5
E
100
AcDbDictionary
  3
STANDARD
350
13
0
MLINESTYLE
  5
13
100
AcDbMlineStyle
  2
STANDARD
 70
    0
3

62
256
51
90.0
52
90.0
71
0
0
ENDSEC
0
EOF
